999
DXF file: C:\Users\sesa63760\Dev\_Creo\CAD\MCADID0001634_3D-CAD\drw0001_4.dxf
999
Pro/ENGINEER 2019471 by Parametric Technology Corporation
  0
SECTION
  2
HEADER
  9
$ACADVER
  1
AC1024
  9
$DWGCODEPAGE
  3
ANSI_1252
  9
$EXTMAX
 10
221.6087600139
 20
313.4181034483
 30
0.0
  9
$EXTMIN
 10
0.0
 20
0.0
 30
0.0
  9
$LIMMIN
 10
0.0
 20
0.0
  9
$LIMMAX
 10
221.6087600139
 20
313.4181034483
  9
$VIEWCTR
 10
110.804380007
 20
156.7090517241
  9
$VIEWSIZE
 40
313.4181034483
  9
$CLAYER
  8
0
  9
$LTSCALE
 40
20.4302171137
  9
$CELTYPE
  6
BYLAYER
  9
$DIMSCALE
 40
1.0
  9
$DIMASZ
 40
2.638199524
  9
$DIMEXO
 40
1.0
  9
$DIMDLI
 40
14.1154227331
  9
$DIMEXE
 40
1.0
  9
$DIMCEN
 40
3.3431264368
  9
$DIMLFAC
 40
1.0
  9
$DIMBLK
  1
_FILLED
  9
$DIMALT
 70
0
  9
$DIMALTF
 40
0.0393700787
  9
$DIMTXT
 40
3.6934793336
  9
$DIMTOL
 70
1
  9
$DIMLIM
 70
0
  9
$DIMTFAC
 40
1.0
  9
$DIMTP
 40
0.01
  9
$DIMTM
 40
0.01
  9
$DIMGAP
 40
0.625
  9
$DIMDSEP
 70
46
  9
$AUNITS
 70
0
  9
$PDMODE
 70
3
  9
$PDSIZE
 40
0.3125
  9
$HANDSEED
  5
3D1
  9
$TILEMODE
 70
1
  9
$MEASUREMENT
 70
1
  9
$INSUNITS
 70
4
  0
ENDSEC
  0
SECTION
  2
CLASSES
  0
CLASS
  1
ACDBDICTIONARYWDFLT
  2
AcDbDictionaryWithDefault
  3
AutoCAD 2000
 90
0
 91
1
280
0
281
0
  0
CLASS
  1
ACDBPLACEHOLDER
  2
AcDbPlaceHolder
  3
AutoCAD 2000
 90
0
 91
1
280
0
281
0
  0
CLASS
  1
LAYOUT
  2
AcDbLayout
  3
AutoCAD 2000
 90
0
 91
0
280
0
281
0
  0
ENDSEC
  0
SECTION
  2
TABLES
  0
TABLE
  2
VPORT
  5
8
100
AcDbSymbolTable
 70
2
  0
VPORT
  5
1F4
100
AcDbSymbolTableRecord
100
AcDbViewportTableRecord
  2
*ACTIVE
 70
0
 10
0.0
 20
0.0
 11
1.0
 21
1.0
 12
110.804380007
 22
156.7090517241
 13
0.0
 23
0.0
 14
1.0
 24
1.0
 15
0.0
 25
0.0
 16
0.0
 26
0.0
 36
1.0
 17
0.0
 27
0.0
 37
0.0
 40
313.4181034483
 41
0.7070707071
 42
50.0
 43
0.0
 44
0.0
 50
0.0
 51
0.0
 71
0
 72
100
 73
1
 74
1
 75
0
 76
0
 77
0
 78
0
  0
ENDTAB
  0
TABLE
  2
LTYPE
  5
5
100
AcDbSymbolTable
 70
6
  0
LTYPE
  5
14
100
AcDbSymbolTableRecord
100
AcDbLinetypeTableRecord
  2
BYBLOCK
 70
0
  3

 72
65
 73
0
 40
0.0
  0
LTYPE
  5
15
100
AcDbSymbolTableRecord
100
AcDbLinetypeTableRecord
  2
BYLAYER
 70
0
  3

 72
65
 73
0
 40
0.0
  0
LTYPE
  5
16
100
AcDbSymbolTableRecord
100
AcDbLinetypeTableRecord
  2
CONTINUOUS
 70
64
  3
Solid line
 72
65
 73
0
 40
0.0
  0
LTYPE
  5
1F5
100
AcDbSymbolTableRecord
100
AcDbLinetypeTableRecord
  2
CENTER
 70
64
  3
____ _ ____ _ ____ _ ____ _ ____ _ ____ _ ____
 72
65
 73
4
 40
0.6
 49
0.375
 74
0
 49
-0.075
 74
0
 49
0.075
 74
0
 49
-0.075
 74
0
  0
LTYPE
  5
1F6
100
AcDbSymbolTableRecord
100
AcDbLinetypeTableRecord
  2
HIDDEN
 70
64
  3
- - - - - - - - - - - - - - - - - - - -
 72
65
 73
2
 40
0.2
 49
0.1
 74
0
 49
-0.1
 74
0
  0
LTYPE
  5
1F7
100
AcDbSymbolTableRecord
100
AcDbLinetypeTableRecord
  2
PHANTOM
 70
64
  3
_____ _ _ _____ _ _ _____ _ _ _____
 72
65
 73
6
 40
0.8
 49
0.45
 74
0
 49
-0.05
 74
0
 49
0.1
 74
0
 49
-0.05
 74
0
 49
0.1
 74
0
 49
-0.05
 74
0
  0
LTYPE
  5
1F8
100
AcDbSymbolTableRecord
100
AcDbLinetypeTableRecord
  2
DOT
 70
64
  3
. . . . . . . . . . . . . . . . . . . .
 72
65
 73
2
 40
0.2
 49
0.1
 74
0
 49
-0.1
 74
0
  0
LTYPE
  5
1F9
100
AcDbSymbolTableRecord
100
AcDbLinetypeTableRecord
  2
DASHED
 70
64
  3
- - - - - - - - - - - - - - - - - - - -
 72
65
 73
2
 40
0.2
 49
0.1
 74
0
 49
-0.1
 74
0
  0
ENDTAB
  0
TABLE
  2
LAYER
  5
2
100
AcDbSymbolTable
 70
36
  0
LAYER
  5
10
100
AcDbSymbolTableRecord
100
AcDbLayerTableRecord
  2
0
 70
0
 62
7
  6
CONTINUOUS
370
-3
390
F
  0
LAYER
  5
1FA
100
AcDbSymbolTableRecord
100
AcDbLayerTableRecord
  2
DEFAULT_1
 70
0
 62
7
  6
CENTER
370
-3
390
F
  0
LAYER
  5
1FB
100
AcDbSymbolTableRecord
100
AcDbLayerTableRecord
  2
DEFAULT_2
 70
0
 62
8
  6
HIDDEN
370
-3
390
F
  0
LAYER
  5
1FC
100
AcDbSymbolTableRecord
100
AcDbLayerTableRecord
  2
DEFAULT_3
 70
0
 62
7
  6
PHANTOM
370
-3
390
F
  0
LAYER
  5
1FD
100
AcDbSymbolTableRecord
100
AcDbLayerTableRecord
  2
00_COMPONENTS
 70
0
 62
7
  6
CONTINUOUS
370
-3
390
F
  0
LAYER
  5
1FE
100
AcDbSymbolTableRecord
100
AcDbLayerTableRecord
  2
01_1_DEFAULT_DATUMS
 70
0
 62
7
  6
CONTINUOUS
370
-3
390
F
  0
LAYER
  5
1FF
100
AcDbSymbolTableRecord
100
AcDbLayerTableRecord
  2
01_PLANES
 70
0
 62
7
  6
CONTINUOUS
370
-3
390
F
  0
LAYER
  5
200
100
AcDbSymbolTableRecord
100
AcDbLayerTableRecord
  2
02_COORD_SYS
 70
0
 62
7
  6
CONTINUOUS
370
-3
390
F
  0
LAYER
  5
201
100
AcDbSymbolTableRecord
100
AcDbLayerTableRecord
  2
03_AXES
 70
0
 62
7
  6
CONTINUOUS
370
-3
390
F
  0
LAYER
  5
202
100
AcDbSymbolTableRecord
100
AcDbLayerTableRecord
  2
04_POINTS
 70
0
 62
7
  6
CONTINUOUS
370
-3
390
F
  0
LAYER
  5
203
100
AcDbSymbolTableRecord
100
AcDbLayerTableRecord
  2
05_CURVES
 70
0
 62
7
  6
CONTINUOUS
370
-3
390
F
  0
LAYER
  5
204
100
AcDbSymbolTableRecord
100
AcDbLayerTableRecord
  2
06_SURFS
 70
0
 62
7
  6
CONTINUOUS
370
-3
390
F
  0
LAYER
  5
205
100
AcDbSymbolTableRecord
100
AcDbLayerTableRecord
  2
07_COSMETICS
 70
0
 62
7
  6
CONTINUOUS
370
-3
390
F
  0
LAYER
  5
206
100
AcDbSymbolTableRecord
100
AcDbLayerTableRecord
  2
10_NOTES
 70
0
 62
7
  6
CONTINUOUS
370
-3
390
F
  0
LAYER
  5
207
100
AcDbSymbolTableRecord
100
AcDbLayerTableRecord
  2
11_NOTES_PUB
 70
0
 62
7
  6
CONTINUOUS
370
-3
390
F
  0
LAYER
  5
208
100
AcDbSymbolTableRecord
100
AcDbLayerTableRecord
  2
13_REF_GTOL
 70
0
 62
7
  6
CONTINUOUS
370
-3
390
F
  0
LAYER
  5
209
100
AcDbSymbolTableRecord
100
AcDbLayerTableRecord
  2
16_MISC
 70
0
 62
7
  6
CONTINUOUS
370
-3
390
F
  0
LAYER
  5
20A
100
AcDbSymbolTableRecord
100
AcDbLayerTableRecord
  2
17_NO_PRINT
 70
0
 62
7
  6
CONTINUOUS
370
-3
390
F
  0
LAYER
  5
20B
100
AcDbSymbolTableRecord
100
AcDbLayerTableRecord
  2
18_DATUM_CAMS_JOINTS
 70
0
 62
7
  6
CONTINUOUS
370
-3
390
F
  0
LAYER
  5
20C
100
AcDbSymbolTableRecord
100
AcDbLayerTableRecord
  2
19_DATUM_FUNCTIONAL
 70
0
 62
7
  6
CONTINUOUS
370
-3
390
F
  0
LAYER
  5
20D
100
AcDbSymbolTableRecord
100
AcDbLayerTableRecord
  2
20_DATUM_KINEMATIC_SCHEME
 70
0
 62
7
  6
CONTINUOUS
370
-3
390
F
  0
ENDTAB
  0
TABLE
  2
STYLE
  5
3
100
AcDbSymbolTable
 70
1
  0
STYLE
  5
11
100
AcDbSymbolTableRecord
100
AcDbTextStyleTableRecord
  2
STANDARD
 70
0
 40
0.0
 41
0.8
 50
0.0
 71
0
 42
0.2
  3
txt
  4

  0
STYLE
  5
20E
100
AcDbSymbolTableRecord
100
AcDbTextStyleTableRecord
  2
TEXTSTYLE_1
 70
0
 40
0.0
 41
0.8
 50
0.0
 71
0
 42
0.2
  3
gdt
  4

  0
ENDTAB
  0
TABLE
  2
VIEW
  5
6
100
AcDbSymbolTable
 70
0
  0
ENDTAB
  0
TABLE
  2
UCS
  5
7
100
AcDbSymbolTable
 70
0
  0
ENDTAB
  0
TABLE
  2
APPID
  5
9
100
AcDbSymbolTable
 70
1
  0
APPID
  5
20F
100
AcDbSymbolTableRecord
100
AcDbRegAppTableRecord
  2
ACAD
 70
0
  0
ENDTAB
  0
TABLE
  2
BLOCK_RECORD
  5
1
100
AcDbSymbolTable
 70
0
  0
BLOCK_RECORD
  5
210
100
AcDbSymbolTableRecord
100
AcDbBlockTableRecord
  2
*Model_Space
  0
BLOCK_RECORD
  5
211
100
AcDbSymbolTableRecord
100
AcDbBlockTableRecord
  2
*Paper_Space
  0
BLOCK_RECORD
  5
212
100
AcDbSymbolTableRecord
100
AcDbBlockTableRecord
  2
_FILLED
  0
ENDTAB
  0
TABLE
  2
DIMSTYLE
  5
A
100
AcDbSymbolTable
 70
1
100
AcDbDimStyleTable
 71
0
  0
DIMSTYLE
105
213
100
AcDbSymbolTableRecord
100
AcDbDimStyleTableRecord
  2
STANDARD
 70
0
  3

  4

 40
1.0
 41
2.638199524
 42
1.0
 43
0.38
 44
1.0
 45
0.0
 46
0.0
 47
0.01
 48
0.01
140
3.6934793336
141
0.09
142
0.0
143
25.4
144
1.0
145
0.0
146
1.0
147
0.625
 71
1
 72
0
 73
0
 74
0
 75
0
 76
0
 77
1
 78
8
 79
2
170
0
171
1
172
0
173
0
174
0
175
0
176
0
177
0
178
0
270
2
179
2
271
2
272
2
273
2
274
2
275
0
280
0
281
0
282
0
283
1
284
8
285
0
286
0
287
3
288
0
340
11
278
46
341
212
342
212
343
212
344
212
  0
ENDTAB
  0
ENDSEC
  0
SECTION
  2
BLOCKS
  0
BLOCK
  5
20
100
AcDbEntity
  8
0
100
AcDbBlockBegin
  2
*Model_Space
 70
0
 10
0.0
 20
0.0
 30
0.0
  3
*Model_Space
  1

  0
ENDBLK
  5
21
100
AcDbEntity
  8
0
100
AcDbBlockEnd
  0
BLOCK
  5
1C
100
AcDbEntity
  8
0
100
AcDbBlockBegin
  2
*Paper_Space
 70
0
 10
0.0
 20
0.0
 30
0.0
  3
*Paper_Space
  1

  0
ENDBLK
  5
1D
100
AcDbEntity
  8
0
100
AcDbBlockEnd
  0
BLOCK
  5
214
100
AcDbEntity
  8
0
100
AcDbBlockBegin
  2
_FILLED
 70
64
 10
0.0
 20
0.0
  3
_FILLED
  1

  0
SOLID
  5
215
100
AcDbEntity
  8
0
  6
BYBLOCK
 62
0
100
AcDbTrace
 10
0.0
 20
0.0
 11
-1.0
 21
0.25
 12
-1.0
 22
-0.25
 13
-1.0
 23
-0.25
  0
ENDBLK
  5
216
100
AcDbEntity
  8
0
  6
BYBLOCK
 62
0
100
AcDbBlockEnd
  0
ENDSEC
  0
SECTION
  2
ENTITIES
  0
LINE
  5
217
100
AcDbEntity
  8
0
100
AcDbLine
 62
7
  6
CONTINUOUS
 10
24.6815351794
 20
148.3564732168
 11
24.6815351794
 21
158.8554997524
  0
LINE
  5
218
100
AcDbEntity
  8
0
100
AcDbLine
 62
7
  6
CONTINUOUS
 10
26.6815351794
 20
147.0708979974
 11
26.6815351794
 21
148.2199646621
  0
LINE
  5
219
100
AcDbEntity
  8
0
100
AcDbLine
 62
7
  6
CONTINUOUS
 10
29.6815351794
 20
160.3054997524
 11
29.6815351794
 21
161.3054997524
  0
LINE
  5
21A
100
AcDbEntity
  8
0
100
AcDbLine
 62
7
  6
CONTINUOUS
 10
30.0815351794
 20
161.3054997524
 11
30.0815351794
 21
162.6054997524
  0
LINE
  5
21B
100
AcDbEntity
  8
0
100
AcDbLine
 62
7
  6
CONTINUOUS
 10
30.1815351794
 20
162.6054997524
 11
30.3093997271
 21
164.0669982205
  0
LINE
  5
21C
100
AcDbEntity
  8
0
100
AcDbLine
 62
7
  6
CONTINUOUS
 10
32.1815351794
 20
158.8554997524
 11
32.1815351794
 21
160.3054997524
  0
LINE
  5
21D
100
AcDbEntity
  8
0
100
AcDbLine
 62
7
  6
CONTINUOUS
 10
32.2315351794
 20
165.6527334693
 11
32.2315351794
 21
165.6475183182
  0
LINE
  5
21E
100
AcDbEntity
  8
0
100
AcDbLine
 62
7
  6
CONTINUOUS
 10
34.3315351794
 20
165.6475183182
 11
34.3315351794
 21
165.8702396159
  0
LINE
  5
21F
100
AcDbEntity
  8
0
100
AcDbLine
 62
7
  6
CONTINUOUS
 10
35.0315351794
 20
165.8702396159
 11
35.0315351794
 21
165.6475183182
  0
LINE
  5
220
100
AcDbEntity
  8
0
100
AcDbLine
 62
7
  6
CONTINUOUS
 10
39.0536706317
 20
164.0669982205
 11
39.1815351794
 21
162.6054997524
  0
LINE
  5
221
100
AcDbEntity
  8
0
100
AcDbLine
 62
7
  6
CONTINUOUS
 10
37.1315351794
 20
165.6475183182
 11
37.1315351794
 21
165.6527334693
  0
LINE
  5
222
100
AcDbEntity
  8
0
100
AcDbLine
 62
7
  6
CONTINUOUS
 10
37.1815351794
 20
160.3054997524
 11
37.1815351794
 21
158.8554997524
  0
LINE
  5
223
100
AcDbEntity
  8
0
100
AcDbLine
 62
7
  6
CONTINUOUS
 10
39.2815351794
 20
162.6054997524
 11
39.2815351794
 21
161.3054997524
  0
LINE
  5
224
100
AcDbEntity
  8
0
100
AcDbLine
 62
7
  6
CONTINUOUS
 10
39.6815351794
 20
161.3054997524
 11
39.6815351794
 21
160.3054997524
  0
LINE
  5
225
100
AcDbEntity
  8
0
100
AcDbLine
 62
7
  6
CONTINUOUS
 10
43.7250608366
 20
158.8554997524
 11
44.4956847988
 21
160.9727716873
  0
LINE
  5
226
100
AcDbEntity
  8
0
100
AcDbLine
 62
7
  6
CONTINUOUS
 10
44.7892386091
 20
158.8554997524
 11
45.4353774196
 21
160.630751544
  0
LINE
  5
227
100
AcDbEntity
  8
0
100
AcDbLine
 62
7
  6
CONTINUOUS
 10
66.6815351794
 20
156.576203588
 11
66.6815351794
 21
150.1483274912
  0
LINE
  5
228
100
AcDbEntity
  8
0
100
AcDbLine
 62
7
  6
CONTINUOUS
 10
71.6815351794
 20
150.1483274912
 11
71.6815351794
 21
156.576203588
  0
LINE
  5
229
100
AcDbEntity
  8
0
100
AcDbLine
 62
7
  6
CONTINUOUS
 10
76.1815351794
 20
159.8554997524
 11
76.1815351794
 21
160.6554997524
  0
LINE
  5
22A
100
AcDbEntity
  8
0
100
AcDbLine
 62
7
  6
CONTINUOUS
 10
76.3815351794
 20
160.6554997524
 11
76.3815351794
 21
161.6554997524
  0
LINE
  5
22B
100
AcDbEntity
  8
0
100
AcDbLine
 62
7
  6
CONTINUOUS
 10
77.9815351794
 20
163.9824694441
 11
77.9815351794
 21
163.9754481468
  0
LINE
  5
22C
100
AcDbEntity
  8
0
100
AcDbLine
 62
7
  6
CONTINUOUS
 10
78.1815351794
 20
141.6554997524
 11
78.1815351794
 21
147.0708979974
  0
LINE
  5
22D
100
AcDbEntity
  8
0
100
AcDbLine
 62
7
  6
CONTINUOUS
 10
76.6815351794
 20
161.6554997524
 11
76.7794713183
 21
162.7749149422
  0
LINE
  5
22E
100
AcDbEntity
  8
0
100
AcDbLine
 62
7
  6
CONTINUOUS
 10
83.5835990405
 20
162.7749149422
 11
83.6815351794
 21
161.6554997524
  0
LINE
  5
22F
100
AcDbEntity
  8
0
100
AcDbLine
 62
7
  6
CONTINUOUS
 10
79.8315351794
 20
164.2084322329
 11
79.8315351794
 21
163.9754481468
  0
LINE
  5
230
100
AcDbEntity
  8
0
100
AcDbLine
 62
7
  6
CONTINUOUS
 10
80.5315351794
 20
164.2084322329
 11
80.5315351794
 21
163.9754481468
  0
LINE
  5
231
100
AcDbEntity
  8
0
100
AcDbLine
 62
7
  6
CONTINUOUS
 10
82.1815351794
 20
147.0708979974
 11
82.1815351794
 21
141.6554997524
  0
LINE
  5
232
100
AcDbEntity
  8
0
100
AcDbLine
 62
7
  6
CONTINUOUS
 10
82.3815351794
 20
163.9754481468
 11
82.3815351794
 21
163.9824694441
  0
LINE
  5
233
100
AcDbEntity
  8
0
100
AcDbLine
 62
7
  6
CONTINUOUS
 10
83.9815351794
 20
161.6554997524
 11
83.9815351794
 21
160.6554997524
  0
LINE
  5
234
100
AcDbEntity
  8
0
100
AcDbLine
 62
7
  6
CONTINUOUS
 10
84.1815351794
 20
160.6554997524
 11
84.1815351794
 21
159.8554997524
  0
LINE
  5
235
100
AcDbEntity
  8
0
100
AcDbLine
 62
7
  6
CONTINUOUS
 10
88.1815351794
 20
159.8554997524
 11
88.1815351794
 21
158.8554997524
  0
LINE
  5
236
100
AcDbEntity
  8
0
100
AcDbLine
 62
7
  6
CONTINUOUS
 10
90.1815351794
 20
159.8554997524
 11
90.1815351794
 21
158.8554997524
  0
LINE
  5
237
100
AcDbEntity
  8
0
100
AcDbLine
 62
7
  6
CONTINUOUS
 10
65.2163803005
 20
165.9310552914
 11
73.0910642828
 21
159.3234108662
  0
LINE
  5
238
100
AcDbEntity
  8
0
100
AcDbLine
 62
7
  6
CONTINUOUS
 10
44.8175649451
 20
158.933325721
 11
43.8778723243
 21
159.2753458643
  0
LINE
  5
239
100
AcDbEntity
  8
0
100
AcDbLine
 62
7
  6
CONTINUOUS
 10
44.2418425586
 20
160.2753458643
 11
45.1815351794
 21
159.933325721
  0
LINE
  5
23A
100
AcDbEntity
  8
0
100
AcDbLine
 62
7
  6
CONTINUOUS
 10
73.7338518925
 20
160.0894553093
 11
65.8591679102
 21
166.6970997345
  0
LINE
  5
23B
100
AcDbEntity
  8
0
100
AcDbLine
 62
7
  6
CONTINUOUS
 10
97.6815351794
 20
156.576203588
 11
97.6815351794
 21
150.1483274912
  0
LINE
  5
23C
100
AcDbEntity
  8
0
100
AcDbLine
 62
7
  6
CONTINUOUS
 10
190.1815351794
 20
141.6554997524
 11
186.1815351794
 21
141.6554997524
  0
LINE
  5
23D
100
AcDbEntity
  8
0
100
AcDbLine
 62
7
  6
CONTINUOUS
 10
119.1815351794
 20
141.6554997524
 11
115.1815351794
 21
141.6554997524
  0
LINE
  5
23E
100
AcDbEntity
  8
0
100
AcDbLine
 62
7
  6
CONTINUOUS
 10
82.1815351794
 20
141.6554997524
 11
78.1815351794
 21
141.6554997524
  0
LINE
  5
23F
100
AcDbEntity
  8
0
100
AcDbLine
 62
7
  6
CONTINUOUS
 10
102.6815351794
 20
150.1483274912
 11
102.6815351794
 21
156.576203588
  0
LINE
  5
240
100
AcDbEntity
  8
0
100
AcDbLine
 62
7
  6
CONTINUOUS
 10
107.1815351794
 20
159.8554997524
 11
107.1815351794
 21
158.8554997524
  0
LINE
  5
241
100
AcDbEntity
  8
0
100
AcDbLine
 62
7
  6
CONTINUOUS
 10
200.6815351794
 20
147.0708979974
 11
26.6815351793
 21
147.0708979974
  0
LINE
  5
242
100
AcDbEntity
  8
0
100
AcDbLine
 62
7
  6
CONTINUOUS
 10
200.6815351794
 20
148.2199646621
 11
26.6815351794
 21
148.2199646621
  0
LINE
  5
243
100
AcDbEntity
  8
0
100
AcDbLine
 62
7
  6
CONTINUOUS
 10
181.4757638134
 20
149.5055398815
 11
170.1815351794
 21
149.5055398815
  0
LINE
  5
244
100
AcDbEntity
  8
0
100
AcDbLine
 62
7
  6
CONTINUOUS
 10
123.8873065453
 20
149.5055398815
 11
135.1815351794
 21
149.5055398815
  0
LINE
  5
245
100
AcDbEntity
  8
0
100
AcDbLine
 62
7
  6
CONTINUOUS
 10
193.6815351794
 20
149.8269336863
 11
191.6815351794
 21
149.8269336863
  0
LINE
  5
246
100
AcDbEntity
  8
0
100
AcDbLine
 62
7
  6
CONTINUOUS
 10
113.6815351794
 20
149.8269336863
 11
111.6815351794
 21
149.8269336863
  0
LINE
  5
247
100
AcDbEntity
  8
0
100
AcDbLine
 62
7
  6
CONTINUOUS
 10
102.6815351794
 20
150.1483274912
 11
97.6815351794
 21
150.1483274912
  0
LINE
  5
248
100
AcDbEntity
  8
0
100
AcDbLine
 62
7
  6
CONTINUOUS
 10
71.6815351794
 20
150.1483274912
 11
66.6815351794
 21
150.1483274912
  0
LINE
  5
249
100
AcDbEntity
  8
0
100
AcDbLine
 62
7
  6
CONTINUOUS
 10
181.4757638134
 20
150.2715843246
 11
170.1815351794
 21
150.2715843246
  0
LINE
  5
24A
100
AcDbEntity
  8
0
100
AcDbLine
 62
7
  6
CONTINUOUS
 10
123.8873065453
 20
150.2715843246
 11
135.1815351794
 21
150.2715843246
  0
LINE
  5
24B
100
AcDbEntity
  8
0
100
AcDbLine
 62
7
  6
CONTINUOUS
 10
113.249563314
 20
150.131835784
 11
112.4447708983
 21
150.4766020732
  0
LINE
  5
24C
100
AcDbEntity
  8
0
100
AcDbLine
 62
7
  6
CONTINUOUS
 10
106.6765669452
 20
147.0708979974
 11
108.419725378
 21
145.9504173551
  0
LINE
  5
24D
100
AcDbEntity
  8
0
100
AcDbLine
 62
7
  6
CONTINUOUS
 10
109.0625129876
 20
146.537241444
 11
108.232290772
 21
147.0708979974
  0
LINE
  5
24E
100
AcDbEntity
  8
0
100
AcDbLine
 62
7
  6
CONTINUOUS
 10
108.6815351794
 20
160.3054997524
 11
108.6815351794
 21
161.6554997524
  0
LINE
  5
24F
100
AcDbEntity
  8
0
100
AcDbLine
 62
7
  6
CONTINUOUS
 10
109.0625129876
 20
147.0708979974
 11
109.0625129876
 21
146.537241444
  0
LINE
  5
250
100
AcDbEntity
  8
0
100
AcDbLine
 62
7
  6
CONTINUOUS
 10
109.0815351794
 20
161.6554997524
 11
109.0815351794
 21
162.9554997524
  0
LINE
  5
251
100
AcDbEntity
  8
0
100
AcDbLine
 62
7
  6
CONTINUOUS
 10
109.1815351794
 20
159.8554997524
 11
109.1815351794
 21
158.8554997524
  0
LINE
  5
252
100
AcDbEntity
  8
0
100
AcDbLine
 62
7
  6
CONTINUOUS
 10
110.6449932181
 20
146.8620629026
 11
110.6449932181
 21
147.0708979974
  0
LINE
  5
253
100
AcDbEntity
  8
0
100
AcDbLine
 62
7
  6
CONTINUOUS
 10
111.1815351794
 20
159.8554997524
 11
111.1815351794
 21
160.3054997524
  0
LINE
  5
254
100
AcDbEntity
  8
0
100
AcDbLine
 62
7
  6
CONTINUOUS
 10
111.2315351794
 20
166.0027334693
 11
111.2315351794
 21
165.9975183182
  0
LINE
  5
255
100
AcDbEntity
  8
0
100
AcDbLine
 62
7
  6
CONTINUOUS
 10
111.6815351794
 20
156.8975973929
 11
111.6815351794
 21
149.8269336863
  0
LINE
  5
256
100
AcDbEntity
  8
0
100
AcDbLine
 62
7
  6
CONTINUOUS
 10
112.0433794547
 20
156.2331082616
 11
112.0433794547
 21
149.8269336863
  0
LINE
  5
257
100
AcDbEntity
  8
0
100
AcDbLine
 62
7
  6
CONTINUOUS
 10
113.1815351794
 20
159.8554997524
 11
113.1815351794
 21
160.6554997524
  0
LINE
  5
258
100
AcDbEntity
  8
0
100
AcDbLine
 62
7
  6
CONTINUOUS
 10
113.3315351794
 20
165.9975183182
 11
113.3315351794
 21
166.2202396159
  0
LINE
  5
259
100
AcDbEntity
  8
0
100
AcDbLine
 62
7
  6
CONTINUOUS
 10
113.3815351794
 20
160.6554997524
 11
113.3815351794
 21
161.6554997524
  0
LINE
  5
25A
100
AcDbEntity
  8
0
100
AcDbLine
 62
7
  6
CONTINUOUS
 10
113.6815351794
 20
149.8269336863
 11
113.6815351794
 21
149.888562103
  0
LINE
  5
25B
100
AcDbEntity
  8
0
100
AcDbLine
 62
7
  6
CONTINUOUS
 10
114.0315351794
 20
166.2202396159
 11
114.0315351794
 21
165.9975183182
  0
LINE
  5
25C
100
AcDbEntity
  8
0
100
AcDbLine
 62
7
  6
CONTINUOUS
 10
109.1815351794
 20
162.9554997524
 11
109.3093997271
 21
164.4169982205
  0
LINE
  5
25D
100
AcDbEntity
  8
0
100
AcDbLine
 62
7
  6
CONTINUOUS
 10
113.6815351794
 20
161.6554997524
 11
113.7794713183
 21
162.7749149422
  0
LINE
  5
25E
100
AcDbEntity
  8
0
100
AcDbLine
 62
7
  6
CONTINUOUS
 10
111.6815351794
 20
155.4715383027
 11
112.0433794547
 21
156.2331082616
  0
LINE
  5
25F
100
AcDbEntity
  8
0
100
AcDbLine
 62
7
  6
CONTINUOUS
 10
102.6815351794
 20
152.3554997524
 11
97.6815351794
 21
152.3554997524
  0
LINE
  5
260
100
AcDbEntity
  8
0
100
AcDbLine
 62
7
  6
CONTINUOUS
 10
66.6815351794
 20
152.3554997524
 11
71.6815351794
 21
152.3554997524
  0
LINE
  5
261
100
AcDbEntity
  8
0
100
AcDbLine
 62
7
  6
CONTINUOUS
 10
132.0654197417
 20
152.8105953829
 11
133.8815351794
 21
152.8105953829
  0
LINE
  5
262
100
AcDbEntity
  8
0
100
AcDbLine
 62
7
  6
CONTINUOUS
 10
171.4815351794
 20
152.8105953829
 11
173.2981787168
 21
152.8105953829
  0
LINE
  5
263
100
AcDbEntity
  8
0
100
AcDbLine
 62
7
  6
CONTINUOUS
 10
102.6815351794
 20
153.8554997524
 11
97.6815351794
 21
153.8554997524
  0
LINE
  5
264
100
AcDbEntity
  8
0
100
AcDbLine
 62
7
  6
CONTINUOUS
 10
172.6815351794
 20
154.6799801395
 11
171.4815351794
 21
154.6799801395
  0
LINE
  5
265
100
AcDbEntity
  8
0
100
AcDbLine
 62
7
  6
CONTINUOUS
 10
133.8815351794
 20
154.6799801395
 11
132.6815351794
 21
154.6799801395
  0
LINE
  5
266
100
AcDbEntity
  8
0
100
AcDbLine
 62
7
  6
CONTINUOUS
 10
71.6815351794
 20
154.8554997524
 11
66.6815351794
 21
154.8554997524
  0
LINE
  5
267
100
AcDbEntity
  8
0
100
AcDbLine
 62
7
  6
CONTINUOUS
 10
66.6815351794
 20
155.4271369234
 11
71.6815351794
 21
155.4271369234
  0
LINE
  5
268
100
AcDbEntity
  8
0
100
AcDbLine
 62
7
  6
CONTINUOUS
 10
97.6815351794
 20
155.4271369234
 11
102.6815351794
 21
155.4271369234
  0
LINE
  5
269
100
AcDbEntity
  8
0
100
AcDbLine
 62
7
  6
CONTINUOUS
 10
172.8737833128
 20
155.4460245826
 11
171.4815351794
 21
155.4460245826
  0
LINE
  5
26A
100
AcDbEntity
  8
0
100
AcDbLine
 62
7
  6
CONTINUOUS
 10
133.8815351794
 20
155.4460245826
 11
132.4882482895
 21
155.4460245826
  0
LINE
  5
26B
100
AcDbEntity
  8
0
100
AcDbLine
 62
7
  6
CONTINUOUS
 10
111.6815351794
 20
155.7485307282
 11
111.8131424235
 21
155.7485307282
  0
LINE
  5
26C
100
AcDbEntity
  8
0
100
AcDbLine
 62
7
  6
CONTINUOUS
 10
193.5499279353
 20
155.7485307282
 11
193.6815351794
 21
155.7485307282
  0
LINE
  5
26D
100
AcDbEntity
  8
0
100
AcDbLine
 62
7
  6
CONTINUOUS
 10
120.1815351794
 20
150.9074985145
 11
122.8873065453
 21
149.7108008714
  0
LINE
  5
26E
100
AcDbEntity
  8
0
100
AcDbLine
 62
7
  6
CONTINUOUS
 10
123.3873065453
 20
150.3742148196
 11
120.6815351794
 21
151.5709124627
  0
LINE
  5
26F
100
AcDbEntity
  8
0
100
AcDbLine
 62
7
  6
CONTINUOUS
 10
112.8815351794
 20
150.3481887689
 11
113.6815351794
 21
149.888562103
  0
LINE
  5
270
100
AcDbEntity
  8
0
100
AcDbLine
 62
7
  6
CONTINUOUS
 10
118.0536706317
 20
164.4169982205
 11
118.0723057163
 21
164.2039982281
  0
LINE
  5
271
100
AcDbEntity
  8
0
100
AcDbLine
 62
7
  6
CONTINUOUS
 10
114.9815351794
 20
163.9824694441
 11
114.9815351794
 21
163.9754481468
  0
LINE
  5
272
100
AcDbEntity
  8
0
100
AcDbLine
 62
7
  6
CONTINUOUS
 10
115.1815351794
 20
141.6554997524
 11
115.1815351794
 21
147.0708979974
  0
LINE
  5
273
100
AcDbEntity
  8
0
100
AcDbLine
 62
7
  6
CONTINUOUS
 10
116.1315351794
 20
165.9975183182
 11
116.1315351794
 21
166.0027334693
  0
LINE
  5
274
100
AcDbEntity
  8
0
100
AcDbLine
 62
7
  6
CONTINUOUS
 10
116.8315351794
 20
164.2084322329
 11
116.8315351794
 21
163.9754481468
  0
LINE
  5
275
100
AcDbEntity
  8
0
100
AcDbLine
 62
7
  6
CONTINUOUS
 10
117.5315351794
 20
164.2084322329
 11
117.5315351794
 21
163.9754481468
  0
LINE
  5
276
100
AcDbEntity
  8
0
100
AcDbLine
 62
7
  6
CONTINUOUS
 10
119.1815351794
 20
147.0708979974
 11
119.1815351794
 21
141.6554997524
  0
LINE
  5
277
100
AcDbEntity
  8
0
100
AcDbLine
 62
7
  6
CONTINUOUS
 10
119.3815351794
 20
163.9754481468
 11
119.3815351794
 21
163.9824694441
  0
LINE
  5
278
100
AcDbEntity
  8
0
100
AcDbLine
 62
7
  6
CONTINUOUS
 10
110.7442169108
 20
147.0708979974
 11
110.6449932181
 21
146.8620629026
  0
LINE
  5
279
100
AcDbEntity
  8
0
100
AcDbLine
 62
7
  6
CONTINUOUS
 10
111.5846858389
 20
146.6000602723
 11
111.8083946833
 21
147.0708979974
  0
LINE
  5
27A
100
AcDbEntity
  8
0
100
AcDbLine
 62
7
  6
CONTINUOUS
 10
113.3118132302
 20
150.0943047227
 11
113.3150934375
 21
150.0990950981
  0
LINE
  5
27B
100
AcDbEntity
  8
0
100
AcDbLine
 62
7
  6
CONTINUOUS
 10
113.311536576
 20
150.0944225509
 11
113.3149713723
 21
150.0991472593
  0
LINE
  5
27C
100
AcDbEntity
  8
0
100
AcDbLine
 62
7
  6
CONTINUOUS
 10
131.5039024486
 20
166.6970997345
 11
123.6292184663
 21
160.0894553093
  0
LINE
  5
27D
100
AcDbEntity
  8
0
100
AcDbLine
 62
7
  6
CONTINUOUS
 10
124.272006076
 20
159.3234108662
 11
132.1466900583
 21
165.9310552914
  0
LINE
  5
27E
100
AcDbEntity
  8
0
100
AcDbLine
 62
7
  6
CONTINUOUS
 10
66.6815351794
 20
156.576203588
 11
71.6815351794
 21
156.576203588
  0
LINE
  5
27F
100
AcDbEntity
  8
0
100
AcDbLine
 62
7
  6
CONTINUOUS
 10
97.6815351794
 20
156.576203588
 11
102.6815351794
 21
156.576203588
  0
LINE
  5
280
100
AcDbEntity
  8
0
100
AcDbLine
 62
7
  6
CONTINUOUS
 10
111.6815351794
 20
156.8975973929
 11
112.4447708983
 21
156.8975973929
  0
LINE
  5
281
100
AcDbEntity
  8
0
100
AcDbLine
 62
7
  6
CONTINUOUS
 10
192.9182994605
 20
156.8975973929
 11
193.6815351794
 21
156.8975973929
  0
LINE
  5
282
100
AcDbEntity
  8
0
100
AcDbLine
 62
7
  6
CONTINUOUS
 10
177.0315351794
 20
157.6873671648
 11
176.3315351794
 21
157.6873671648
  0
LINE
  5
283
100
AcDbEntity
  8
0
100
AcDbLine
 62
7
  6
CONTINUOUS
 10
129.0315351794
 20
157.6873671648
 11
128.3315351794
 21
157.6873671648
  0
LINE
  5
284
100
AcDbEntity
  8
0
100
AcDbLine
 62
7
  6
CONTINUOUS
 10
181.4757638134
 20
157.9850356408
 11
179.2899371722
 21
157.9850356408
  0
LINE
  5
285
100
AcDbEntity
  8
0
100
AcDbLine
 62
7
  6
CONTINUOUS
 10
174.0668854379
 20
157.9850356408
 11
170.1815351794
 21
157.9850356408
  0
LINE
  5
286
100
AcDbEntity
  8
0
100
AcDbLine
 62
7
  6
CONTINUOUS
 10
123.8873065453
 20
157.9850356408
 11
126.0668854379
 21
157.9850356408
  0
LINE
  5
287
100
AcDbEntity
  8
0
100
AcDbLine
 62
7
  6
CONTINUOUS
 10
131.2899371722
 20
157.9850356408
 11
135.1815351794
 21
157.9850356408
  0
LINE
  5
288
100
AcDbEntity
  8
0
100
AcDbLine
 62
7
  6
CONTINUOUS
 10
24.6815351794
 20
158.2706108602
 11
113.1651527466
 21
158.2706108602
  0
LINE
  5
289
100
AcDbEntity
  8
0
100
AcDbLine
 62
7
  6
CONTINUOUS
 10
130.9447095933
 20
158.2706108602
 11
174.4576837068
 21
158.2706108602
  0
LINE
  5
28A
100
AcDbEntity
  8
0
100
AcDbLine
 62
7
  6
CONTINUOUS
 10
178.9447095933
 20
158.2706108602
 11
182.3894076438
 21
158.2706108602
  0
LINE
  5
28B
100
AcDbEntity
  8
0
100
AcDbLine
 62
7
  6
CONTINUOUS
 10
192.1979158421
 20
158.2706108602
 11
202.6815351794
 21
158.2706108602
  0
LINE
  5
28C
100
AcDbEntity
  8
0
100
AcDbLine
 62
7
  6
CONTINUOUS
 10
202.6815351794
 20
158.8554997524
 11
191.4040928785
 21
158.8554997524
  0
LINE
  5
28D
100
AcDbEntity
  8
0
100
AcDbLine
 62
7
  6
CONTINUOUS
 10
183.7118599991
 20
158.8554997524
 11
177.299054754
 21
158.8554997524
  0
LINE
  5
28E
100
AcDbEntity
  8
0
100
AcDbLine
 62
7
  6
CONTINUOUS
 10
176.0067315327
 20
158.8554997524
 11
129.299054754
 21
158.8554997524
  0
LINE
  5
28F
100
AcDbEntity
  8
0
100
AcDbLine
 62
7
  6
CONTINUOUS
 10
128.0067315327
 20
158.8554997524
 11
121.6512103596
 21
158.8554997524
  0
LINE
  5
290
100
AcDbEntity
  8
0
100
AcDbLine
 62
7
  6
CONTINUOUS
 10
113.9589707559
 20
158.8554997524
 11
24.6815351794
 21
158.8554997524
  0
LINE
  5
291
100
AcDbEntity
  8
0
100
AcDbLine
 62
7
  6
CONTINUOUS
 10
122.9864308566
 20
159.8554997524
 11
117.3113620403
 21
159.8554997524
  0
LINE
  5
292
100
AcDbEntity
  8
0
100
AcDbLine
 62
7
  6
CONTINUOUS
 10
74.3766395022
 20
159.8554997524
 11
90.1815351794
 21
159.8554997524
  0
LINE
  5
293
100
AcDbEntity
  8
0
100
AcDbLine
 62
7
  6
CONTINUOUS
 10
107.1815351794
 20
159.8554997524
 11
116.8861043817
 21
159.8554997524
  0
LINE
  5
294
100
AcDbEntity
  8
0
100
AcDbLine
 62
7
  6
CONTINUOUS
 10
182.3766395022
 20
159.8554997524
 11
188.0515605219
 21
159.8554997524
  0
LINE
  5
295
100
AcDbEntity
  8
0
100
AcDbLine
 62
7
  6
CONTINUOUS
 10
188.47694767
 20
159.8554997524
 11
198.1815351794
 21
159.8554997524
  0
LINE
  5
296
100
AcDbEntity
  8
0
100
AcDbLine
 62
7
  6
CONTINUOUS
 10
199.6815351794
 20
160.3054997524
 11
192.1815351794
 21
160.3054997524
  0
LINE
  5
297
100
AcDbEntity
  8
0
100
AcDbLine
 62
7
  6
CONTINUOUS
 10
113.1815351794
 20
160.3054997524
 11
108.6815351794
 21
160.3054997524
  0
LINE
  5
298
100
AcDbEntity
  8
0
100
AcDbLine
 62
7
  6
CONTINUOUS
 10
39.6815351794
 20
160.3054997524
 11
29.6815351794
 21
160.3054997524
  0
LINE
  5
299
100
AcDbEntity
  8
0
100
AcDbLine
 62
7
  6
CONTINUOUS
 10
76.1815351794
 20
160.6554997524
 11
84.1815351794
 21
160.6554997524
  0
LINE
  5
29A
100
AcDbEntity
  8
0
100
AcDbLine
 62
7
  6
CONTINUOUS
 10
108.6815351794
 20
160.6554997524
 11
121.1815351794
 21
160.6554997524
  0
LINE
  5
29B
100
AcDbEntity
  8
0
100
AcDbLine
 62
7
  6
CONTINUOUS
 10
184.1815351794
 20
160.6554997524
 11
199.6815351794
 21
160.6554997524
  0
LINE
  5
29C
100
AcDbEntity
  8
0
100
AcDbLine
 62
7
  6
CONTINUOUS
 10
29.6815351794
 20
161.3054997524
 11
39.6815351794
 21
161.3054997524
  0
LINE
  5
29D
100
AcDbEntity
  8
0
100
AcDbLine
 62
7
  6
CONTINUOUS
 10
108.6815351794
 20
161.3054997524
 11
113.3815351794
 21
161.3054997524
  0
LINE
  5
29E
100
AcDbEntity
  8
0
100
AcDbLine
 62
7
  6
CONTINUOUS
 10
191.9815351794
 20
161.3054997524
 11
199.6815351794
 21
161.3054997524
  0
LINE
  5
29F
100
AcDbEntity
  8
0
100
AcDbLine
 62
7
  6
CONTINUOUS
 10
76.3815351794
 20
161.6554997524
 11
83.9815351794
 21
161.6554997524
  0
LINE
  5
2A0
100
AcDbEntity
  8
0
100
AcDbLine
 62
7
  6
CONTINUOUS
 10
108.6815351794
 20
161.6554997524
 11
120.9815351794
 21
161.6554997524
  0
LINE
  5
2A1
100
AcDbEntity
  8
0
100
AcDbLine
 62
7
  6
CONTINUOUS
 10
184.3815351794
 20
161.6554997524
 11
199.6815351794
 21
161.6554997524
  0
LINE
  5
2A2
100
AcDbEntity
  8
0
100
AcDbLine
 62
7
  6
CONTINUOUS
 10
120.6815351794
 20
159.2843637789
 11
123.3873065453
 21
158.0876661358
  0
LINE
  5
2A3
100
AcDbEntity
  8
0
100
AcDbLine
 62
7
  6
CONTINUOUS
 10
120.5835990405
 20
162.7749149422
 11
120.6815351794
 21
161.6554997524
  0
LINE
  5
2A4
100
AcDbEntity
  8
0
100
AcDbLine
 62
7
  6
CONTINUOUS
 10
120.6815351794
 20
151.5709124627
 11
120.6815351794
 21
159.2843637789
  0
LINE
  5
2A5
100
AcDbEntity
  8
0
100
AcDbLine
 62
7
  6
CONTINUOUS
 10
120.9815351794
 20
161.6554997524
 11
120.9815351794
 21
160.6554997524
  0
LINE
  5
2A6
100
AcDbEntity
  8
0
100
AcDbLine
 62
7
  6
CONTINUOUS
 10
121.1815351794
 20
160.6554997524
 11
121.1815351794
 21
159.8554997524
  0
LINE
  5
2A7
100
AcDbEntity
  8
0
100
AcDbLine
 62
7
  6
CONTINUOUS
 10
123.3873065453
 20
158.0876661358
 11
123.3873065453
 21
150.3742148196
  0
LINE
  5
2A8
100
AcDbEntity
  8
0
100
AcDbLine
 62
7
  6
CONTINUOUS
 10
123.8873065453
 20
150.2715843246
 11
123.8873065453
 21
157.9850356408
  0
LINE
  5
2A9
100
AcDbEntity
  8
0
100
AcDbLine
 62
7
  6
CONTINUOUS
 10
124.6815351794
 20
154.1283099827
 11
124.6815351794
 21
154.7411455372
  0
LINE
  5
2AA
100
AcDbEntity
  8
0
100
AcDbLine
 62
7
  6
CONTINUOUS
 10
124.8815351794
 20
154.7411455372
 11
124.8815351794
 21
155.5071899803
  0
LINE
  5
2AB
100
AcDbEntity
  8
0
100
AcDbLine
 62
7
  6
CONTINUOUS
 10
126.4815351794
 20
157.5093492195
 11
126.4815351794
 21
157.0593978928
  0
LINE
  5
2AC
100
AcDbEntity
  8
0
100
AcDbLine
 62
7
  6
CONTINUOUS
 10
125.2886510378
 20
156.5252488133
 11
125.190979158
 21
155.6723484513
  0
LINE
  5
2AD
100
AcDbEntity
  8
0
100
AcDbLine
 62
7
  6
CONTINUOUS
 10
153.4851980344
 20
159.2753458643
 11
152.8591094271
 21
159.0474682473
  0
LINE
  5
2AE
100
AcDbEntity
  8
0
100
AcDbLine
 62
7
  6
CONTINUOUS
 10
30.0815351794
 20
162.6054997524
 11
39.2815351794
 21
162.6054997524
  0
LINE
  5
2AF
100
AcDbEntity
  8
0
100
AcDbLine
 62
7
  6
CONTINUOUS
 10
109.0815351794
 20
162.6054997524
 11
113.7646494097
 21
162.6054997524
  0
LINE
  5
2B0
100
AcDbEntity
  8
0
100
AcDbLine
 62
7
  6
CONTINUOUS
 10
191.598420949
 20
162.6054997524
 11
199.2815351794
 21
162.6054997524
  0
LINE
  5
2B1
100
AcDbEntity
  8
0
100
AcDbLine
 62
7
  6
CONTINUOUS
 10
76.7794713183
 20
162.7749149422
 11
83.5835990405
 21
162.7749149422
  0
LINE
  5
2B2
100
AcDbEntity
  8
0
100
AcDbLine
 62
7
  6
CONTINUOUS
 10
113.7794713183
 20
162.7749149422
 11
120.5835990405
 21
162.7749149422
  0
LINE
  5
2B3
100
AcDbEntity
  8
0
100
AcDbLine
 62
7
  6
CONTINUOUS
 10
184.7794713183
 20
162.7749149422
 11
191.5835990405
 21
162.7749149422
  0
LINE
  5
2B4
100
AcDbEntity
  8
0
100
AcDbLine
 62
7
  6
CONTINUOUS
 10
109.0815351794
 20
162.9554997524
 11
113.8330310643
 21
162.9554997524
  0
LINE
  5
2B5
100
AcDbEntity
  8
0
100
AcDbLine
 62
7
  6
CONTINUOUS
 10
191.5300392945
 20
162.9554997524
 11
199.2815351794
 21
162.9554997524
  0
LINE
  5
2B6
100
AcDbEntity
  8
0
100
AcDbLine
 62
7
  6
CONTINUOUS
 10
77.7187953375
 20
163.9119951444
 11
82.6442750212
 21
163.9119951444
  0
LINE
  5
2B7
100
AcDbEntity
  8
0
100
AcDbLine
 62
7
  6
CONTINUOUS
 10
114.7187953375
 20
163.9119951444
 11
119.6442750212
 21
163.9119951444
  0
LINE
  5
2B8
100
AcDbEntity
  8
0
100
AcDbLine
 62
7
  6
CONTINUOUS
 10
185.7187953375
 20
163.9119951444
 11
190.6442750212
 21
163.9119951444
  0
LINE
  5
2B9
100
AcDbEntity
  8
0
100
AcDbLine
 62
7
  6
CONTINUOUS
 10
30.3093997271
 20
164.0669982205
 11
39.0536706317
 21
164.0669982205
  0
LINE
  5
2BA
100
AcDbEntity
  8
0
100
AcDbLine
 62
7
  6
CONTINUOUS
 10
109.3093997271
 20
164.4169982205
 11
118.0536706317
 21
164.4169982205
  0
LINE
  5
2BB
100
AcDbEntity
  8
0
100
AcDbLine
 62
7
  6
CONTINUOUS
 10
190.3093997271
 20
164.4169982205
 11
199.0536706317
 21
164.4169982205
  0
LINE
  5
2BC
100
AcDbEntity
  8
0
100
AcDbLine
 62
7
  6
CONTINUOUS
 10
31.4758921771
 20
165.4694027675
 11
37.8871781817
 21
165.4694027675
  0
LINE
  5
2BD
100
AcDbEntity
  8
0
100
AcDbLine
 62
7
  6
CONTINUOUS
 10
110.4758921771
 20
165.8194027675
 11
116.8871781817
 21
165.8194027675
  0
LINE
  5
2BE
100
AcDbEntity
  8
0
100
AcDbLine
 62
7
  6
CONTINUOUS
 10
191.4758921771
 20
165.8194027675
 11
197.8871781817
 21
165.8194027675
  0
LINE
  5
2BF
100
AcDbEntity
  8
0
100
AcDbLine
 62
7
  6
CONTINUOUS
 10
126.6815351794
 20
158.4341899711
 11
126.6815351794
 21
158.8554997524
  0
LINE
  5
2C0
100
AcDbEntity
  8
0
100
AcDbLine
 62
7
  6
CONTINUOUS
 10
127.8315351794
 20
157.6878253841
 11
127.8315351794
 21
157.2378740573
  0
LINE
  5
2C1
100
AcDbEntity
  8
0
100
AcDbLine
 62
7
  6
CONTINUOUS
 10
128.3315351794
 20
155.8702408148
 11
128.3315351794
 21
158.6985062975
  0
LINE
  5
2C2
100
AcDbEntity
  8
0
100
AcDbLine
 62
7
  6
CONTINUOUS
 10
129.0315351794
 20
155.8702408148
 11
129.0315351794
 21
158.6985062975
  0
LINE
  5
2C3
100
AcDbEntity
  8
0
100
AcDbLine
 62
7
  6
CONTINUOUS
 10
129.5315351794
 20
157.2378740573
 11
129.5315351794
 21
157.6878253841
  0
LINE
  5
2C4
100
AcDbEntity
  8
0
100
AcDbLine
 62
7
  6
CONTINUOUS
 10
130.8815351794
 20
157.0593978928
 11
130.8815351794
 21
157.5093492195
  0
LINE
  5
2C5
100
AcDbEntity
  8
0
100
AcDbLine
 62
7
  6
CONTINUOUS
 10
132.4815351794
 20
154.7411455372
 11
132.4815351794
 21
155.5071899803
  0
LINE
  5
2C6
100
AcDbEntity
  8
0
100
AcDbLine
 62
7
  6
CONTINUOUS
 10
135.1815351794
 20
150.2715843246
 11
137.1815351794
 21
151.557159544
  0
LINE
  5
2C7
100
AcDbEntity
  8
0
100
AcDbLine
 62
7
  6
CONTINUOUS
 10
137.1815351794
 20
150.7911151009
 11
135.1815351794
 21
149.5055398815
  0
LINE
  5
2C8
100
AcDbEntity
  8
0
100
AcDbLine
 62
7
  6
CONTINUOUS
 10
152.8175649451
 20
158.933325721
 11
151.8778723243
 21
159.2753458643
  0
LINE
  5
2C9
100
AcDbEntity
  8
0
100
AcDbLine
 62
7
  6
CONTINUOUS
 10
152.2418425586
 20
160.2753458643
 11
153.1815351794
 21
159.933325721
  0
LINE
  5
2CA
100
AcDbEntity
  8
0
100
AcDbLine
 62
7
  6
CONTINUOUS
 10
137.1815351794
 20
156.6994604215
 11
135.1815351794
 21
157.9850356408
  0
LINE
  5
2CB
100
AcDbEntity
  8
0
100
AcDbLine
 62
7
  6
CONTINUOUS
 10
132.074419321
 20
156.5252488133
 11
132.1720912008
 21
155.6723484513
  0
LINE
  5
2CC
100
AcDbEntity
  8
0
100
AcDbLine
 62
7
  6
CONTINUOUS
 10
132.6815351794
 20
154.1283099827
 11
132.6815351794
 21
154.7411455372
  0
LINE
  5
2CD
100
AcDbEntity
  8
0
100
AcDbLine
 62
7
  6
CONTINUOUS
 10
133.8815351794
 20
155.4460245826
 11
133.8815351794
 21
154.6799801395
  0
LINE
  5
2CE
100
AcDbEntity
  8
0
100
AcDbLine
 62
7
  6
CONTINUOUS
 10
135.1815351794
 20
150.2715843246
 11
135.1815351794
 21
149.5055398815
  0
LINE
  5
2CF
100
AcDbEntity
  8
0
100
AcDbLine
 62
7
  6
CONTINUOUS
 10
137.1815351794
 20
156.6994604215
 11
137.1815351794
 21
150.7911151009
  0
LINE
  5
2D0
100
AcDbEntity
  8
0
100
AcDbLine
 62
7
  6
CONTINUOUS
 10
170.1815351794
 20
157.9850356408
 11
168.1815351794
 21
156.6994604215
  0
LINE
  5
2D1
100
AcDbEntity
  8
0
100
AcDbLine
 62
7
  6
CONTINUOUS
 10
181.9757638134
 20
158.0876661358
 11
184.6815351794
 21
159.2843637789
  0
LINE
  5
2D2
100
AcDbEntity
  8
0
100
AcDbLine
 62
7
  6
CONTINUOUS
 10
170.1815351794
 20
149.5055398815
 11
168.1815351794
 21
150.7911151009
  0
LINE
  5
2D3
100
AcDbEntity
  8
0
100
AcDbLine
 62
7
  6
CONTINUOUS
 10
168.1815351794
 20
151.557159544
 11
170.1815351794
 21
150.2715843246
  0
LINE
  5
2D4
100
AcDbEntity
  8
0
100
AcDbLine
 62
7
  6
CONTINUOUS
 10
151.7250608366
 20
158.8554997524
 11
152.4956847988
 21
160.9727716873
  0
LINE
  5
2D5
100
AcDbEntity
  8
0
100
AcDbLine
 62
7
  6
CONTINUOUS
 10
152.7892386091
 20
158.8554997524
 11
153.4353774196
 21
160.630751544
  0
LINE
  5
2D6
100
AcDbEntity
  8
0
100
AcDbLine
 62
7
  6
CONTINUOUS
 10
184.6815351794
 20
151.5709124627
 11
181.9757638134
 21
150.3742148196
  0
LINE
  5
2D7
100
AcDbEntity
  8
0
100
AcDbLine
 62
7
  6
CONTINUOUS
 10
182.4757638134
 20
149.7108008714
 11
185.1815351794
 21
150.9074985145
  0
LINE
  5
2D8
100
AcDbEntity
  8
0
100
AcDbLine
 62
7
  6
CONTINUOUS
 10
192.9182994605
 20
150.4766020732
 11
192.1135070449
 21
150.131835784
  0
LINE
  5
2D9
100
AcDbEntity
  8
0
100
AcDbLine
 62
7
  6
CONTINUOUS
 10
151.9276929392
 20
160.630751544
 11
152.1494462931
 21
160.0214892113
  0
LINE
  5
2DA
100
AcDbEntity
  8
0
100
AcDbLine
 62
7
  6
CONTINUOUS
 10
153.6380095221
 20
158.8554997524
 11
153.2136240656
 21
160.0214892113
  0
LINE
  5
2DB
100
AcDbEntity
  8
0
100
AcDbLine
 62
7
  6
CONTINUOUS
 10
191.6815351794
 20
149.888562103
 11
192.4815351794
 21
150.3481887689
  0
LINE
  5
2DC
100
AcDbEntity
  8
0
100
AcDbLine
 62
7
  6
CONTINUOUS
 10
173.2163803005
 20
165.9310552914
 11
181.0910642828
 21
159.3234108662
  0
LINE
  5
2DD
100
AcDbEntity
  8
0
100
AcDbLine
 62
7
  6
CONTINUOUS
 10
181.7338518925
 20
160.0894553093
 11
173.8591679102
 21
166.6970997345
  0
LINE
  5
2DE
100
AcDbEntity
  8
0
100
AcDbLine
 62
7
  6
CONTINUOUS
 10
168.1815351794
 20
150.7911151009
 11
168.1815351794
 21
156.6994604215
  0
LINE
  5
2DF
100
AcDbEntity
  8
0
100
AcDbLine
 62
7
  6
CONTINUOUS
 10
197.1307795867
 20
147.0708979974
 11
196.3005573711
 21
146.537241444
  0
LINE
  5
2E0
100
AcDbEntity
  8
0
100
AcDbLine
 62
7
  6
CONTINUOUS
 10
196.9433449808
 20
145.9504173551
 11
198.6865034136
 21
147.0708979974
  0
LINE
  5
2E1
100
AcDbEntity
  8
0
100
AcDbLine
 62
7
  6
CONTINUOUS
 10
170.1815351794
 20
150.2715843246
 11
170.1815351794
 21
149.5055398815
  0
LINE
  5
2E2
100
AcDbEntity
  8
0
100
AcDbLine
 62
7
  6
CONTINUOUS
 10
171.4815351794
 20
154.6799801395
 11
171.4815351794
 21
155.4460245826
  0
LINE
  5
2E3
100
AcDbEntity
  8
0
100
AcDbLine
 62
7
  6
CONTINUOUS
 10
172.6815351794
 20
154.1283099827
 11
172.6815351794
 21
154.7411455372
  0
LINE
  5
2E4
100
AcDbEntity
  8
0
100
AcDbLine
 62
7
  6
CONTINUOUS
 10
172.8815351794
 20
154.7411455372
 11
172.8815351794
 21
155.5071899803
  0
LINE
  5
2E5
100
AcDbEntity
  8
0
100
AcDbLine
 62
7
  6
CONTINUOUS
 10
174.4815351794
 20
157.5093492195
 11
174.4815351794
 21
157.0593978928
  0
LINE
  5
2E6
100
AcDbEntity
  8
0
100
AcDbLine
 62
7
  6
CONTINUOUS
 10
173.2886510378
 20
156.5252488133
 11
173.190979158
 21
155.6723484513
  0
LINE
  5
2E7
100
AcDbEntity
  8
0
100
AcDbLine
 62
7
  6
CONTINUOUS
 10
192.0480989865
 20
150.0991472593
 11
192.0515337827
 21
150.0944225509
  0
LINE
  5
2E8
100
AcDbEntity
  8
0
100
AcDbLine
 62
7
  6
CONTINUOUS
 10
175.8315351794
 20
157.6878253841
 11
175.8315351794
 21
157.2378740573
  0
LINE
  5
2E9
100
AcDbEntity
  8
0
100
AcDbLine
 62
7
  6
CONTINUOUS
 10
176.3315351794
 20
155.8702408148
 11
176.3315351794
 21
158.6985062975
  0
LINE
  5
2EA
100
AcDbEntity
  8
0
100
AcDbLine
 62
7
  6
CONTINUOUS
 10
177.0315351794
 20
155.8702408148
 11
177.0315351794
 21
158.6985062975
  0
LINE
  5
2EB
100
AcDbEntity
  8
0
100
AcDbLine
 62
7
  6
CONTINUOUS
 10
177.5315351794
 20
157.2378740573
 11
177.5315351794
 21
157.6878253841
  0
LINE
  5
2EC
100
AcDbEntity
  8
0
100
AcDbLine
 62
7
  6
CONTINUOUS
 10
178.8815351794
 20
157.0593978928
 11
178.8815351794
 21
157.5093492195
  0
LINE
  5
2ED
100
AcDbEntity
  8
0
100
AcDbLine
 62
7
  6
CONTINUOUS
 10
180.4815351794
 20
154.7411455372
 11
180.4815351794
 21
155.5071899803
  0
LINE
  5
2EE
100
AcDbEntity
  8
0
100
AcDbLine
 62
7
  6
CONTINUOUS
 10
192.0479769213
 20
150.0990950981
 11
192.0512571286
 21
150.0943047227
  0
LINE
  5
2EF
100
AcDbEntity
  8
0
100
AcDbLine
 62
7
  6
CONTINUOUS
 10
180.074419321
 20
156.5252488133
 11
180.1720912008
 21
155.6723484513
  0
LINE
  5
2F0
100
AcDbEntity
  8
0
100
AcDbLine
 62
7
  6
CONTINUOUS
 10
180.6815351794
 20
154.1283099827
 11
180.6815351794
 21
154.7411455372
  0
LINE
  5
2F1
100
AcDbEntity
  8
0
100
AcDbLine
 62
7
  6
CONTINUOUS
 10
181.4757638134
 20
157.9850356408
 11
181.4757638134
 21
150.2715843246
  0
LINE
  5
2F2
100
AcDbEntity
  8
0
100
AcDbLine
 62
7
  6
CONTINUOUS
 10
181.9757638134
 20
150.3742148196
 11
181.9757638134
 21
158.0876661358
  0
LINE
  5
2F3
100
AcDbEntity
  8
0
100
AcDbLine
 62
7
  6
CONTINUOUS
 10
184.1815351794
 20
159.8554997524
 11
184.1815351794
 21
160.6554997524
  0
LINE
  5
2F4
100
AcDbEntity
  8
0
100
AcDbLine
 62
7
  6
CONTINUOUS
 10
184.3815351794
 20
160.6554997524
 11
184.3815351794
 21
161.6554997524
  0
LINE
  5
2F5
100
AcDbEntity
  8
0
100
AcDbLine
 62
7
  6
CONTINUOUS
 10
184.6815351794
 20
159.2843637789
 11
184.6815351794
 21
151.5709124627
  0
LINE
  5
2F6
100
AcDbEntity
  8
0
100
AcDbLine
 62
7
  6
CONTINUOUS
 10
185.9815351794
 20
163.9824694441
 11
185.9815351794
 21
163.9754481468
  0
LINE
  5
2F7
100
AcDbEntity
  8
0
100
AcDbLine
 62
7
  6
CONTINUOUS
 10
186.1815351794
 20
141.6554997524
 11
186.1815351794
 21
147.0708979974
  0
LINE
  5
2F8
100
AcDbEntity
  8
0
100
AcDbLine
 62
7
  6
CONTINUOUS
 10
184.6815351794
 20
161.6554997524
 11
184.7794713183
 21
162.7749149422
  0
LINE
  5
2F9
100
AcDbEntity
  8
0
100
AcDbLine
 62
7
  6
CONTINUOUS
 10
193.5546756755
 20
147.0708979974
 11
193.7783845199
 21
146.6000602723
  0
LINE
  5
2FA
100
AcDbEntity
  8
0
100
AcDbLine
 62
7
  6
CONTINUOUS
 10
194.7180771406
 20
146.8620629026
 11
194.618853448
 21
147.0708979974
  0
LINE
  5
2FB
100
AcDbEntity
  8
0
100
AcDbLine
 62
7
  6
CONTINUOUS
 10
193.3196909041
 20
156.2331082616
 11
193.6815351794
 21
155.4715383027
  0
LINE
  5
2FC
100
AcDbEntity
  8
0
100
AcDbLine
 62
7
  6
CONTINUOUS
 10
191.5835990405
 20
162.7749149422
 11
191.6815351794
 21
161.6554997524
  0
LINE
  5
2FD
100
AcDbEntity
  8
0
100
AcDbLine
 62
7
  6
CONTINUOUS
 10
187.8315351794
 20
164.2084322329
 11
187.8315351794
 21
163.9754481468
  0
LINE
  5
2FE
100
AcDbEntity
  8
0
100
AcDbLine
 62
7
  6
CONTINUOUS
 10
188.5315351794
 20
164.2084322329
 11
188.5315351794
 21
163.9754481468
  0
LINE
  5
2FF
100
AcDbEntity
  8
0
100
AcDbLine
 62
7
  6
CONTINUOUS
 10
190.1815351794
 20
147.0708979974
 11
190.1815351794
 21
141.6554997524
  0
LINE
  5
300
100
AcDbEntity
  8
0
100
AcDbLine
 62
7
  6
CONTINUOUS
 10
190.3815351794
 20
163.9754481468
 11
190.3815351794
 21
163.9824694441
  0
LINE
  5
301
100
AcDbEntity
  8
0
100
AcDbLine
 62
7
  6
CONTINUOUS
 10
191.6815351794
 20
149.888562103
 11
191.6815351794
 21
149.8269336863
  0
LINE
  5
302
100
AcDbEntity
  8
0
100
AcDbLine
 62
7
  6
CONTINUOUS
 10
191.9815351794
 20
161.6554997524
 11
191.9815351794
 21
160.6554997524
  0
LINE
  5
303
100
AcDbEntity
  8
0
100
AcDbLine
 62
7
  6
CONTINUOUS
 10
192.1815351794
 20
160.6554997524
 11
192.1815351794
 21
159.8554997524
  0
LINE
  5
304
100
AcDbEntity
  8
0
100
AcDbLine
 62
7
  6
CONTINUOUS
 10
192.2315351794
 20
166.0027334693
 11
192.2315351794
 21
165.9975183182
  0
LINE
  5
305
100
AcDbEntity
  8
0
100
AcDbLine
 62
7
  6
CONTINUOUS
 10
190.2729150195
 20
163.9999761041
 11
190.3093997271
 21
164.4169982205
  0
LINE
  5
306
100
AcDbEntity
  8
0
100
AcDbLine
 62
7
  6
CONTINUOUS
 10
199.0536706317
 20
164.4169982205
 11
199.1815351794
 21
162.9554997524
  0
LINE
  5
307
100
AcDbEntity
  8
0
100
AcDbLine
 62
7
  6
CONTINUOUS
 10
193.3196909041
 20
149.8269336863
 11
193.3196909041
 21
156.2331082616
  0
LINE
  5
308
100
AcDbEntity
  8
0
100
AcDbLine
 62
7
  6
CONTINUOUS
 10
193.6815351794
 20
149.8269336863
 11
193.6815351794
 21
156.8975973929
  0
LINE
  5
309
100
AcDbEntity
  8
0
100
AcDbLine
 62
7
  6
CONTINUOUS
 10
194.3315351794
 20
165.9975183182
 11
194.3315351794
 21
166.2202396159
  0
LINE
  5
30A
100
AcDbEntity
  8
0
100
AcDbLine
 62
7
  6
CONTINUOUS
 10
194.7180771406
 20
147.0708979974
 11
194.7180771406
 21
146.8620629026
  0
LINE
  5
30B
100
AcDbEntity
  8
0
100
AcDbLine
 62
7
  6
CONTINUOUS
 10
195.0315351794
 20
166.2202396159
 11
195.0315351794
 21
165.9975183182
  0
LINE
  5
30C
100
AcDbEntity
  8
0
100
AcDbLine
 62
7
  6
CONTINUOUS
 10
196.1815351794
 20
159.8554997524
 11
196.1815351794
 21
158.8554997524
  0
LINE
  5
30D
100
AcDbEntity
  8
0
100
AcDbLine
 62
7
  6
CONTINUOUS
 10
196.3005573711
 20
146.537241444
 11
196.3005573711
 21
147.0708979974
  0
LINE
  5
30E
100
AcDbEntity
  8
0
100
AcDbLine
 62
7
  6
CONTINUOUS
 10
197.1315351794
 20
165.9975183182
 11
197.1315351794
 21
166.0027334693
  0
LINE
  5
30F
100
AcDbEntity
  8
0
100
AcDbLine
 62
7
  6
CONTINUOUS
 10
197.1815351794
 20
160.3054997524
 11
197.1815351794
 21
159.8554997524
  0
LINE
  5
310
100
AcDbEntity
  8
0
100
AcDbLine
 62
7
  6
CONTINUOUS
 10
198.1815351794
 20
159.8554997524
 11
198.1815351794
 21
158.8554997524
  0
LINE
  5
311
100
AcDbEntity
  8
0
100
AcDbLine
 62
7
  6
CONTINUOUS
 10
199.2815351794
 20
162.9554997524
 11
199.2815351794
 21
161.6554997524
  0
LINE
  5
312
100
AcDbEntity
  8
0
100
AcDbLine
 62
7
  6
CONTINUOUS
 10
199.6815351794
 20
161.6554997524
 11
199.6815351794
 21
160.3054997524
  0
LINE
  5
313
100
AcDbEntity
  8
0
100
AcDbLine
 62
7
  6
CONTINUOUS
 10
200.6815351794
 20
148.2199646621
 11
200.6815351794
 21
147.0708979974
  0
LINE
  5
314
100
AcDbEntity
  8
0
100
AcDbLine
 62
7
  6
CONTINUOUS
 10
202.6815351794
 20
158.8554997524
 11
202.6815351794
 21
148.3564732168
  0
ARC
  5
315
100
AcDbEntity
  8
0
100
AcDbCircle
 62
7
  6
CONTINUOUS
 10
34.6815351794
 20
153.9054997524
 40
12.0
100
AcDbArc
 50
74.5060324995
 51
78.2192791359
  0
ARC
  5
316
100
AcDbEntity
  8
0
100
AcDbCircle
 62
7
  6
CONTINUOUS
 10
34.6815351794
 20
153.9054997524
 40
12.0
100
AcDbArc
 50
101.7807208641
 51
105.4939675005
  0
ARC
  5
317
100
AcDbEntity
  8
0
100
AcDbCircle
 62
7
  6
CONTINUOUS
 10
113.6815351794
 20
154.2554997524
 40
12.0
100
AcDbArc
 50
74.5060324995
 51
78.2192791359
  0
ARC
  5
318
100
AcDbEntity
  8
0
100
AcDbCircle
 62
7
  6
CONTINUOUS
 10
113.6815351794
 20
154.2554997524
 40
12.0
100
AcDbArc
 50
101.7807208641
 51
105.4939675005
  0
ARC
  5
319
100
AcDbEntity
  8
0
100
AcDbCircle
 62
7
  6
CONTINUOUS
 10
34.6815351794
 20
153.9054997524
 40
11.9948947473
100
AcDbArc
 50
78.2141931175
 51
85.9364157753
  0
ARC
  5
31A
100
AcDbEntity
  8
0
100
AcDbCircle
 62
7
  6
CONTINUOUS
 10
34.6815351794
 20
153.9054997524
 40
11.9948947473
100
AcDbArc
 50
94.0635842247
 51
101.7858068825
  0
ARC
  5
31B
100
AcDbEntity
  8
0
100
AcDbCircle
 62
7
  6
CONTINUOUS
 10
113.6815351794
 20
154.2554997524
 40
11.9948947473
100
AcDbArc
 50
78.2141931175
 51
85.9364157753
  0
ARC
  5
31C
100
AcDbEntity
  8
0
100
AcDbCircle
 62
7
  6
CONTINUOUS
 10
113.6815351794
 20
154.2554997524
 40
11.9948947473
100
AcDbArc
 50
94.0635842247
 51
101.7858068825
  0
ARC
  5
31D
100
AcDbEntity
  8
0
100
AcDbCircle
 62
7
  6
CONTINUOUS
 10
34.6815351794
 20
153.9054997524
 40
11.7472337169
100
AcDbArc
 50
88.2926626465
 51
91.7073373535
  0
ARC
  5
31E
100
AcDbEntity
  8
0
100
AcDbCircle
 62
7
  6
CONTINUOUS
 10
113.6815351794
 20
154.2554997524
 40
11.7472337169
100
AcDbArc
 50
88.2926626465
 51
91.7073373535
  0
ARC
  5
31F
100
AcDbEntity
  8
0
100
AcDbCircle
 62
7
  6
CONTINUOUS
 10
57.1815351794
 20
156.3554997524
 40
13.5
100
AcDbArc
 50
50.0
 51
160.0
  0
ARC
  5
320
100
AcDbEntity
  8
0
100
AcDbCircle
 62
7
  6
CONTINUOUS
 10
57.1815351794
 20
156.3554997524
 40
12.5
100
AcDbArc
 50
50.0
 51
160.0
  0
ARC
  5
321
100
AcDbEntity
  8
0
100
AcDbCircle
 62
7
  6
CONTINUOUS
 10
80.1815351794
 20
155.2554997524
 40
9.0
100
AcDbArc
 50
74.1191499917
 51
75.8509954911
  0
ARC
  5
322
100
AcDbEntity
  8
0
100
AcDbCircle
 62
7
  6
CONTINUOUS
 10
80.1815351794
 20
155.2554997524
 40
9.0
100
AcDbArc
 50
104.1490045089
 51
105.8808500083
  0
ARC
  5
323
100
AcDbEntity
  8
0
100
AcDbCircle
 62
7
  6
CONTINUOUS
 10
80.1815351794
 20
155.2554997524
 40
8.9931918694
100
AcDbArc
 50
95.4234599647
 51
104.1599391949
  0
ARC
  5
324
100
AcDbEntity
  8
0
100
AcDbCircle
 62
7
  6
CONTINUOUS
 10
80.1815351794
 20
155.2554997524
 40
8.9931918694
100
AcDbArc
 50
75.8400608051
 51
84.5765400353
  0
ARC
  5
325
100
AcDbEntity
  8
0
100
AcDbCircle
 62
7
  6
CONTINUOUS
 10
80.1815351794
 20
155.2554997524
 40
8.7269696917
100
AcDbArc
 50
87.7015042677
 51
92.2984957323
  0
ARC
  5
326
100
AcDbEntity
  8
0
100
AcDbCircle
 62
7
  6
CONTINUOUS
 10
74.3766395022
 20
160.8554997524
 40
2.0
100
AcDbArc
 50
230.0000000001
 51
270.0
  0
ARC
  5
327
100
AcDbEntity
  8
0
100
AcDbCircle
 62
7
  6
CONTINUOUS
 10
37.4597591147
 20
163.9275490321
 40
1.6
100
AcDbArc
 50
5.0
 51
74.5060324995
  0
ARC
  5
328
100
AcDbEntity
  8
0
100
AcDbCircle
 62
7
  6
CONTINUOUS
 10
31.903311244
 20
163.9275490321
 40
1.6
100
AcDbArc
 50
105.4939675005
 51
175.0
  0
ARC
  5
329
100
AcDbEntity
  8
0
100
AcDbCircle
 62
7
  6
CONTINUOUS
 10
110.903311244
 20
164.2775490321
 40
1.6
100
AcDbArc
 50
105.4939675005
 51
175.0
  0
ARC
  5
32A
100
AcDbEntity
  8
0
100
AcDbCircle
 62
7
  6
CONTINUOUS
 10
82.288545933
 20
162.6616124767
 40
1.3
100
AcDbArc
 50
5.0
 51
74.1191499917
  0
ARC
  5
32B
100
AcDbEntity
  8
0
100
AcDbCircle
 62
7
  6
CONTINUOUS
 10
78.0745244258
 20
162.6616124767
 40
1.3
100
AcDbArc
 50
105.8808500083
 51
175.0
  0
ARC
  5
32C
100
AcDbEntity
  8
0
100
AcDbCircle
 62
7
  6
CONTINUOUS
 10
74.3766395022
 20
160.8554997524
 40
1.0
100
AcDbArc
 50
230.0000000001
 51
270.0
  0
ARC
  5
32D
100
AcDbEntity
  8
0
100
AcDbCircle
 62
7
  6
CONTINUOUS
 10
194.6815351794
 20
154.2554997524
 40
12.0
100
AcDbArc
 50
74.5060324995
 51
78.2192791359
  0
ARC
  5
32E
100
AcDbEntity
  8
0
100
AcDbCircle
 62
7
  6
CONTINUOUS
 10
194.6815351794
 20
154.2554997524
 40
12.0
100
AcDbArc
 50
101.7807208641
 51
105.4939675005
  0
ARC
  5
32F
100
AcDbEntity
  8
0
100
AcDbCircle
 62
7
  6
CONTINUOUS
 10
194.6815351794
 20
154.2554997524
 40
11.9948947473
100
AcDbArc
 50
78.2141931175
 51
85.9364157753
  0
ARC
  5
330
100
AcDbEntity
  8
0
100
AcDbCircle
 62
7
  6
CONTINUOUS
 10
194.6815351794
 20
154.2554997524
 40
11.9948947473
100
AcDbArc
 50
94.0635842247
 51
101.7858068825
  0
ARC
  5
331
100
AcDbEntity
  8
0
100
AcDbCircle
 62
7
  6
CONTINUOUS
 10
194.6815351794
 20
154.2554997524
 40
11.7472337169
100
AcDbArc
 50
88.2926626465
 51
91.7073373535
  0
ARC
  5
332
100
AcDbEntity
  8
0
100
AcDbCircle
 62
7
  6
CONTINUOUS
 10
128.6950494789
 20
145.7157048544
 40
11.5524928681
100
AcDbArc
 50
79.0900905963
 51
85.8477292437
  0
ARC
  5
333
100
AcDbEntity
  8
0
100
AcDbCircle
 62
7
  6
CONTINUOUS
 10
176.6950494789
 20
145.7157048544
 40
11.5524928681
100
AcDbArc
 50
79.0900905963
 51
85.8477292437
  0
ARC
  5
334
100
AcDbEntity
  8
0
100
AcDbCircle
 62
7
  6
CONTINUOUS
 10
128.6679958244
 20
146.1658457011
 40
11.5523020315
100
AcDbArc
 50
94.1522148755
 51
100.9099652844
  0
ARC
  5
335
100
AcDbEntity
  8
0
100
AcDbCircle
 62
7
  6
CONTINUOUS
 10
176.6679958244
 20
146.1658457011
 40
11.5523020314
100
AcDbArc
 50
94.1522148755
 51
100.9099652844
  0
ARC
  5
336
100
AcDbEntity
  8
0
100
AcDbCircle
 62
7
  6
CONTINUOUS
 10
128.695144693
 20
146.1663763842
 40
11.5517676614
100
AcDbArc
 50
79.0898782316
 51
85.8479416084
  0
ARC
  5
337
100
AcDbEntity
  8
0
100
AcDbCircle
 62
7
  6
CONTINUOUS
 10
176.695144693
 20
146.1663763842
 40
11.5517676614
100
AcDbArc
 50
79.0898782316
 51
85.8479416084
  0
ARC
  5
338
100
AcDbEntity
  8
0
100
AcDbCircle
 62
7
  6
CONTINUOUS
 10
128.6599233224
 20
145.7769550644
 40
11.4908176853
100
AcDbArc
 50
94.1341142452
 51
100.9280659148
  0
ARC
  5
339
100
AcDbEntity
  8
0
100
AcDbCircle
 62
7
  6
CONTINUOUS
 10
176.6599233224
 20
145.7769550644
 40
11.4908176853
100
AcDbArc
 50
94.1341142452
 51
100.9280659148
  0
ARC
  5
33A
100
AcDbEntity
  8
0
100
AcDbCircle
 62
7
  6
CONTINUOUS
 10
128.6815164214
 20
144.4864837312
 40
11.3891357095
100
AcDbArc
 50
88.2390581835
 51
91.7609418165
  0
ARC
  5
33B
100
AcDbEntity
  8
0
100
AcDbCircle
 62
7
  6
CONTINUOUS
 10
128.6815539374
 20
147.3147492137
 40
11.3891357096
100
AcDbArc
 50
88.2390581835
 51
91.7609418165
  0
ARC
  5
33C
100
AcDbEntity
  8
0
100
AcDbCircle
 62
7
  6
CONTINUOUS
 10
176.6815164214
 20
144.4864837312
 40
11.3891357095
100
AcDbArc
 50
88.2390581835
 51
91.7609418165
  0
ARC
  5
33D
100
AcDbEntity
  8
0
100
AcDbCircle
 62
7
  6
CONTINUOUS
 10
176.6815539374
 20
147.3147492137
 40
11.3891357096
100
AcDbArc
 50
88.2390581835
 51
91.7609418165
  0
ARC
  5
33E
100
AcDbEntity
  8
0
100
AcDbCircle
 62
7
  6
CONTINUOUS
 10
189.1336849943
 20
147.9757546224
 40
3.6059111669
100
AcDbArc
 50
30.8994015448
 51
35.9836319006
  0
ARC
  5
33F
100
AcDbEntity
  8
0
100
AcDbCircle
 62
7
  6
CONTINUOUS
 10
116.200117855
 20
147.9950834316
 40
3.5708719584
100
AcDbArc
 50
143.9914069513
 51
149.1255596032
  0
ARC
  5
340
100
AcDbEntity
  8
0
100
AcDbCircle
 62
7
  6
CONTINUOUS
 10
140.1815351794
 20
156.3554997524
 40
13.5
100
AcDbArc
 50
21.5523435954
 51
130.0
  0
ARC
  5
341
100
AcDbEntity
  8
0
100
AcDbCircle
 62
7
  6
CONTINUOUS
 10
165.1815351794
 20
156.3554997524
 40
13.5
100
AcDbArc
 50
50.0
 51
160.0
  0
ARC
  5
342
100
AcDbEntity
  8
0
100
AcDbCircle
 62
7
  6
CONTINUOUS
 10
140.1815351794
 20
156.3554997524
 40
12.5
100
AcDbArc
 50
20.0
 51
130.0
  0
ARC
  5
343
100
AcDbEntity
  8
0
100
AcDbCircle
 62
7
  6
CONTINUOUS
 10
165.1815351794
 20
156.3554997524
 40
12.5
100
AcDbArc
 50
50.0
 51
160.0
  0
ARC
  5
344
100
AcDbEntity
  8
0
100
AcDbCircle
 62
7
  6
CONTINUOUS
 10
117.1815351794
 20
155.2554997524
 40
9.0
100
AcDbArc
 50
74.1191499917
 51
75.8509954911
  0
ARC
  5
345
100
AcDbEntity
  8
0
100
AcDbCircle
 62
7
  6
CONTINUOUS
 10
117.1815351794
 20
155.2554997524
 40
9.0
100
AcDbArc
 50
104.1490045089
 51
105.8808500083
  0
ARC
  5
346
100
AcDbEntity
  8
0
100
AcDbCircle
 62
7
  6
CONTINUOUS
 10
188.1815351794
 20
155.2554997524
 40
9.0
100
AcDbArc
 50
74.1191499917
 51
75.8509954911
  0
ARC
  5
347
100
AcDbEntity
  8
0
100
AcDbCircle
 62
7
  6
CONTINUOUS
 10
188.1815351794
 20
155.2554997524
 40
9.0
100
AcDbArc
 50
104.1490045089
 51
105.8808500083
  0
ARC
  5
348
100
AcDbEntity
  8
0
100
AcDbCircle
 62
7
  6
CONTINUOUS
 10
117.1815351794
 20
155.2554997524
 40
8.9931918694
100
AcDbArc
 50
95.4234599647
 51
104.1599391949
  0
ARC
  5
349
100
AcDbEntity
  8
0
100
AcDbCircle
 62
7
  6
CONTINUOUS
 10
117.1815351794
 20
155.2554997524
 40
8.9931918694
100
AcDbArc
 50
75.8400608051
 51
84.5765400353
  0
ARC
  5
34A
100
AcDbEntity
  8
0
100
AcDbCircle
 62
7
  6
CONTINUOUS
 10
188.1815351794
 20
155.2554997524
 40
8.9931918694
100
AcDbArc
 50
95.4234599647
 51
104.1599391949
  0
ARC
  5
34B
100
AcDbEntity
  8
0
100
AcDbCircle
 62
7
  6
CONTINUOUS
 10
188.1815351794
 20
155.2554997524
 40
8.9931918694
100
AcDbArc
 50
75.8400608051
 51
84.5765400353
  0
ARC
  5
34C
100
AcDbEntity
  8
0
100
AcDbCircle
 62
7
  6
CONTINUOUS
 10
117.1815351794
 20
155.2554997524
 40
8.7269696917
100
AcDbArc
 50
87.7015042677
 51
92.2984957323
  0
ARC
  5
34D
100
AcDbEntity
  8
0
100
AcDbCircle
 62
7
  6
CONTINUOUS
 10
188.1815351794
 20
155.2554997524
 40
8.7269696917
100
AcDbArc
 50
87.7015042677
 51
92.2984957323
  0
ARC
  5
34E
100
AcDbEntity
  8
0
100
AcDbCircle
 62
7
  6
CONTINUOUS
 10
128.6815344918
 20
157.7584546259
 40
6.2012950819
100
AcDbArc
 50
269.8551012949
 51
270.1453662121
  0
ARC
  5
34F
100
AcDbEntity
  8
0
100
AcDbCircle
 62
7
  6
CONTINUOUS
 10
176.6815344918
 20
157.7584546259
 40
6.2012950819
100
AcDbArc
 50
269.8551012949
 51
270.1453662121
  0
ARC
  5
350
100
AcDbEntity
  8
0
100
AcDbCircle
 62
7
  6
CONTINUOUS
 10
130.3262370097
 20
155.2342311438
 40
2.2228367002
100
AcDbArc
 50
36.0912068724
 51
36.7747481247
  0
ARC
  5
351
100
AcDbEntity
  8
0
100
AcDbCircle
 62
7
  6
CONTINUOUS
 10
178.3262370097
 20
155.2342311438
 40
2.2228367002
100
AcDbArc
 50
36.0912068723
 51
36.7747481247
  0
ARC
  5
352
100
AcDbEntity
  8
0
100
AcDbCircle
 62
7
  6
CONTINUOUS
 10
127.034802101
 20
155.2357241325
 40
2.2203158726
100
AcDbArc
 50
143.3224751232
 51
143.9191913029
  0
ARC
  5
353
100
AcDbEntity
  8
0
100
AcDbCircle
 62
7
  6
CONTINUOUS
 10
175.0348021008
 20
155.2357241326
 40
2.2203158723
100
AcDbArc
 50
143.3224751232
 51
143.919191303
  0
ARC
  5
354
100
AcDbEntity
  8
0
100
AcDbCircle
 62
7
  6
CONTINUOUS
 10
122.9864308566
 20
160.8554997524
 40
2.0
100
AcDbArc
 50
270.0
 51
309.9999999999
  0
ARC
  5
355
100
AcDbEntity
  8
0
100
AcDbCircle
 62
7
  6
CONTINUOUS
 10
182.3766395022
 20
160.8554997524
 40
2.0
100
AcDbArc
 50
230.0000000001
 51
270.0
  0
ARC
  5
356
100
AcDbEntity
  8
0
100
AcDbCircle
 62
7
  6
CONTINUOUS
 10
197.4597591147
 20
164.2775490321
 40
1.6
100
AcDbArc
 50
5.0
 51
74.5060324995
  0
ARC
  5
357
100
AcDbEntity
  8
0
100
AcDbCircle
 62
7
  6
CONTINUOUS
 10
191.903311244
 20
164.2775490321
 40
1.6
100
AcDbArc
 50
105.4939675005
 51
175.0
  0
ARC
  5
358
100
AcDbEntity
  8
0
100
AcDbCircle
 62
7
  6
CONTINUOUS
 10
116.4597591147
 20
164.2775490321
 40
1.6
100
AcDbArc
 50
5.0
 51
74.5060324995
  0
ARC
  5
359
100
AcDbEntity
  8
0
100
AcDbCircle
 62
7
  6
CONTINUOUS
 10
119.288545933
 20
162.6616124767
 40
1.3
100
AcDbArc
 50
5.0
 51
74.1191499917
  0
ARC
  5
35A
100
AcDbEntity
  8
0
100
AcDbCircle
 62
7
  6
CONTINUOUS
 10
115.0745244258
 20
162.6616124767
 40
1.3
100
AcDbArc
 50
105.8808500083
 51
175.0
  0
ARC
  5
35B
100
AcDbEntity
  8
0
100
AcDbCircle
 62
7
  6
CONTINUOUS
 10
190.288545933
 20
162.6616124767
 40
1.3
100
AcDbArc
 50
5.0
 51
74.1191499917
  0
ARC
  5
35C
100
AcDbEntity
  8
0
100
AcDbCircle
 62
7
  6
CONTINUOUS
 10
186.0745244258
 20
162.6616124767
 40
1.3
100
AcDbArc
 50
105.8808500083
 51
175.0
  0
ARC
  5
35D
100
AcDbEntity
  8
0
100
AcDbCircle
 62
7
  6
CONTINUOUS
 10
122.9864308566
 20
160.8554997524
 40
1.0
100
AcDbArc
 50
270.0
 51
309.9999999999
  0
ARC
  5
35E
100
AcDbEntity
  8
0
100
AcDbCircle
 62
7
  6
CONTINUOUS
 10
182.3766395022
 20
160.8554997524
 40
1.0
100
AcDbArc
 50
230.0000000001
 51
270.0
  0
SPLINE
  5
35F
100
AcDbEntity
  8
0
100
AcDbSpline
 62
7
  6
CONTINUOUS
 70
0
 71
3
 72
14
 73
10
 74
0
 42
0.0000001
 43
0.0000001
 44
0.0000000001
 40
0.0
 40
0.0
 40
0.0
 40
0.0
 40
0.0273798262
 40
0.0498965838
 40
0.0795137353
 40
0.1610436682
 40
0.2726180348
 40
0.5830837936
 40
1.0
 40
1.0
 40
1.0
 40
1.0
 10
195.0315351794
 20
166.2202396366
 30
0.0
 10
195.0315351794
 20
166.2216014771
 30
0.0
 10
195.0337331288
 20
166.22366304
 30
0.0
 10
195.0372140859
 20
166.2252339197
 30
0.0
 10
195.0435983205
 20
166.2273487641
 30
0.0
 10
195.0544710756
 20
166.2293975458
 30
0.0
 10
195.0793640148
 20
166.2324139526
 30
0.0
 10
195.121065414
 20
166.2344846843
 30
0.0
 10
195.1572448647
 20
166.2349457037
 30
0.0
 10
195.1779817888
 20
166.2349457037
 30
0.0
  0
SPLINE
  5
360
100
AcDbEntity
  8
0
100
AcDbSpline
 62
7
  6
CONTINUOUS
 70
0
 71
3
 72
9
 73
5
 74
0
 42
0.0000001
 43
0.0000001
 44
0.0000000001
 40
0.0
 40
0.0
 40
0.0
 40
0.0
 40
0.4587911719
 40
1.0
 40
1.0
 40
1.0
 40
1.0
 10
194.18508857
 20
166.2349457037
 30
0.0
 10
194.1309653233
 20
166.2349457037
 30
0.0
 10
194.0130047276
 20
166.2315562037
 30
0.0
 10
193.8952206678
 20
166.2247639712
 30
0.0
 10
193.8315351794
 20
166.2202396314
 30
0.0
  0
SPLINE
  5
361
100
AcDbEntity
  8
0
100
AcDbSpline
 62
7
  6
CONTINUOUS
 70
0
 71
3
 72
14
 73
10
 74
0
 42
0.0000001
 43
0.0000001
 44
0.0000000001
 40
0.0
 40
0.0
 40
0.0
 40
0.0
 40
0.0273779911
 40
0.0498827984
 40
0.0795090149
 40
0.1611048805
 40
0.2726780524
 40
0.5829340049
 40
1.0
 40
1.0
 40
1.0
 40
1.0
 10
194.3315351794
 20
166.2202396311
 30
0.0
 10
194.3315351794
 20
166.2216014212
 30
0.0
 10
194.3293443705
 20
166.2236668895
 30
0.0
 10
194.3258625156
 20
166.2252390178
 30
0.0
 10
194.3194750158
 20
166.2273530443
 30
0.0
 10
194.308596853
 20
166.2293968528
 30
0.0
 10
194.2837109567
 20
166.2324134963
 30
0.0
 10
194.2420109877
 20
166.2344846109
 30
0.0
 10
194.2058335666
 20
166.2349457037
 30
0.0
 10
194.18508857
 20
166.2349457037
 30
0.0
  0
SPLINE
  5
362
100
AcDbEntity
  8
0
100
AcDbSpline
 62
7
  6
CONTINUOUS
 70
0
 71
3
 72
9
 73
5
 74
0
 42
0.0000001
 43
0.0000001
 44
0.0000000001
 40
0.0
 40
0.0
 40
0.0
 40
0.0
 40
0.4588082296
 40
1.0
 40
1.0
 40
1.0
 40
1.0
 10
195.1779817888
 20
166.2349457037
 30
0.0
 10
195.2321070457
 20
166.2349457037
 30
0.0
 10
195.3500676137
 20
166.2315553462
 30
0.0
 10
195.4678517006
 20
166.224763834
 30
0.0
 10
195.5315351794
 20
166.2202396366
 30
0.0
  0
SPLINE
  5
363
100
AcDbEntity
  8
0
100
AcDbSpline
 62
7
  6
CONTINUOUS
 70
0
 71
3
 72
14
 73
10
 74
0
 42
0.0000001
 43
0.0000001
 44
0.0000000001
 40
0.0
 40
0.0
 40
0.0
 40
0.0
 40
0.0273798262
 40
0.0498965838
 40
0.0795137353
 40
0.1610436682
 40
0.2726180348
 40
0.5830837936
 40
1.0
 40
1.0
 40
1.0
 40
1.0
 10
35.0315351794
 20
165.8702396366
 30
0.0
 10
35.0315351794
 20
165.8716014771
 30
0.0
 10
35.0337331288
 20
165.87366304
 30
0.0
 10
35.0372140859
 20
165.8752339197
 30
0.0
 10
35.0435983205
 20
165.8773487641
 30
0.0
 10
35.0544710756
 20
165.8793975458
 30
0.0
 10
35.0793640148
 20
165.8824139526
 30
0.0
 10
35.121065414
 20
165.8844846843
 30
0.0
 10
35.1572448647
 20
165.8849457037
 30
0.0
 10
35.1779817888
 20
165.8849457037
 30
0.0
  0
SPLINE
  5
364
100
AcDbEntity
  8
0
100
AcDbSpline
 62
7
  6
CONTINUOUS
 70
0
 71
3
 72
9
 73
5
 74
0
 42
0.0000001
 43
0.0000001
 44
0.0000000001
 40
0.0
 40
0.0
 40
0.0
 40
0.0
 40
0.4587911719
 40
1.0
 40
1.0
 40
1.0
 40
1.0
 10
34.18508857
 20
165.8849457037
 30
0.0
 10
34.1309653233
 20
165.8849457037
 30
0.0
 10
34.0130047276
 20
165.8815562037
 30
0.0
 10
33.8952206678
 20
165.8747639712
 30
0.0
 10
33.8315351794
 20
165.8702396314
 30
0.0
  0
SPLINE
  5
365
100
AcDbEntity
  8
0
100
AcDbSpline
 62
7
  6
CONTINUOUS
 70
0
 71
3
 72
14
 73
10
 74
0
 42
0.0000001
 43
0.0000001
 44
0.0000000001
 40
0.0
 40
0.0
 40
0.0
 40
0.0
 40
0.0273779911
 40
0.0498827984
 40
0.0795090149
 40
0.1611048805
 40
0.2726780524
 40
0.5829340049
 40
1.0
 40
1.0
 40
1.0
 40
1.0
 10
34.3315351794
 20
165.8702396311
 30
0.0
 10
34.3315351794
 20
165.8716014212
 30
0.0
 10
34.3293443705
 20
165.8736668895
 30
0.0
 10
34.3258625156
 20
165.8752390178
 30
0.0
 10
34.3194750158
 20
165.8773530443
 30
0.0
 10
34.308596853
 20
165.8793968528
 30
0.0
 10
34.2837109567
 20
165.8824134963
 30
0.0
 10
34.2420109877
 20
165.8844846109
 30
0.0
 10
34.2058335666
 20
165.8849457037
 30
0.0
 10
34.18508857
 20
165.8849457037
 30
0.0
  0
SPLINE
  5
366
100
AcDbEntity
  8
0
100
AcDbSpline
 62
7
  6
CONTINUOUS
 70
0
 71
3
 72
9
 73
5
 74
0
 42
0.0000001
 43
0.0000001
 44
0.0000000001
 40
0.0
 40
0.0
 40
0.0
 40
0.0
 40
0.4588082296
 40
1.0
 40
1.0
 40
1.0
 40
1.0
 10
35.1779817888
 20
165.8849457037
 30
0.0
 10
35.2321070457
 20
165.8849457037
 30
0.0
 10
35.3500676137
 20
165.8815553462
 30
0.0
 10
35.4678517006
 20
165.874763834
 30
0.0
 10
35.5315351794
 20
165.8702396366
 30
0.0
  0
SPLINE
  5
367
100
AcDbEntity
  8
0
100
AcDbSpline
 62
7
  6
CONTINUOUS
 70
0
 71
3
 72
14
 73
10
 74
0
 42
0.0000001
 43
0.0000001
 44
0.0000000001
 40
0.0
 40
0.0
 40
0.0
 40
0.0
 40
0.0273798262
 40
0.0498965838
 40
0.0795137353
 40
0.1610436682
 40
0.2726180348
 40
0.5830837936
 40
1.0
 40
1.0
 40
1.0
 40
1.0
 10
114.0315351794
 20
166.2202396366
 30
0.0
 10
114.0315351794
 20
166.2216014771
 30
0.0
 10
114.0337331288
 20
166.22366304
 30
0.0
 10
114.0372140859
 20
166.2252339197
 30
0.0
 10
114.0435983205
 20
166.2273487641
 30
0.0
 10
114.0544710756
 20
166.2293975458
 30
0.0
 10
114.0793640148
 20
166.2324139526
 30
0.0
 10
114.121065414
 20
166.2344846843
 30
0.0
 10
114.1572448647
 20
166.2349457037
 30
0.0
 10
114.1779817888
 20
166.2349457037
 30
0.0
  0
SPLINE
  5
368
100
AcDbEntity
  8
0
100
AcDbSpline
 62
7
  6
CONTINUOUS
 70
0
 71
3
 72
9
 73
5
 74
0
 42
0.0000001
 43
0.0000001
 44
0.0000000001
 40
0.0
 40
0.0
 40
0.0
 40
0.0
 40
0.4587911719
 40
1.0
 40
1.0
 40
1.0
 40
1.0
 10
113.18508857
 20
166.2349457037
 30
0.0
 10
113.1309653233
 20
166.2349457037
 30
0.0
 10
113.0130047276
 20
166.2315562037
 30
0.0
 10
112.8952206678
 20
166.2247639712
 30
0.0
 10
112.8315351794
 20
166.2202396314
 30
0.0
  0
SPLINE
  5
369
100
AcDbEntity
  8
0
100
AcDbSpline
 62
7
  6
CONTINUOUS
 70
0
 71
3
 72
14
 73
10
 74
0
 42
0.0000001
 43
0.0000001
 44
0.0000000001
 40
0.0
 40
0.0
 40
0.0
 40
0.0
 40
0.0273779911
 40
0.0498827984
 40
0.0795090149
 40
0.1611048805
 40
0.2726780524
 40
0.5829340049
 40
1.0
 40
1.0
 40
1.0
 40
1.0
 10
113.3315351794
 20
166.2202396311
 30
0.0
 10
113.3315351794
 20
166.2216014212
 30
0.0
 10
113.3293443705
 20
166.2236668895
 30
0.0
 10
113.3258625156
 20
166.2252390178
 30
0.0
 10
113.3194750158
 20
166.2273530443
 30
0.0
 10
113.308596853
 20
166.2293968528
 30
0.0
 10
113.2837109567
 20
166.2324134963
 30
0.0
 10
113.2420109877
 20
166.2344846109
 30
0.0
 10
113.2058335666
 20
166.2349457037
 30
0.0
 10
113.18508857
 20
166.2349457037
 30
0.0
  0
SPLINE
  5
36A
100
AcDbEntity
  8
0
100
AcDbSpline
 62
7
  6
CONTINUOUS
 70
0
 71
3
 72
9
 73
5
 74
0
 42
0.0000001
 43
0.0000001
 44
0.0000000001
 40
0.0
 40
0.0
 40
0.0
 40
0.0
 40
0.4588082296
 40
1.0
 40
1.0
 40
1.0
 40
1.0
 10
114.1779817888
 20
166.2349457037
 30
0.0
 10
114.2321070457
 20
166.2349457037
 30
0.0
 10
114.3500676137
 20
166.2315553462
 30
0.0
 10
114.4678517006
 20
166.224763834
 30
0.0
 10
114.5315351794
 20
166.2202396366
 30
0.0
  0
SPLINE
  5
36B
100
AcDbEntity
  8
0
100
AcDbSpline
 62
7
  6
CONTINUOUS
 70
0
 71
3
 72
17
 73
13
 74
0
 42
0.0000001
 43
0.0000001
 44
0.0000000001
 40
0.0
 40
0.0
 40
0.0
 40
0.0
 40
0.149946744
 40
0.2964921063
 40
0.4366344663
 40
0.5679691699
 40
0.6890708047
 40
0.7998948967
 40
0.8520264579
 40
0.9023990947
 40
0.9515237349
 40
1.0
 40
1.0
 40
1.0
 40
1.0
 10
128.665852543
 20
151.5571793752
 30
0.0
 10
128.4059058011
 20
151.5578367432
 30
0.0
 10
127.89138094
 20
151.5912364363
 30
0.0
 10
127.1463761253
 20
151.736482514
 30
0.0
 10
126.4581791679
 20
151.97136911
 30
0.0
 10
125.8521966409
 20
152.2878249697
 30
0.0
 10
125.3508284273
 20
152.6749145142
 30
0.0
 10
125.029514536
 20
153.0546212772
 30
0.0
 10
124.8487494739
 20
153.378383863
 30
0.0
 10
124.7526607409
 20
153.6240194918
 30
0.0
 10
124.6945392238
 20
153.874793668
 30
0.0
 10
124.6815429441
 20
154.0442715668
 30
0.0
 10
124.6815430281
 20
154.1283099868
 30
0.0
  0
SPLINE
  5
36C
100
AcDbEntity
  8
0
100
AcDbSpline
 62
7
  6
CONTINUOUS
 70
0
 71
3
 72
17
 73
13
 74
0
 42
0.0000001
 43
0.0000001
 44
0.0000000001
 40
0.0
 40
0.0
 40
0.0
 40
0.0
 40
0.0599741492
 40
0.1198784669
 40
0.179865594
 40
0.2399319786
 40
0.360556467
 40
0.4829682993
 40
0.6081139847
 40
0.7363993283
 40
0.867408037
 40
1.0
 40
1.0
 40
1.0
 40
1.0
 10
132.074419321
 20
156.5252488133
 30
0.0
 10
132.0640922083
 20
156.615428281
 30
0.0
 10
132.032150299
 20
156.7945913997
 30
0.0
 10
131.9515636855
 20
157.055272082
 30
0.0
 10
131.840405943
 20
157.3046353483
 30
0.0
 10
131.6543825301
 20
157.6186013567
 30
0.0
 10
131.3561120377
 20
157.9720327162
 30
0.0
 10
130.9174602207
 20
158.3206798258
 30
0.0
 10
130.4151255535
 20
158.5930241093
 30
0.0
 10
129.8647845331
 20
158.7883433273
 30
0.0
 10
129.2816730042
 20
158.9060902195
 30
0.0
 10
128.8822086573
 20
158.9322774478
 30
0.0
 10
128.6815351794
 20
158.9322774478
 30
0.0
  0
SPLINE
  5
36D
100
AcDbEntity
  8
0
100
AcDbSpline
 62
7
  6
CONTINUOUS
 70
0
 71
3
 72
17
 73
13
 74
0
 42
0.0000001
 43
0.0000001
 44
0.0000000001
 40
0.0
 40
0.0
 40
0.0
 40
0.0
 40
0.1325994145
 40
0.263611334
 40
0.39189897
 40
0.5170442651
 40
0.6394516811
 40
0.7600735325
 40
0.8201343297
 40
0.8801168474
 40
0.9400390257
 40
1.0
 40
1.0
 40
1.0
 40
1.0
 10
128.6815351794
 20
158.9322774478
 30
0.0
 10
128.4808503353
 20
158.9322774478
 30
0.0
 10
128.0813694032
 20
158.9060886574
 30
0.0
 10
127.4982400389
 20
158.7883298282
 30
0.0
 10
126.9478929013
 20
158.5930022962
 30
0.0
 10
126.4455687926
 20
158.3206480866
 30
0.0
 10
126.0069208671
 20
157.972011823
 30
0.0
 10
125.7086818921
 20
157.6185798572
 30
0.0
 10
125.5226562717
 20
157.3046383444
 30
0.0
 10
125.4114942427
 20
157.0552631685
 30
0.0
 10
125.3309241468
 20
156.7945772043
 30
0.0
 10
125.2989758863
 20
156.6154085104
 30
0.0
 10
125.2886510378
 20
156.5252488133
 30
0.0
  0
SPLINE
  5
36E
100
AcDbEntity
  8
0
100
AcDbSpline
 62
7
  6
CONTINUOUS
 70
0
 71
3
 72
9
 73
5
 74
0
 42
0.0000001
 43
0.0000001
 44
0.0000000001
 40
0.0
 40
0.0
 40
0.0
 40
0.0
 40
0.5070416167
 40
1.0
 40
1.0
 40
1.0
 40
1.0
 10
124.8477147476
 20
155.474532134
 30
0.0
 10
124.7939972708
 20
155.3585103956
 30
0.0
 10
124.7104160168
 20
155.1183816247
 30
0.0
 10
124.6815429038
 20
154.8654482197
 30
0.0
 10
124.6815430281
 20
154.7411455331
 30
0.0
  0
SPLINE
  5
36F
100
AcDbEntity
  8
0
100
AcDbSpline
 62
7
  6
CONTINUOUS
 70
0
 71
3
 72
11
 73
7
 74
0
 42
0.0000001
 43
0.0000001
 44
0.0000000001
 40
0.0
 40
0.0
 40
0.0
 40
0.0
 40
0.2627778411
 40
0.5149452319
 40
0.7594755918
 40
1.0
 40
1.0
 40
1.0
 40
1.0
 10
125.2403712534
 20
156.543325183
 30
0.0
 10
125.1829061331
 20
156.4644638331
 30
0.0
 10
125.080349839
 20
156.3021904125
 30
0.0
 10
124.9662741523
 20
156.0430708706
 30
0.0
 10
124.8970522109
 20
155.7769826417
 30
0.0
 10
124.8815389545
 20
155.5965040206
 30
0.0
 10
124.8815382475
 20
155.50718998
 30
0.0
  0
SPLINE
  5
370
100
AcDbEntity
  8
0
100
AcDbSpline
 62
7
  6
CONTINUOUS
 70
0
 71
3
 72
13
 73
9
 74
0
 42
0.0000001
 43
0.0000001
 44
0.0000000001
 40
0.0
 40
0.0
 40
0.0
 40
0.0
 40
0.2895222266
 40
0.5543517811
 40
0.6748111371
 40
0.7875365442
 40
0.8947975615
 40
1.0
 40
1.0
 40
1.0
 40
1.0
 10
129.5315351794
 20
157.2378740573
 30
0.0
 10
129.4678432251
 20
157.2425063091
 30
0.0
 10
129.3440083993
 20
157.2350602026
 30
0.0
 10
129.2018468983
 20
157.1807667658
 30
0.0
 10
129.114892785
 20
157.1123541752
 30
0.0
 10
129.0674470809
 20
157.0531695897
 30
0.0
 10
129.0380638194
 20
156.9868160268
 30
0.0
 10
129.0315351794
 20
156.9396848502
 30
0.0
 10
129.0315351794
 20
156.9164802524
 30
0.0
  0
SPLINE
  5
371
100
AcDbEntity
  8
0
100
AcDbSpline
 62
7
  6
CONTINUOUS
 70
0
 71
3
 72
13
 73
9
 74
0
 42
0.0000001
 43
0.0000001
 44
0.0000000001
 40
0.0
 40
0.0
 40
0.0
 40
0.0
 40
0.1052096815
 40
0.2124468744
 40
0.3251641091
 40
0.4456272416
 40
0.7104675958
 40
1.0
 40
1.0
 40
1.0
 40
1.0
 10
128.3315351794
 20
156.9164802524
 30
0.0
 10
128.3315351794
 20
156.9396865449
 30
0.0
 10
128.3250113737
 20
156.9868151176
 30
0.0
 10
128.2956269833
 20
157.0531626406
 30
0.0
 10
128.2481883478
 20
157.1123444269
 30
0.0
 10
128.1612374079
 20
157.1807645415
 30
0.0
 10
128.019069665
 20
157.2350625728
 30
0.0
 10
127.895229639
 20
157.2425064913
 30
0.0
 10
127.8315351794
 20
157.2378740573
 30
0.0
  0
SPLINE
  5
372
100
AcDbEntity
  8
0
100
AcDbSpline
 62
7
  6
CONTINUOUS
 70
0
 71
3
 72
11
 73
7
 74
0
 42
0.0000001
 43
0.0000001
 44
0.0000000001
 40
0.0
 40
0.0
 40
0.0
 40
0.0
 40
0.2405201429
 40
0.4850477768
 40
0.73721623
 40
1.0
 40
1.0
 40
1.0
 40
1.0
 10
132.4815321113
 20
155.5071899807
 30
0.0
 10
132.4815328185
 20
155.5965338726
 30
0.0
 10
132.4660060948
 20
155.7770735258
 30
0.0
 10
132.3967404291
 20
156.0432485481
 30
0.0
 10
132.2825896571
 20
156.3024465496
 30
0.0
 10
132.1799682805
 20
156.4647621594
 30
0.0
 10
132.1224675523
 20
156.5436427802
 30
0.0
  0
SPLINE
  5
373
100
AcDbEntity
  8
0
100
AcDbSpline
 62
7
  6
CONTINUOUS
 70
0
 71
3
 72
9
 73
5
 74
0
 42
0.0000001
 43
0.0000001
 44
0.0000000001
 40
0.0
 40
0.0
 40
0.0
 40
0.0
 40
0.4930122565
 40
1.0
 40
1.0
 40
1.0
 40
1.0
 10
132.6815273307
 20
154.7411455413
 30
0.0
 10
132.6815272069
 20
154.864932319
 30
0.0
 10
132.6528998081
 20
155.1167821781
 30
0.0
 10
132.5700056724
 20
155.3559872983
 30
0.0
 10
132.5167144034
 20
155.4715911733
 30
0.0
  0
SPLINE
  5
374
100
AcDbEntity
  8
0
100
AcDbSpline
 62
7
  6
CONTINUOUS
 70
0
 71
3
 72
11
 73
7
 74
0
 42
0.0000001
 43
0.0000001
 44
0.0000000001
 40
0.0
 40
0.0
 40
0.0
 40
0.0
 40
0.2361748081
 40
0.4783581317
 40
0.7317126439
 40
1.0
 40
1.0
 40
1.0
 40
1.0
 10
132.6815273307
 20
154.1283099786
 30
0.0
 10
132.6815272137
 20
154.0113127245
 30
0.0
 10
132.6560048433
 20
153.7736178793
 30
0.0
 10
132.542759391
 20
153.4268069321
 30
0.0
 10
132.3575294406
 20
153.0944759031
 30
0.0
 10
132.1938570415
 20
152.892794025
 30
0.0
 10
132.1026991243
 20
152.7960776707
 30
0.0
  0
SPLINE
  5
375
100
AcDbEntity
  8
0
100
AcDbSpline
 62
7
  6
CONTINUOUS
 70
0
 71
3
 72
13
 73
9
 74
0
 42
0.0000001
 43
0.0000001
 44
0.0000000001
 40
0.0
 40
0.0
 40
0.0
 40
0.0
 40
0.2197340214
 40
0.3390364201
 40
0.4638955948
 40
0.5935217863
 40
0.7269022053
 40
1.0
 40
1.0
 40
1.0
 40
1.0
 10
132.1026991243
 20
152.7960776707
 30
0.0
 10
131.9161221131
 20
152.5981239563
 30
0.0
 10
131.581136852
 20
152.3353834566
 30
0.0
 10
131.0765491684
 20
152.0603243412
 30
0.0
 10
130.648744794
 20
151.8815872218
 30
0.0
 10
130.1894207534
 20
151.7393440213
 30
0.0
 10
129.5398866763
 20
151.600115004
 30
0.0
 10
129.035352611
 20
151.5580372286
 30
0.0
 10
128.6972678987
 20
151.5571795027
 30
0.0
  0
SPLINE
  5
376
100
AcDbEntity
  8
0
100
AcDbSpline
 62
7
  6
CONTINUOUS
 70
0
 71
3
 72
11
 73
7
 74
0
 42
0.0000001
 43
0.0000001
 44
0.0000000001
 40
0.0
 40
0.0
 40
0.0
 40
0.0
 40
0.2255256267
 40
0.4710262949
 40
0.7315068351
 40
1.0
 40
1.0
 40
1.0
 40
1.0
 10
130.2603443171
 20
147.0575681241
 30
0.0
 10
130.1627432269
 20
146.9768979118
 30
0.0
 10
129.9383509253
 20
146.8326275909
 30
0.0
 10
129.555671924
 20
146.6783680234
 30
0.0
 10
129.1297511656
 20
146.58265349
 30
0.0
 10
128.8322838934
 20
146.5611703298
 30
0.0
 10
128.6815351794
 20
146.5611703298
 30
0.0
  0
SPLINE
  5
377
100
AcDbEntity
  8
0
100
AcDbSpline
 62
7
  6
CONTINUOUS
 70
0
 71
3
 72
11
 73
7
 74
0
 42
0.0000001
 43
0.0000001
 44
0.0000000001
 40
0.0
 40
0.0
 40
0.0
 40
0.0
 40
0.2684844427
 40
0.5289610809
 40
0.7744644867
 40
1.0
 40
1.0
 40
1.0
 40
1.0
 10
128.6815351794
 20
146.5611703298
 30
0.0
 10
128.5308110173
 20
146.5611703298
 30
0.0
 10
128.233389804
 20
146.5826467753
 30
0.0
 10
127.8075270622
 20
146.6783317198
 30
0.0
 10
127.4248838269
 20
146.8325472817
 30
0.0
 10
127.2005000454
 20
146.9767777324
 30
0.0
 10
127.102896172
 20
147.0574273724
 30
0.0
  0
SPLINE
  5
378
100
AcDbEntity
  8
0
100
AcDbSpline
 62
7
  6
CONTINUOUS
 70
0
 71
3
 72
17
 73
13
 74
0
 42
0.0000001
 43
0.0000001
 44
0.0000000001
 40
0.0
 40
0.0
 40
0.0
 40
0.0
 40
0.0484528421
 40
0.0975567437
 40
0.1479139118
 40
0.2000369722
 40
0.3108637964
 40
0.4319943147
 40
0.5633701706
 40
0.7035468873
 40
0.8500974862
 40
1.0
 40
1.0
 40
1.0
 40
1.0
 10
124.8815382475
 20
155.50718998
 30
0.0
 10
124.8815376139
 20
155.4271519548
 30
0.0
 10
124.893961424
 20
155.2657362344
 30
0.0
 10
124.9494502663
 20
155.026907593
 30
0.0
 10
125.0411858479
 20
154.7929953441
 30
0.0
 10
125.2137915569
 20
154.4847340828
 30
0.0
 10
125.5205187374
 20
154.1233370951
 30
0.0
 10
125.9989903664
 20
153.7552430515
 30
0.0
 10
126.5771257965
 20
153.4547036677
 30
0.0
 10
127.2334543548
 20
153.2321484741
 30
0.0
 10
127.9436299004
 20
153.0952663873
 30
0.0
 10
128.4339150058
 20
153.0645970635
 30
0.0
 10
128.6815351794
 20
153.0645970635
 30
0.0
  0
SPLINE
  5
379
100
AcDbEntity
  8
0
100
AcDbSpline
 62
7
  6
CONTINUOUS
 70
0
 71
3
 72
9
 73
5
 74
0
 42
0.0000001
 43
0.0000001
 44
0.0000000001
 40
0.0
 40
0.0
 40
0.0
 40
0.0
 40
0.5060797547
 40
1.0
 40
1.0
 40
1.0
 40
1.0
 10
128.6815351794
 20
152.1699950985
 30
0.0
 10
128.9519631879
 20
152.1699950985
 30
0.0
 10
129.4868960895
 20
152.2046783398
 30
0.0
 10
130.0127393108
 20
152.3100390351
 30
0.0
 10
130.2670594858
 20
152.3806119932
 30
0.0
  0
SPLINE
  5
37A
100
AcDbEntity
  8
0
100
AcDbSpline
 62
7
  6
CONTINUOUS
 70
0
 71
3
 72
15
 73
11
 74
0
 42
0.0000001
 43
0.0000001
 44
0.0000000001
 40
0.0
 40
0.0
 40
0.0
 40
0.0
 40
0.1503886061
 40
0.2940953782
 40
0.4300619197
 40
0.557746105
 40
0.6772654947
 40
0.7895192571
 40
0.8962568286
 40
1.0
 40
1.0
 40
1.0
 40
1.0
 10
130.2670594858
 20
152.3806119932
 30
0.0
 10
130.4416248586
 20
152.4290532729
 30
0.0
 10
130.7785486224
 20
152.5410772952
 30
0.0
 10
131.2500709197
 20
152.7583781686
 30
0.0
 10
131.6684550469
 20
153.0174500085
 30
0.0
 10
132.0249506351
 20
153.3132658962
 30
0.0
 10
132.3119755824
 20
153.6402020034
 30
0.0
 10
132.5229464762
 20
153.9921342377
 30
0.0
 10
132.6522956362
 20
154.3617448348
 30
0.0
 10
132.6815274556
 20
154.6161739194
 30
0.0
 10
132.6815273307
 20
154.7411455413
 30
0.0
  0
SPLINE
  5
37B
100
AcDbEntity
  8
0
100
AcDbSpline
 62
7
  6
CONTINUOUS
 70
0
 71
3
 72
17
 73
13
 74
0
 42
0.0000001
 43
0.0000001
 44
0.0000000001
 40
0.0
 40
0.0
 40
0.0
 40
0.0
 40
0.0488859068
 40
0.0979798433
 40
0.1479903653
 40
0.1995509579
 40
0.3090329171
 40
0.4291577333
 40
0.5602462608
 40
0.7009247862
 40
0.8486117487
 40
1.0
 40
1.0
 40
1.0
 40
1.0
 10
125.2886564049
 20
156.5252485594
 30
0.0
 10
125.2801337642
 20
156.4508315901
 30
0.0
 10
125.2748998357
 20
156.300037145
 30
0.0
 10
125.3035293374
 20
156.0741787389
 30
0.0
 10
125.368248194
 20
155.8516174356
 30
0.0
 10
125.5040127703
 20
155.5569808437
 30
0.0
 10
125.7657341685
 20
155.2082251277
 30
0.0
 10
126.1927762594
 20
154.8514510156
 30
0.0
 10
126.7207635687
 20
154.5590153844
 30
0.0
 10
127.328280003
 20
154.3418097839
 30
0.0
 10
127.9907329947
 20
154.2079278341
 30
0.0
 10
128.4495767915
 20
154.1779072688
 30
0.0
 10
128.6815351794
 20
154.1779072688
 30
0.0
  0
SPLINE
  5
37C
100
AcDbEntity
  8
0
100
AcDbSpline
 62
7
  6
CONTINUOUS
 70
0
 71
3
 72
17
 73
13
 74
0
 42
0.0000001
 43
0.0000001
 44
0.0000000001
 40
0.0
 40
0.0
 40
0.0
 40
0.0
 40
0.1498997029
 40
0.2964493767
 40
0.4366263979
 40
0.5680033877
 40
0.689135216
 40
0.7999629772
 40
0.8520863386
 40
0.9024435421
 40
0.9515473809
 40
1.0
 40
1.0
 40
1.0
 40
1.0
 10
128.6815351794
 20
152.2985526204
 30
0.0
 10
128.4339196567
 20
152.2985526204
 30
0.0
 10
127.9436407835
 20
152.3292211033
 30
0.0
 10
127.2334704384
 20
152.4660997751
 30
0.0
 10
126.5771402545
 20
152.6886528802
 30
0.0
 10
125.998999915
 20
152.9891924845
 30
0.0
 10
125.5205222644
 20
153.3572883155
 30
0.0
 10
125.2137932087
 20
153.7186889818
 30
0.0
 10
125.0411846887
 20
154.0269512678
 30
0.0
 10
124.949451506
 20
154.2608648006
 30
0.0
 10
124.8939599192
 20
154.4996924926
 30
0.0
 10
124.881538881
 20
154.6611078832
 30
0.0
 10
124.8815382475
 20
154.7411455376
 30
0.0
  0
SPLINE
  5
37D
100
AcDbEntity
  8
0
100
AcDbSpline
 62
7
  6
CONTINUOUS
 70
0
 71
3
 72
17
 73
13
 74
0
 42
0.0000001
 43
0.0000001
 44
0.0000000001
 40
0.0
 40
0.0
 40
0.0
 40
0.0
 40
0.1498997029
 40
0.2964493767
 40
0.4366263979
 40
0.5680033877
 40
0.689135216
 40
0.7999629772
 40
0.8520863386
 40
0.9024435421
 40
0.9515473809
 40
1.0
 40
1.0
 40
1.0
 40
1.0
 10
128.6815351794
 20
153.0645970635
 30
0.0
 10
128.929150702
 20
153.0645970635
 30
0.0
 10
129.4194295753
 20
153.0952655464
 30
0.0
 10
130.1295999204
 20
153.2321442182
 30
0.0
 10
130.7859301043
 20
153.4546973233
 30
0.0
 10
131.3640704438
 20
153.7552369276
 30
0.0
 10
131.8425480943
 20
154.1233327586
 30
0.0
 10
132.1492771501
 20
154.4847334249
 30
0.0
 10
132.3218856701
 20
154.7929957109
 30
0.0
 10
132.4136188527
 20
155.0269092438
 30
0.0
 10
132.4691104396
 20
155.2657369357
 30
0.0
 10
132.4815314777
 20
155.4271523263
 30
0.0
 10
132.4815321113
 20
155.5071899807
 30
0.0
  0
SPLINE
  5
37E
100
AcDbEntity
  8
0
100
AcDbSpline
 62
7
  6
CONTINUOUS
 70
0
 71
3
 72
17
 73
13
 74
0
 42
0.0000001
 43
0.0000001
 44
0.0000000001
 40
0.0
 40
0.0
 40
0.0
 40
0.0
 40
0.0484528421
 40
0.0975567437
 40
0.1479139118
 40
0.2000369722
 40
0.3108637964
 40
0.4319943147
 40
0.5633701706
 40
0.7035468873
 40
0.8500974862
 40
1.0
 40
1.0
 40
1.0
 40
1.0
 10
132.4815321113
 20
154.7411455369
 30
0.0
 10
132.4815327448
 20
154.6611075117
 30
0.0
 10
132.4691089347
 20
154.4996917913
 30
0.0
 10
132.4136200925
 20
154.2608631498
 30
0.0
 10
132.3218845109
 20
154.026950901
 30
0.0
 10
132.1492788019
 20
153.7186896396
 30
0.0
 10
131.8425516214
 20
153.357292652
 30
0.0
 10
131.3640799924
 20
152.9891986083
 30
0.0
 10
130.7859445623
 20
152.6886592246
 30
0.0
 10
130.129616004
 20
152.466104031
 30
0.0
 10
129.4194404583
 20
152.3292219442
 30
0.0
 10
128.9291553529
 20
152.2985526204
 30
0.0
 10
128.6815351794
 20
152.2985526204
 30
0.0
  0
SPLINE
  5
37F
100
AcDbEntity
  8
0
100
AcDbSpline
 62
7
  6
CONTINUOUS
 70
0
 71
3
 72
17
 73
13
 74
0
 42
0.0000001
 43
0.0000001
 44
0.0000000001
 40
0.0
 40
0.0
 40
0.0
 40
0.0
 40
0.1513872986
 40
0.2990741751
 40
0.4397513362
 40
0.5708413165
 40
0.6909672711
 40
0.8004496885
 40
0.8520102834
 40
0.9020206988
 40
0.9511144047
 40
1.0
 40
1.0
 40
1.0
 40
1.0
 10
128.6815351794
 20
153.2574333464
 30
0.0
 10
128.442900987
 20
153.2574333464
 30
0.0
 10
127.970850246
 20
153.2883178178
 30
0.0
 10
127.2893311518
 20
153.4260528637
 30
0.0
 10
126.6643259246
 20
153.6495096836
 30
0.0
 10
126.1211374347
 20
153.9503637997
 30
0.0
 10
125.6817985089
 20
154.3174114446
 30
0.0
 10
125.4125421264
 20
154.6762092435
 30
0.0
 10
125.2728695634
 20
154.9793280844
 30
0.0
 10
125.2062875613
 20
155.2082956852
 30
0.0
 10
125.1768356714
 20
155.4406549185
 30
0.0
 10
125.182219186
 20
155.5957893908
 30
0.0
 10
125.1909873409
 20
155.6723480613
 30
0.0
  0
SPLINE
  5
380
100
AcDbEntity
  8
0
100
AcDbSpline
 62
7
  6
CONTINUOUS
 70
0
 71
3
 72
25
 73
21
 74
0
 42
0.0000001
 43
0.0000001
 44
0.0000000001
 40
0.0
 40
0.0
 40
0.0
 40
0.0
 40
0.0749679427
 40
0.1482603671
 40
0.2183665135
 40
0.2840696194
 40
0.3446495445
 40
0.4000765169
 40
0.4512099921
 40
0.475767775
 40
0.5
 40
0.524232225
 40
0.5487900079
 40
0.5999234831
 40
0.6553504555
 40
0.7159303806
 40
0.7816334865
 40
0.8517396329
 40
0.9250320573
 40
1.0
 40
1.0
 40
1.0
 40
1.0
 10
128.6815351794
 20
155.6527470801
 30
0.0
 10
128.5210576443
 20
155.6527470801
 30
0.0
 10
128.2033118892
 20
155.6726234193
 30
0.0
 10
127.7430565623
 20
155.7613294151
 30
0.0
 10
127.3176916345
 20
155.9055817861
 30
0.0
 10
126.9430240356
 20
156.1003087999
 30
0.0
 10
126.6328776124
 20
156.3390407637
 30
0.0
 10
126.3991830204
 20
156.6139947408
 30
0.0
 10
126.2753570304
 20
156.870231065
 30
0.0
 10
126.2268629453
 20
157.0792980691
 30
0.0
 10
126.2147884497
 20
157.2357657363
 30
0.0
 10
126.2268629453
 20
157.3922334034
 30
0.0
 10
126.2753570304
 20
157.6013004076
 30
0.0
 10
126.3991830204
 20
157.8575367317
 30
0.0
 10
126.6328776124
 20
158.1324907088
 30
0.0
 10
126.9430240356
 20
158.3712226727
 30
0.0
 10
127.3176916345
 20
158.5659496864
 30
0.0
 10
127.7430565623
 20
158.7102020575
 30
0.0
 10
128.2033118892
 20
158.7989080532
 30
0.0
 10
128.5210576443
 20
158.8187843925
 30
0.0
 10
128.6815351794
 20
158.8187843925
 30
0.0
  0
SPLINE
  5
381
100
AcDbEntity
  8
0
100
AcDbSpline
 62
7
  6
CONTINUOUS
 70
0
 71
3
 72
17
 73
13
 74
0
 42
0.0000001
 43
0.0000001
 44
0.0000000001
 40
0.0
 40
0.0
 40
0.0
 40
0.0
 40
0.0488859215
 40
0.0979797918
 40
0.1479901622
 40
0.1995505658
 40
0.3090321135
 40
0.4291567865
 40
0.5602455705
 40
0.7009223521
 40
0.8486100111
 40
1.0
 40
1.0
 40
1.0
 40
1.0
 10
132.1720828514
 20
155.6723480575
 30
0.0
 10
132.1808505432
 20
155.5957888117
 30
0.0
 10
132.1862361768
 20
155.4406536066
 30
0.0
 10
132.1567814037
 20
155.2082938962
 30
0.0
 10
132.0902005781
 20
154.9793262244
 30
0.0
 10
131.9505285717
 20
154.6762088964
 30
0.0
 10
131.6812744207
 20
154.3174141975
 30
0.0
 10
131.2419402885
 20
153.9503691615
 30
0.0
 10
130.6987567618
 20
153.6495154042
 30
0.0
 10
130.0737534039
 20
153.4260569747
 30
0.0
 10
129.3922299294
 20
153.2883185707
 30
0.0
 10
128.9201736269
 20
153.2574333464
 30
0.0
 10
128.6815351794
 20
153.2574333464
 30
0.0
  0
SPLINE
  5
382
100
AcDbEntity
  8
0
100
AcDbSpline
 62
7
  6
CONTINUOUS
 70
0
 71
3
 72
17
 73
13
 74
0
 42
0.0000001
 43
0.0000001
 44
0.0000000001
 40
0.0
 40
0.0
 40
0.0
 40
0.0
 40
0.1513882513
 40
0.2990752138
 40
0.4397537392
 40
0.5708422667
 40
0.6909670829
 40
0.8004490421
 40
0.8520096347
 40
0.9020201567
 40
0.9511140932
 40
1.0
 40
1.0
 40
1.0
 40
1.0
 10
128.6815351794
 20
154.1779072688
 30
0.0
 10
128.9134935673
 20
154.1779072688
 30
0.0
 10
129.372337364
 20
154.2079278341
 30
0.0
 10
130.0347903557
 20
154.3418097839
 30
0.0
 10
130.6423067901
 20
154.5590153844
 30
0.0
 10
131.1702940993
 20
154.8514510156
 30
0.0
 10
131.5973361903
 20
155.2082251277
 30
0.0
 10
131.8590575884
 20
155.5569808437
 30
0.0
 10
131.9948221648
 20
155.8516174356
 30
0.0
 10
132.0595410214
 20
156.0741787389
 30
0.0
 10
132.088170523
 20
156.300037145
 30
0.0
 10
132.0829365945
 20
156.4508315901
 30
0.0
 10
132.0744139539
 20
156.5252485594
 30
0.0
  0
SPLINE
  5
383
100
AcDbEntity
  8
0
100
AcDbSpline
 62
7
  6
CONTINUOUS
 70
0
 71
3
 72
28
 73
24
 74
0
 42
0.0000001
 43
0.0000001
 44
0.0000000001
 40
0.0
 40
0.0
 40
0.0
 40
0.0
 40
0.0749804455
 40
0.1482847768
 40
0.218401533
 40
0.2841118015
 40
0.3446953343
 40
0.4001239586
 40
0.4512596804
 40
0.4758199071
 40
0.5000558431
 40
0.5242931484
 40
0.5488574861
 40
0.6000074068
 40
0.6554497362
 40
0.7160290794
 40
0.7817213589
 40
0.8517761823
 40
0.8881043675
 40
0.9250530485
 40
0.9624358691
 40
0.9811993284
 40
1.0
 40
1.0
 40
1.0
 40
1.0
 10
128.6815351794
 20
155.6527470801
 30
0.0
 10
128.8420524024
 20
155.6527470801
 30
0.0
 10
129.1598762542
 20
155.6726328931
 30
0.0
 10
129.6202389819
 20
155.7613820365
 30
0.0
 10
130.0456868369
 20
155.9057042094
 30
0.0
 10
130.4203988226
 20
156.1005224633
 30
0.0
 10
130.7305409344
 20
156.3393589728
 30
0.0
 10
130.9641797983
 20
156.6144238806
 30
0.0
 10
131.0879084526
 20
156.8707519442
 30
0.0
 10
131.1362976001
 20
157.0798801262
 30
0.0
 10
131.1482808064
 20
157.2363921294
 30
0.0
 10
131.136102038
 20
157.3928977948
 30
0.0
 10
131.0874519975
 20
157.6020078616
 30
0.0
 10
130.9634126329
 20
157.8582618786
 30
0.0
 10
130.7294733979
 20
158.1331214747
 30
0.0
 10
130.4192275566
 20
158.3718052103
 30
0.0
 10
130.0445323199
 20
158.5661901602
 30
0.0
 10
129.6944064326
 20
158.6850175112
 30
0.0
 10
129.3951535781
 20
158.7535509607
 30
0.0
 10
129.1610910043
 20
158.7914486291
 30
0.0
 10
128.9624428661
 20
158.8089861259
 30
0.0
 10
128.8022171212
 20
158.8177136501
 30
0.0
 10
128.7217834277
 20
158.8187843925
 30
0.0
 10
128.6815351794
 20
158.8187843925
 30
0.0
  0
SPLINE
  5
384
100
AcDbEntity
  8
0
100
AcDbSpline
 62
7
  6
CONTINUOUS
 70
0
 71
3
 72
15
 73
11
 74
0
 42
0.0000001
 43
0.0000001
 44
0.0000000001
 40
0.0
 40
0.0
 40
0.0
 40
0.0
 40
0.1035911933
 40
0.2102120795
 40
0.3224056409
 40
0.4419279866
 40
0.5696703785
 40
0.7057293934
 40
0.8495358777
 40
1.0
 40
1.0
 40
1.0
 40
1.0
 10
124.6815430281
 20
154.7411455331
 30
0.0
 10
124.6815431539
 20
154.6153192297
 30
0.0
 10
124.7111883258
 20
154.3590906172
 30
0.0
 10
124.8423287855
 20
153.987047808
 30
0.0
 10
125.0561413622
 20
153.6330628379
 30
0.0
 10
125.3469073122
 20
153.3045808085
 30
0.0
 10
125.7078750551
 20
153.007822045
 30
0.0
 10
126.1312753647
 20
152.7484977535
 30
0.0
 10
126.6081425129
 20
152.5317047919
 30
0.0
 10
126.9486823739
 20
152.4205248557
 30
0.0
 10
127.1250576172
 20
152.3726390117
 30
0.0
  0
SPLINE
  5
385
100
AcDbEntity
  8
0
100
AcDbSpline
 62
7
  6
CONTINUOUS
 70
0
 71
3
 72
9
 73
5
 74
0
 42
0.0000001
 43
0.0000001
 44
0.0000000001
 40
0.0
 40
0.0
 40
0.0
 40
0.0
 40
0.4941502045
 40
1.0
 40
1.0
 40
1.0
 40
1.0
 10
127.1250576172
 20
152.3726390117
 30
0.0
 10
127.3751092364
 20
152.3047500461
 30
0.0
 10
127.8914127483
 20
152.203380419
 30
0.0
 10
128.4162968993
 20
152.1699950985
 30
0.0
 10
128.6815351794
 20
152.1699950985
 30
0.0
  0
SPLINE
  5
386
100
AcDbEntity
  8
0
100
AcDbSpline
 62
7
  6
CONTINUOUS
 70
0
 71
3
 72
14
 73
10
 74
0
 42
0.0000001
 43
0.0000001
 44
0.0000000001
 40
0.0
 40
0.0
 40
0.0
 40
0.0
 40
0.0889061485
 40
0.1861977234
 40
0.295517732
 40
0.4179424053
 40
0.5524970613
 40
0.6967491031
 40
1.0
 40
1.0
 40
1.0
 40
1.0
 10
129.0315351794
 20
158.0092191889
 30
0.0
 10
129.0315351794
 20
157.9902197502
 30
0.0
 10
129.0387655065
 20
157.9502121313
 30
0.0
 10
129.0687749232
 20
157.8937856287
 30
0.0
 10
129.116187933
 20
157.8411124437
 30
0.0
 10
129.1790165916
 20
157.7937885274
 30
0.0
 10
129.2549638457
 20
157.7533328641
 30
0.0
 10
129.3717306617
 20
157.709777861
 30
0.0
 10
129.4669005156
 20
157.6925261982
 30
0.0
 10
129.5315351794
 20
157.6878253841
 30
0.0
  0
SPLINE
  5
387
100
AcDbEntity
  8
0
100
AcDbSpline
 62
7
  6
CONTINUOUS
 70
0
 71
3
 72
14
 73
10
 74
0
 42
0.0000001
 43
0.0000001
 44
0.0000000001
 40
0.0
 40
0.0
 40
0.0
 40
0.0
 40
0.3032359377
 40
0.4474898985
 40
0.5820422622
 40
0.7044618361
 40
0.8137949464
 40
0.9110731612
 40
1.0
 40
1.0
 40
1.0
 40
1.0
 10
127.8315351794
 20
157.6878253841
 30
0.0
 10
127.8961667397
 20
157.6925259724
 30
0.0
 10
127.9913283007
 20
157.709792404
 30
0.0
 10
128.1081048589
 20
157.753316221
 30
0.0
 10
128.184040158
 20
157.7937904784
 30
0.0
 10
128.2468840571
 20
157.8410973225
 30
0.0
 10
128.2942824933
 20
157.8937821008
 30
0.0
 10
128.3243076301
 20
157.950204183
 30
0.0
 10
128.3315351794
 20
157.9902153037
 30
0.0
 10
128.3315351794
 20
158.0092191889
 30
0.0
  0
SPLINE
  5
388
100
AcDbEntity
  8
0
100
AcDbSpline
 62
7
  6
CONTINUOUS
 70
0
 71
3
 72
13
 73
9
 74
0
 42
0.0000001
 43
0.0000001
 44
0.0000000001
 40
0.0
 40
0.0
 40
0.0
 40
0.0
 40
0.273091888
 40
0.4064707361
 40
0.5360955543
 40
0.6609549335
 40
0.7802598981
 40
1.0
 40
1.0
 40
1.0
 40
1.0
 10
176.665852543
 20
151.5571793752
 30
0.0
 10
176.3277895447
 20
151.558034288
 30
0.0
 10
175.8232861245
 20
151.6001027871
 30
0.0
 10
175.1737874472
 20
151.7393089893
 30
0.0
 10
174.7144819905
 20
151.8815311622
 30
0.0
 10
174.2866879821
 20
152.0602458364
 30
0.0
 10
173.7820989768
 20
152.3352742509
 30
0.0
 10
173.4471049096
 20
152.5979897093
 30
0.0
 10
173.2605149826
 20
152.7959256609
 30
0.0
  0
SPLINE
  5
389
100
AcDbEntity
  8
0
100
AcDbSpline
 62
7
  6
CONTINUOUS
 70
0
 71
3
 72
11
 73
7
 74
0
 42
0.0000001
 43
0.0000001
 44
0.0000000001
 40
0.0
 40
0.0
 40
0.0
 40
0.0
 40
0.2682950265
 40
0.5216504692
 40
0.7638294778
 40
1.0
 40
1.0
 40
1.0
 40
1.0
 10
173.2605149826
 20
152.7959256609
 30
0.0
 10
173.1693340083
 20
152.8926511016
 30
0.0
 10
173.0056217984
 20
153.0943533715
 30
0.0
 10
172.8203451978
 20
153.4267222767
 30
0.0
 10
172.7070717735
 20
153.773574386
 30
0.0
 10
172.6815429111
 20
154.0112984589
 30
0.0
 10
172.6815430281
 20
154.1283099868
 30
0.0
  0
SPLINE
  5
38A
100
AcDbEntity
  8
0
100
AcDbSpline
 62
7
  6
CONTINUOUS
 70
0
 71
3
 72
17
 73
13
 74
0
 42
0.0000001
 43
0.0000001
 44
0.0000000001
 40
0.0
 40
0.0
 40
0.0
 40
0.0
 40
0.0599741492
 40
0.1198784669
 40
0.179865594
 40
0.2399319786
 40
0.360556467
 40
0.4829682993
 40
0.6081139847
 40
0.7363993283
 40
0.867408037
 40
1.0
 40
1.0
 40
1.0
 40
1.0
 10
180.074419321
 20
156.5252488133
 30
0.0
 10
180.0640922083
 20
156.615428281
 30
0.0
 10
180.032150299
 20
156.7945913997
 30
0.0
 10
179.9515636855
 20
157.055272082
 30
0.0
 10
179.840405943
 20
157.3046353483
 30
0.0
 10
179.6543825301
 20
157.6186013567
 30
0.0
 10
179.3561120377
 20
157.9720327162
 30
0.0
 10
178.9174602207
 20
158.3206798258
 30
0.0
 10
178.4151255535
 20
158.5930241093
 30
0.0
 10
177.8647845331
 20
158.7883433273
 30
0.0
 10
177.2816730042
 20
158.9060902195
 30
0.0
 10
176.8822086573
 20
158.9322774478
 30
0.0
 10
176.6815351794
 20
158.9322774478
 30
0.0
  0
SPLINE
  5
38B
100
AcDbEntity
  8
0
100
AcDbSpline
 62
7
  6
CONTINUOUS
 70
0
 71
3
 72
17
 73
13
 74
0
 42
0.0000001
 43
0.0000001
 44
0.0000000001
 40
0.0
 40
0.0
 40
0.0
 40
0.0
 40
0.1325994145
 40
0.263611334
 40
0.39189897
 40
0.5170442651
 40
0.6394516811
 40
0.7600735325
 40
0.8201343297
 40
0.8801168474
 40
0.9400390257
 40
1.0
 40
1.0
 40
1.0
 40
1.0
 10
176.6815351794
 20
158.9322774478
 30
0.0
 10
176.4808503353
 20
158.9322774478
 30
0.0
 10
176.0813694032
 20
158.9060886574
 30
0.0
 10
175.4982400389
 20
158.7883298282
 30
0.0
 10
174.9478929013
 20
158.5930022962
 30
0.0
 10
174.4455687926
 20
158.3206480866
 30
0.0
 10
174.0069208671
 20
157.972011823
 30
0.0
 10
173.7086818921
 20
157.6185798572
 30
0.0
 10
173.5226562717
 20
157.3046383444
 30
0.0
 10
173.4114942427
 20
157.0552631685
 30
0.0
 10
173.3309241468
 20
156.7945772043
 30
0.0
 10
173.2989758863
 20
156.6154085104
 30
0.0
 10
173.2886510378
 20
156.5252488133
 30
0.0
  0
SPLINE
  5
38C
100
AcDbEntity
  8
0
100
AcDbSpline
 62
7
  6
CONTINUOUS
 70
0
 71
3
 72
9
 73
5
 74
0
 42
0.0000001
 43
0.0000001
 44
0.0000000001
 40
0.0
 40
0.0
 40
0.0
 40
0.0
 40
0.5070416167
 40
1.0
 40
1.0
 40
1.0
 40
1.0
 10
172.8477147476
 20
155.474532134
 30
0.0
 10
172.7939972708
 20
155.3585103956
 30
0.0
 10
172.7104160168
 20
155.1183816247
 30
0.0
 10
172.6815429038
 20
154.8654482197
 30
0.0
 10
172.6815430281
 20
154.7411455331
 30
0.0
  0
SPLINE
  5
38D
100
AcDbEntity
  8
0
100
AcDbSpline
 62
7
  6
CONTINUOUS
 70
0
 71
3
 72
11
 73
7
 74
0
 42
0.0000001
 43
0.0000001
 44
0.0000000001
 40
0.0
 40
0.0
 40
0.0
 40
0.0
 40
0.2627778411
 40
0.5149452319
 40
0.7594755918
 40
1.0
 40
1.0
 40
1.0
 40
1.0
 10
173.2403712534
 20
156.543325183
 30
0.0
 10
173.1829061331
 20
156.4644638331
 30
0.0
 10
173.080349839
 20
156.3021904125
 30
0.0
 10
172.9662741523
 20
156.0430708706
 30
0.0
 10
172.8970522109
 20
155.7769826417
 30
0.0
 10
172.8815389545
 20
155.5965040206
 30
0.0
 10
172.8815382475
 20
155.50718998
 30
0.0
  0
SPLINE
  5
38E
100
AcDbEntity
  8
0
100
AcDbSpline
 62
7
  6
CONTINUOUS
 70
0
 71
3
 72
13
 73
9
 74
0
 42
0.0000001
 43
0.0000001
 44
0.0000000001
 40
0.0
 40
0.0
 40
0.0
 40
0.0
 40
0.2895222266
 40
0.5543517811
 40
0.6748111371
 40
0.7875365442
 40
0.8947975615
 40
1.0
 40
1.0
 40
1.0
 40
1.0
 10
177.5315351794
 20
157.2378740573
 30
0.0
 10
177.4678432251
 20
157.2425063091
 30
0.0
 10
177.3440083993
 20
157.2350602026
 30
0.0
 10
177.2018468983
 20
157.1807667658
 30
0.0
 10
177.114892785
 20
157.1123541752
 30
0.0
 10
177.0674470809
 20
157.0531695897
 30
0.0
 10
177.0380638194
 20
156.9868160268
 30
0.0
 10
177.0315351794
 20
156.9396848502
 30
0.0
 10
177.0315351794
 20
156.9164802524
 30
0.0
  0
SPLINE
  5
38F
100
AcDbEntity
  8
0
100
AcDbSpline
 62
7
  6
CONTINUOUS
 70
0
 71
3
 72
13
 73
9
 74
0
 42
0.0000001
 43
0.0000001
 44
0.0000000001
 40
0.0
 40
0.0
 40
0.0
 40
0.0
 40
0.1052096815
 40
0.2124468744
 40
0.3251641091
 40
0.4456272416
 40
0.7104675958
 40
1.0
 40
1.0
 40
1.0
 40
1.0
 10
176.3315351794
 20
156.9164802524
 30
0.0
 10
176.3315351794
 20
156.9396865449
 30
0.0
 10
176.3250113737
 20
156.9868151176
 30
0.0
 10
176.2956269833
 20
157.0531626406
 30
0.0
 10
176.2481883478
 20
157.1123444269
 30
0.0
 10
176.1612374079
 20
157.1807645415
 30
0.0
 10
176.019069665
 20
157.2350625728
 30
0.0
 10
175.895229639
 20
157.2425064913
 30
0.0
 10
175.8315351794
 20
157.2378740573
 30
0.0
  0
SPLINE
  5
390
100
AcDbEntity
  8
0
100
AcDbSpline
 62
7
  6
CONTINUOUS
 70
0
 71
3
 72
11
 73
7
 74
0
 42
0.0000001
 43
0.0000001
 44
0.0000000001
 40
0.0
 40
0.0
 40
0.0
 40
0.0
 40
0.2405201429
 40
0.4850477768
 40
0.73721623
 40
1.0
 40
1.0
 40
1.0
 40
1.0
 10
180.4815321113
 20
155.5071899807
 30
0.0
 10
180.4815328185
 20
155.5965338726
 30
0.0
 10
180.4660060948
 20
155.7770735258
 30
0.0
 10
180.3967404291
 20
156.0432485481
 30
0.0
 10
180.2825896571
 20
156.3024465496
 30
0.0
 10
180.1799682805
 20
156.4647621594
 30
0.0
 10
180.1224675523
 20
156.5436427802
 30
0.0
  0
SPLINE
  5
391
100
AcDbEntity
  8
0
100
AcDbSpline
 62
7
  6
CONTINUOUS
 70
0
 71
3
 72
9
 73
5
 74
0
 42
0.0000001
 43
0.0000001
 44
0.0000000001
 40
0.0
 40
0.0
 40
0.0
 40
0.0
 40
0.4930122565
 40
1.0
 40
1.0
 40
1.0
 40
1.0
 10
180.6815273307
 20
154.7411455413
 30
0.0
 10
180.6815272069
 20
154.864932319
 30
0.0
 10
180.6528998081
 20
155.1167821781
 30
0.0
 10
180.5700056724
 20
155.3559872983
 30
0.0
 10
180.5167144034
 20
155.4715911733
 30
0.0
  0
SPLINE
  5
392
100
AcDbEntity
  8
0
100
AcDbSpline
 62
7
  6
CONTINUOUS
 70
0
 71
3
 72
17
 73
13
 74
0
 42
0.0000001
 43
0.0000001
 44
0.0000000001
 40
0.0
 40
0.0
 40
0.0
 40
0.0
 40
0.0484767019
 40
0.09760218
 40
0.1479755532
 40
0.2001073298
 40
0.3109302454
 40
0.4320301101
 40
0.5633629002
 40
0.7035057795
 40
0.8500517238
 40
1.0
 40
1.0
 40
1.0
 40
1.0
 10
180.6815273307
 20
154.1283099786
 30
0.0
 10
180.6815272466
 20
154.0442716062
 30
0.0
 10
180.6685315364
 20
153.8747930642
 30
0.0
 10
180.6104087104
 20
153.6240180833
 30
0.0
 10
180.5143199844
 20
153.3783818933
 30
0.0
 10
180.3335571755
 20
153.0546225176
 30
0.0
 10
180.0122497289
 20
152.6749229713
 30
0.0
 10
179.5108953871
 20
152.287839548
 30
0.0
 10
178.9049260385
 20
151.9713846357
 30
0.0
 10
178.216739088
 20
151.7364946443
 30
0.0
 10
177.4717381499
 20
151.5912426781
 30
0.0
 10
176.9572148016
 20
151.5578389918
 30
0.0
 10
176.6972678987
 20
151.5571795027
 30
0.0
  0
SPLINE
  5
393
100
AcDbEntity
  8
0
100
AcDbSpline
 62
7
  6
CONTINUOUS
 70
0
 71
3
 72
11
 73
7
 74
0
 42
0.0000001
 43
0.0000001
 44
0.0000000001
 40
0.0
 40
0.0
 40
0.0
 40
0.0
 40
0.2255256267
 40
0.4710262949
 40
0.7315068351
 40
1.0
 40
1.0
 40
1.0
 40
1.0
 10
178.2603443171
 20
147.0575681241
 30
0.0
 10
178.1627432269
 20
146.9768979118
 30
0.0
 10
177.9383509253
 20
146.8326275909
 30
0.0
 10
177.555671924
 20
146.6783680234
 30
0.0
 10
177.1297511656
 20
146.58265349
 30
0.0
 10
176.8322838934
 20
146.5611703298
 30
0.0
 10
176.6815351794
 20
146.5611703298
 30
0.0
  0
SPLINE
  5
394
100
AcDbEntity
  8
0
100
AcDbSpline
 62
7
  6
CONTINUOUS
 70
0
 71
3
 72
11
 73
7
 74
0
 42
0.0000001
 43
0.0000001
 44
0.0000000001
 40
0.0
 40
0.0
 40
0.0
 40
0.0
 40
0.2684844427
 40
0.5289610809
 40
0.7744644867
 40
1.0
 40
1.0
 40
1.0
 40
1.0
 10
176.6815351794
 20
146.5611703298
 30
0.0
 10
176.5308110173
 20
146.5611703298
 30
0.0
 10
176.233389804
 20
146.5826467753
 30
0.0
 10
175.8075270622
 20
146.6783317198
 30
0.0
 10
175.4248838269
 20
146.8325472817
 30
0.0
 10
175.2005000454
 20
146.9767777324
 30
0.0
 10
175.102896172
 20
147.0574273724
 30
0.0
  0
SPLINE
  5
395
100
AcDbEntity
  8
0
100
AcDbSpline
 62
7
  6
CONTINUOUS
 70
0
 71
3
 72
17
 73
13
 74
0
 42
0.0000001
 43
0.0000001
 44
0.0000000001
 40
0.0
 40
0.0
 40
0.0
 40
0.0
 40
0.0484528421
 40
0.0975567437
 40
0.1479139118
 40
0.2000369722
 40
0.3108637964
 40
0.4319943147
 40
0.5633701706
 40
0.7035468873
 40
0.8500974862
 40
1.0
 40
1.0
 40
1.0
 40
1.0
 10
172.8815382475
 20
155.50718998
 30
0.0
 10
172.8815376139
 20
155.4271519548
 30
0.0
 10
172.893961424
 20
155.2657362344
 30
0.0
 10
172.9494502663
 20
155.026907593
 30
0.0
 10
173.0411858479
 20
154.7929953441
 30
0.0
 10
173.2137915569
 20
154.4847340828
 30
0.0
 10
173.5205187374
 20
154.1233370951
 30
0.0
 10
173.9989903664
 20
153.7552430515
 30
0.0
 10
174.5771257965
 20
153.4547036677
 30
0.0
 10
175.2334543548
 20
153.2321484741
 30
0.0
 10
175.9436299004
 20
153.0952663873
 30
0.0
 10
176.4339150058
 20
153.0645970635
 30
0.0
 10
176.6815351794
 20
153.0645970635
 30
0.0
  0
SPLINE
  5
396
100
AcDbEntity
  8
0
100
AcDbSpline
 62
7
  6
CONTINUOUS
 70
0
 71
3
 72
9
 73
5
 74
0
 42
0.0000001
 43
0.0000001
 44
0.0000000001
 40
0.0
 40
0.0
 40
0.0
 40
0.0
 40
0.5060797547
 40
1.0
 40
1.0
 40
1.0
 40
1.0
 10
176.6815351794
 20
152.1699950985
 30
0.0
 10
176.9519631879
 20
152.1699950985
 30
0.0
 10
177.4868960895
 20
152.2046783398
 30
0.0
 10
178.0127393108
 20
152.3100390351
 30
0.0
 10
178.2670594858
 20
152.3806119932
 30
0.0
  0
SPLINE
  5
397
100
AcDbEntity
  8
0
100
AcDbSpline
 62
7
  6
CONTINUOUS
 70
0
 71
3
 72
15
 73
11
 74
0
 42
0.0000001
 43
0.0000001
 44
0.0000000001
 40
0.0
 40
0.0
 40
0.0
 40
0.0
 40
0.1503886061
 40
0.2940953782
 40
0.4300619197
 40
0.557746105
 40
0.6772654947
 40
0.7895192571
 40
0.8962568286
 40
1.0
 40
1.0
 40
1.0
 40
1.0
 10
178.2670594858
 20
152.3806119932
 30
0.0
 10
178.4416248586
 20
152.4290532729
 30
0.0
 10
178.7785486224
 20
152.5410772952
 30
0.0
 10
179.2500709197
 20
152.7583781686
 30
0.0
 10
179.6684550469
 20
153.0174500085
 30
0.0
 10
180.0249506351
 20
153.3132658962
 30
0.0
 10
180.3119755824
 20
153.6402020034
 30
0.0
 10
180.5229464762
 20
153.9921342377
 30
0.0
 10
180.6522956362
 20
154.3617448348
 30
0.0
 10
180.6815274556
 20
154.6161739194
 30
0.0
 10
180.6815273307
 20
154.7411455413
 30
0.0
  0
SPLINE
  5
398
100
AcDbEntity
  8
0
100
AcDbSpline
 62
7
  6
CONTINUOUS
 70
0
 71
3
 72
17
 73
13
 74
0
 42
0.0000001
 43
0.0000001
 44
0.0000000001
 40
0.0
 40
0.0
 40
0.0
 40
0.0
 40
0.0488859068
 40
0.0979798433
 40
0.1479903653
 40
0.1995509579
 40
0.3090329171
 40
0.4291577333
 40
0.5602462608
 40
0.7009247862
 40
0.8486117487
 40
1.0
 40
1.0
 40
1.0
 40
1.0
 10
173.2886564049
 20
156.5252485594
 30
0.0
 10
173.2801337642
 20
156.4508315901
 30
0.0
 10
173.2748998357
 20
156.300037145
 30
0.0
 10
173.3035293374
 20
156.0741787389
 30
0.0
 10
173.368248194
 20
155.8516174356
 30
0.0
 10
173.5040127703
 20
155.5569808437
 30
0.0
 10
173.7657341685
 20
155.2082251277
 30
0.0
 10
174.1927762594
 20
154.8514510156
 30
0.0
 10
174.7207635687
 20
154.5590153844
 30
0.0
 10
175.328280003
 20
154.3418097839
 30
0.0
 10
175.9907329947
 20
154.2079278341
 30
0.0
 10
176.4495767915
 20
154.1779072688
 30
0.0
 10
176.6815351794
 20
154.1779072688
 30
0.0
  0
SPLINE
  5
399
100
AcDbEntity
  8
0
100
AcDbSpline
 62
7
  6
CONTINUOUS
 70
0
 71
3
 72
17
 73
13
 74
0
 42
0.0000001
 43
0.0000001
 44
0.0000000001
 40
0.0
 40
0.0
 40
0.0
 40
0.0
 40
0.1498997029
 40
0.2964493767
 40
0.4366263979
 40
0.5680033877
 40
0.689135216
 40
0.7999629772
 40
0.8520863386
 40
0.9024435421
 40
0.9515473809
 40
1.0
 40
1.0
 40
1.0
 40
1.0
 10
176.6815351794
 20
152.2985526204
 30
0.0
 10
176.4339196567
 20
152.2985526204
 30
0.0
 10
175.9436407835
 20
152.3292211033
 30
0.0
 10
175.2334704384
 20
152.4660997751
 30
0.0
 10
174.5771402545
 20
152.6886528802
 30
0.0
 10
173.998999915
 20
152.9891924845
 30
0.0
 10
173.5205222644
 20
153.3572883155
 30
0.0
 10
173.2137932087
 20
153.7186889818
 30
0.0
 10
173.0411846887
 20
154.0269512678
 30
0.0
 10
172.949451506
 20
154.2608648006
 30
0.0
 10
172.8939599192
 20
154.4996924926
 30
0.0
 10
172.881538881
 20
154.6611078832
 30
0.0
 10
172.8815382475
 20
154.7411455376
 30
0.0
  0
SPLINE
  5
39A
100
AcDbEntity
  8
0
100
AcDbSpline
 62
7
  6
CONTINUOUS
 70
0
 71
3
 72
17
 73
13
 74
0
 42
0.0000001
 43
0.0000001
 44
0.0000000001
 40
0.0
 40
0.0
 40
0.0
 40
0.0
 40
0.1498997029
 40
0.2964493767
 40
0.4366263979
 40
0.5680033877
 40
0.689135216
 40
0.7999629772
 40
0.8520863386
 40
0.9024435421
 40
0.9515473809
 40
1.0
 40
1.0
 40
1.0
 40
1.0
 10
176.6815351794
 20
153.0645970635
 30
0.0
 10
176.929150702
 20
153.0645970635
 30
0.0
 10
177.4194295753
 20
153.0952655464
 30
0.0
 10
178.1295999204
 20
153.2321442182
 30
0.0
 10
178.7859301043
 20
153.4546973233
 30
0.0
 10
179.3640704438
 20
153.7552369276
 30
0.0
 10
179.8425480943
 20
154.1233327586
 30
0.0
 10
180.1492771501
 20
154.4847334249
 30
0.0
 10
180.3218856701
 20
154.7929957109
 30
0.0
 10
180.4136188527
 20
155.0269092438
 30
0.0
 10
180.4691104396
 20
155.2657369357
 30
0.0
 10
180.4815314777
 20
155.4271523263
 30
0.0
 10
180.4815321113
 20
155.5071899807
 30
0.0
  0
SPLINE
  5
39B
100
AcDbEntity
  8
0
100
AcDbSpline
 62
7
  6
CONTINUOUS
 70
0
 71
3
 72
17
 73
13
 74
0
 42
0.0000001
 43
0.0000001
 44
0.0000000001
 40
0.0
 40
0.0
 40
0.0
 40
0.0
 40
0.0484528421
 40
0.0975567437
 40
0.1479139118
 40
0.2000369722
 40
0.3108637964
 40
0.4319943147
 40
0.5633701706
 40
0.7035468873
 40
0.8500974862
 40
1.0
 40
1.0
 40
1.0
 40
1.0
 10
180.4815321113
 20
154.7411455369
 30
0.0
 10
180.4815327448
 20
154.6611075117
 30
0.0
 10
180.4691089347
 20
154.4996917913
 30
0.0
 10
180.4136200925
 20
154.2608631498
 30
0.0
 10
180.3218845109
 20
154.026950901
 30
0.0
 10
180.1492788019
 20
153.7186896396
 30
0.0
 10
179.8425516214
 20
153.357292652
 30
0.0
 10
179.3640799924
 20
152.9891986083
 30
0.0
 10
178.7859445623
 20
152.6886592246
 30
0.0
 10
178.129616004
 20
152.466104031
 30
0.0
 10
177.4194404583
 20
152.3292219442
 30
0.0
 10
176.9291553529
 20
152.2985526204
 30
0.0
 10
176.6815351794
 20
152.2985526204
 30
0.0
  0
SPLINE
  5
39C
100
AcDbEntity
  8
0
100
AcDbSpline
 62
7
  6
CONTINUOUS
 70
0
 71
3
 72
17
 73
13
 74
0
 42
0.0000001
 43
0.0000001
 44
0.0000000001
 40
0.0
 40
0.0
 40
0.0
 40
0.0
 40
0.1513872986
 40
0.2990741751
 40
0.4397513362
 40
0.5708413165
 40
0.6909672711
 40
0.8004496885
 40
0.8520102834
 40
0.9020206988
 40
0.9511144047
 40
1.0
 40
1.0
 40
1.0
 40
1.0
 10
176.6815351794
 20
153.2574333464
 30
0.0
 10
176.442900987
 20
153.2574333464
 30
0.0
 10
175.970850246
 20
153.2883178178
 30
0.0
 10
175.2893311518
 20
153.4260528637
 30
0.0
 10
174.6643259246
 20
153.6495096836
 30
0.0
 10
174.1211374347
 20
153.9503637997
 30
0.0
 10
173.6817985089
 20
154.3174114446
 30
0.0
 10
173.4125421264
 20
154.6762092435
 30
0.0
 10
173.2728695634
 20
154.9793280844
 30
0.0
 10
173.2062875613
 20
155.2082956852
 30
0.0
 10
173.1768356714
 20
155.4406549185
 30
0.0
 10
173.182219186
 20
155.5957893908
 30
0.0
 10
173.1909873409
 20
155.6723480613
 30
0.0
  0
SPLINE
  5
39D
100
AcDbEntity
  8
0
100
AcDbSpline
 62
7
  6
CONTINUOUS
 70
0
 71
3
 72
25
 73
21
 74
0
 42
0.0000001
 43
0.0000001
 44
0.0000000001
 40
0.0
 40
0.0
 40
0.0
 40
0.0
 40
0.0749679427
 40
0.1482603671
 40
0.2183665135
 40
0.2840696194
 40
0.3446495445
 40
0.4000765169
 40
0.4512099921
 40
0.475767775
 40
0.5
 40
0.524232225
 40
0.5487900079
 40
0.5999234831
 40
0.6553504555
 40
0.7159303806
 40
0.7816334865
 40
0.8517396329
 40
0.9250320573
 40
1.0
 40
1.0
 40
1.0
 40
1.0
 10
176.6815351794
 20
155.6527470801
 30
0.0
 10
176.5210576443
 20
155.6527470801
 30
0.0
 10
176.2033118892
 20
155.6726234193
 30
0.0
 10
175.7430565623
 20
155.7613294151
 30
0.0
 10
175.3176916345
 20
155.9055817861
 30
0.0
 10
174.9430240356
 20
156.1003087999
 30
0.0
 10
174.6328776124
 20
156.3390407637
 30
0.0
 10
174.3991830204
 20
156.6139947408
 30
0.0
 10
174.2753570304
 20
156.870231065
 30
0.0
 10
174.2268629453
 20
157.0792980691
 30
0.0
 10
174.2147884497
 20
157.2357657363
 30
0.0
 10
174.2268629453
 20
157.3922334034
 30
0.0
 10
174.2753570304
 20
157.6013004076
 30
0.0
 10
174.3991830204
 20
157.8575367317
 30
0.0
 10
174.6328776124
 20
158.1324907088
 30
0.0
 10
174.9430240356
 20
158.3712226727
 30
0.0
 10
175.3176916345
 20
158.5659496864
 30
0.0
 10
175.7430565623
 20
158.7102020575
 30
0.0
 10
176.2033118892
 20
158.7989080532
 30
0.0
 10
176.5210576443
 20
158.8187843925
 30
0.0
 10
176.6815351794
 20
158.8187843925
 30
0.0
  0
SPLINE
  5
39E
100
AcDbEntity
  8
0
100
AcDbSpline
 62
7
  6
CONTINUOUS
 70
0
 71
3
 72
17
 73
13
 74
0
 42
0.0000001
 43
0.0000001
 44
0.0000000001
 40
0.0
 40
0.0
 40
0.0
 40
0.0
 40
0.0488859215
 40
0.0979797918
 40
0.1479901622
 40
0.1995505658
 40
0.3090321135
 40
0.4291567865
 40
0.5602455705
 40
0.7009223521
 40
0.8486100111
 40
1.0
 40
1.0
 40
1.0
 40
1.0
 10
180.1720828514
 20
155.6723480575
 30
0.0
 10
180.1808505432
 20
155.5957888117
 30
0.0
 10
180.1862361768
 20
155.4406536066
 30
0.0
 10
180.1567814037
 20
155.2082938962
 30
0.0
 10
180.0902005781
 20
154.9793262244
 30
0.0
 10
179.9505285717
 20
154.6762088964
 30
0.0
 10
179.6812744207
 20
154.3174141975
 30
0.0
 10
179.2419402885
 20
153.9503691615
 30
0.0
 10
178.6987567618
 20
153.6495154042
 30
0.0
 10
178.0737534039
 20
153.4260569747
 30
0.0
 10
177.3922299294
 20
153.2883185707
 30
0.0
 10
176.9201736269
 20
153.2574333464
 30
0.0
 10
176.6815351794
 20
153.2574333464
 30
0.0
  0
SPLINE
  5
39F
100
AcDbEntity
  8
0
100
AcDbSpline
 62
7
  6
CONTINUOUS
 70
0
 71
3
 72
17
 73
13
 74
0
 42
0.0000001
 43
0.0000001
 44
0.0000000001
 40
0.0
 40
0.0
 40
0.0
 40
0.0
 40
0.1513882513
 40
0.2990752138
 40
0.4397537392
 40
0.5708422667
 40
0.6909670829
 40
0.8004490421
 40
0.8520096347
 40
0.9020201567
 40
0.9511140932
 40
1.0
 40
1.0
 40
1.0
 40
1.0
 10
176.6815351794
 20
154.1779072688
 30
0.0
 10
176.9134935673
 20
154.1779072688
 30
0.0
 10
177.372337364
 20
154.2079278341
 30
0.0
 10
178.0347903557
 20
154.3418097839
 30
0.0
 10
178.6423067901
 20
154.5590153844
 30
0.0
 10
179.1702940993
 20
154.8514510156
 30
0.0
 10
179.5973361903
 20
155.2082251277
 30
0.0
 10
179.8590575884
 20
155.5569808437
 30
0.0
 10
179.9948221648
 20
155.8516174356
 30
0.0
 10
180.0595410214
 20
156.0741787389
 30
0.0
 10
180.088170523
 20
156.300037145
 30
0.0
 10
180.0829365945
 20
156.4508315901
 30
0.0
 10
180.0744139539
 20
156.5252485594
 30
0.0
  0
SPLINE
  5
3A0
100
AcDbEntity
  8
0
100
AcDbSpline
 62
7
  6
CONTINUOUS
 70
0
 71
3
 72
28
 73
24
 74
0
 42
0.0000001
 43
0.0000001
 44
0.0000000001
 40
0.0
 40
0.0
 40
0.0
 40
0.0
 40
0.0749804455
 40
0.1482847768
 40
0.218401533
 40
0.2841118015
 40
0.3446953343
 40
0.4001239586
 40
0.4512596804
 40
0.4758199071
 40
0.5000558431
 40
0.5242931484
 40
0.5488574861
 40
0.6000074068
 40
0.6554497362
 40
0.7160290794
 40
0.7817213589
 40
0.8517761823
 40
0.8881043675
 40
0.9250530485
 40
0.9624358691
 40
0.9811993284
 40
1.0
 40
1.0
 40
1.0
 40
1.0
 10
176.6815351794
 20
155.6527470801
 30
0.0
 10
176.8420524024
 20
155.6527470801
 30
0.0
 10
177.1598762542
 20
155.6726328931
 30
0.0
 10
177.6202389819
 20
155.7613820365
 30
0.0
 10
178.0456868369
 20
155.9057042094
 30
0.0
 10
178.4203988226
 20
156.1005224633
 30
0.0
 10
178.7305409344
 20
156.3393589728
 30
0.0
 10
178.9641797983
 20
156.6144238806
 30
0.0
 10
179.0879084526
 20
156.8707519442
 30
0.0
 10
179.1362976001
 20
157.0798801262
 30
0.0
 10
179.1482808064
 20
157.2363921294
 30
0.0
 10
179.136102038
 20
157.3928977948
 30
0.0
 10
179.0874519975
 20
157.6020078616
 30
0.0
 10
178.9634126329
 20
157.8582618786
 30
0.0
 10
178.7294733979
 20
158.1331214747
 30
0.0
 10
178.4192275566
 20
158.3718052103
 30
0.0
 10
178.0445323199
 20
158.5661901602
 30
0.0
 10
177.6944064326
 20
158.6850175112
 30
0.0
 10
177.3951535781
 20
158.7535509607
 30
0.0
 10
177.1610910043
 20
158.7914486291
 30
0.0
 10
176.9624428661
 20
158.8089861259
 30
0.0
 10
176.8022171212
 20
158.8177136501
 30
0.0
 10
176.7217834277
 20
158.8187843925
 30
0.0
 10
176.6815351794
 20
158.8187843925
 30
0.0
  0
SPLINE
  5
3A1
100
AcDbEntity
  8
0
100
AcDbSpline
 62
7
  6
CONTINUOUS
 70
0
 71
3
 72
15
 73
11
 74
0
 42
0.0000001
 43
0.0000001
 44
0.0000000001
 40
0.0
 40
0.0
 40
0.0
 40
0.0
 40
0.1035911933
 40
0.2102120795
 40
0.3224056409
 40
0.4419279866
 40
0.5696703785
 40
0.7057293934
 40
0.8495358777
 40
1.0
 40
1.0
 40
1.0
 40
1.0
 10
172.6815430281
 20
154.7411455331
 30
0.0
 10
172.6815431539
 20
154.6153192297
 30
0.0
 10
172.7111883258
 20
154.3590906172
 30
0.0
 10
172.8423287855
 20
153.987047808
 30
0.0
 10
173.0561413622
 20
153.6330628379
 30
0.0
 10
173.3469073122
 20
153.3045808085
 30
0.0
 10
173.7078750551
 20
153.007822045
 30
0.0
 10
174.1312753647
 20
152.7484977535
 30
0.0
 10
174.6081425129
 20
152.5317047919
 30
0.0
 10
174.9486823739
 20
152.4205248557
 30
0.0
 10
175.1250576172
 20
152.3726390117
 30
0.0
  0
SPLINE
  5
3A2
100
AcDbEntity
  8
0
100
AcDbSpline
 62
7
  6
CONTINUOUS
 70
0
 71
3
 72
9
 73
5
 74
0
 42
0.0000001
 43
0.0000001
 44
0.0000000001
 40
0.0
 40
0.0
 40
0.0
 40
0.0
 40
0.4941502045
 40
1.0
 40
1.0
 40
1.0
 40
1.0
 10
175.1250576172
 20
152.3726390117
 30
0.0
 10
175.3751092364
 20
152.3047500461
 30
0.0
 10
175.8914127483
 20
152.203380419
 30
0.0
 10
176.4162968993
 20
152.1699950985
 30
0.0
 10
176.6815351794
 20
152.1699950985
 30
0.0
  0
SPLINE
  5
3A3
100
AcDbEntity
  8
0
100
AcDbSpline
 62
7
  6
CONTINUOUS
 70
0
 71
3
 72
14
 73
10
 74
0
 42
0.0000001
 43
0.0000001
 44
0.0000000001
 40
0.0
 40
0.0
 40
0.0
 40
0.0
 40
0.0889061485
 40
0.1861977234
 40
0.295517732
 40
0.4179424053
 40
0.5524970613
 40
0.6967491031
 40
1.0
 40
1.0
 40
1.0
 40
1.0
 10
177.0315351794
 20
158.0092191889
 30
0.0
 10
177.0315351794
 20
157.9902197502
 30
0.0
 10
177.0387655065
 20
157.9502121313
 30
0.0
 10
177.0687749232
 20
157.8937856287
 30
0.0
 10
177.116187933
 20
157.8411124437
 30
0.0
 10
177.1790165916
 20
157.7937885274
 30
0.0
 10
177.2549638457
 20
157.7533328641
 30
0.0
 10
177.3717306617
 20
157.709777861
 30
0.0
 10
177.4669005156
 20
157.6925261982
 30
0.0
 10
177.5315351794
 20
157.6878253841
 30
0.0
  0
SPLINE
  5
3A4
100
AcDbEntity
  8
0
100
AcDbSpline
 62
7
  6
CONTINUOUS
 70
0
 71
3
 72
14
 73
10
 74
0
 42
0.0000001
 43
0.0000001
 44
0.0000000001
 40
0.0
 40
0.0
 40
0.0
 40
0.0
 40
0.3032359377
 40
0.4474898985
 40
0.5820422622
 40
0.7044618361
 40
0.8137949464
 40
0.9110731612
 40
1.0
 40
1.0
 40
1.0
 40
1.0
 10
175.8315351794
 20
157.6878253841
 30
0.0
 10
175.8961667397
 20
157.6925259724
 30
0.0
 10
175.9913283007
 20
157.709792404
 30
0.0
 10
176.1081048589
 20
157.753316221
 30
0.0
 10
176.184040158
 20
157.7937904784
 30
0.0
 10
176.2468840571
 20
157.8410973225
 30
0.0
 10
176.2942824933
 20
157.8937821008
 30
0.0
 10
176.3243076301
 20
157.950204183
 30
0.0
 10
176.3315351794
 20
157.9902153037
 30
0.0
 10
176.3315351794
 20
158.0092191889
 30
0.0
  0
SPLINE
  5
3A5
100
AcDbEntity
  8
0
100
AcDbSpline
 62
7
  6
CONTINUOUS
 70
0
 71
3
 72
18
 73
14
 74
0
 42
0.0000001
 43
0.0000001
 44
0.0000000001
 40
0.0
 40
0.0
 40
0.0
 40
0.0
 40
0.0099320878
 40
0.0261041185
 40
0.0505831147
 40
0.0837304404
 40
0.1254755035
 40
0.1755369792
 40
0.2988005023
 40
0.4490474582
 40
0.620501341
 40
0.8065885845
 40
1.0
 40
1.0
 40
1.0
 40
1.0
 10
116.8315351794
 20
164.2084322329
 30
0.0
 10
116.8315351794
 20
164.210104684
 30
0.0
 10
116.8285982449
 20
164.214144867
 30
0.0
 10
116.8207192491
 20
164.217424621
 30
0.0
 10
116.8086997586
 20
164.2207194573
 30
0.0
 10
116.7921496923
 20
164.2233107413
 30
0.0
 10
116.7712132035
 20
164.2254502178
 30
0.0
 10
116.7350546214
 20
164.2276252777
 30
0.0
 10
116.6805538672
 20
164.228462785
 30
0.0
 10
116.6056325668
 20
164.2270174481
 30
0.0
 10
116.5202062829
 20
164.223137384
 30
0.0
 10
116.4276322092
 20
164.2169645422
 30
0.0
 10
116.3639576752
 20
164.2115104558
 30
0.0
 10
116.3315351794
 20
164.2084322329
 30
0.0
  0
SPLINE
  5
3A6
100
AcDbEntity
  8
0
100
AcDbSpline
 62
7
  6
CONTINUOUS
 70
0
 71
3
 72
18
 73
14
 74
0
 42
0.0000001
 43
0.0000001
 44
0.0000000001
 40
0.0
 40
0.0
 40
0.0
 40
0.0
 40
0.0099312242
 40
0.0261079126
 40
0.0505834213
 40
0.0837514862
 40
0.1254952542
 40
0.1755577776
 40
0.2988277493
 40
0.4490778032
 40
0.6205045666
 40
0.8066393207
 40
1.0
 40
1.0
 40
1.0
 40
1.0
 10
117.5315351794
 20
164.2084322329
 30
0.0
 10
117.5315351794
 20
164.2101045183
 30
0.0
 10
117.5344790626
 20
164.2141419104
 30
0.0
 10
117.5423557468
 20
164.2174200886
 30
0.0
 10
117.5543798026
 20
164.2207169686
 30
0.0
 10
117.5709335604
 20
164.2232983713
 30
0.0
 10
117.5918729784
 20
164.2254397193
 30
0.0
 10
117.6280317293
 20
164.2276212434
 30
0.0
 10
117.6825335678
 20
164.2284755334
 30
0.0
 10
117.757450759
 20
164.2270048266
 30
0.0
 10
117.8428796005
 20
164.223124221
 30
0.0
 10
117.9354481752
 20
164.2169616889
 30
0.0
 10
117.999121583
 20
164.2115096108
 30
0.0
 10
118.0315351794
 20
164.2084322329
 30
0.0
  0
SPLINE
  5
3A7
100
AcDbEntity
  8
0
100
AcDbSpline
 62
7
  6
CONTINUOUS
 70
0
 71
3
 72
18
 73
14
 74
0
 42
0.0000001
 43
0.0000001
 44
0.0000000001
 40
0.0
 40
0.0
 40
0.0
 40
0.0
 40
0.0099320878
 40
0.0261041185
 40
0.0505831147
 40
0.0837304404
 40
0.1254755035
 40
0.1755369792
 40
0.2988005023
 40
0.4490474582
 40
0.620501341
 40
0.8065885845
 40
1.0
 40
1.0
 40
1.0
 40
1.0
 10
79.8315351794
 20
164.2084322329
 30
0.0
 10
79.8315351794
 20
164.210104684
 30
0.0
 10
79.8285982449
 20
164.214144867
 30
0.0
 10
79.8207192491
 20
164.217424621
 30
0.0
 10
79.8086997586
 20
164.2207194573
 30
0.0
 10
79.7921496923
 20
164.2233107413
 30
0.0
 10
79.7712132035
 20
164.2254502178
 30
0.0
 10
79.7350546214
 20
164.2276252777
 30
0.0
 10
79.6805538672
 20
164.228462785
 30
0.0
 10
79.6056325668
 20
164.2270174481
 30
0.0
 10
79.5202062829
 20
164.223137384
 30
0.0
 10
79.4276322092
 20
164.2169645422
 30
0.0
 10
79.3639576752
 20
164.2115104558
 30
0.0
 10
79.3315351794
 20
164.2084322329
 30
0.0
  0
SPLINE
  5
3A8
100
AcDbEntity
  8
0
100
AcDbSpline
 62
7
  6
CONTINUOUS
 70
0
 71
3
 72
18
 73
14
 74
0
 42
0.0000001
 43
0.0000001
 44
0.0000000001
 40
0.0
 40
0.0
 40
0.0
 40
0.0
 40
0.0099312242
 40
0.0261079126
 40
0.0505834213
 40
0.0837514862
 40
0.1254952542
 40
0.1755577776
 40
0.2988277493
 40
0.4490778032
 40
0.6205045666
 40
0.8066393207
 40
1.0
 40
1.0
 40
1.0
 40
1.0
 10
80.5315351794
 20
164.2084322329
 30
0.0
 10
80.5315351794
 20
164.2101045183
 30
0.0
 10
80.5344790626
 20
164.2141419104
 30
0.0
 10
80.5423557468
 20
164.2174200886
 30
0.0
 10
80.5543798026
 20
164.2207169686
 30
0.0
 10
80.5709335604
 20
164.2232983713
 30
0.0
 10
80.5918729784
 20
164.2254397193
 30
0.0
 10
80.6280317293
 20
164.2276212434
 30
0.0
 10
80.6825335678
 20
164.2284755334
 30
0.0
 10
80.757450759
 20
164.2270048266
 30
0.0
 10
80.8428796005
 20
164.223124221
 30
0.0
 10
80.9354481752
 20
164.2169616889
 30
0.0
 10
80.999121583
 20
164.2115096108
 30
0.0
 10
81.0315351794
 20
164.2084322329
 30
0.0
  0
SPLINE
  5
3A9
100
AcDbEntity
  8
0
100
AcDbSpline
 62
7
  6
CONTINUOUS
 70
0
 71
3
 72
18
 73
14
 74
0
 42
0.0000001
 43
0.0000001
 44
0.0000000001
 40
0.0
 40
0.0
 40
0.0
 40
0.0
 40
0.0099320878
 40
0.0261041185
 40
0.0505831147
 40
0.0837304404
 40
0.1254755035
 40
0.1755369792
 40
0.2988005023
 40
0.4490474582
 40
0.620501341
 40
0.8065885845
 40
1.0
 40
1.0
 40
1.0
 40
1.0
 10
187.8315351794
 20
164.2084322329
 30
0.0
 10
187.8315351794
 20
164.210104684
 30
0.0
 10
187.8285982449
 20
164.214144867
 30
0.0
 10
187.8207192491
 20
164.217424621
 30
0.0
 10
187.8086997586
 20
164.2207194573
 30
0.0
 10
187.7921496923
 20
164.2233107413
 30
0.0
 10
187.7712132035
 20
164.2254502178
 30
0.0
 10
187.7350546214
 20
164.2276252777
 30
0.0
 10
187.6805538672
 20
164.228462785
 30
0.0
 10
187.6056325668
 20
164.2270174481
 30
0.0
 10
187.5202062829
 20
164.223137384
 30
0.0
 10
187.4276322092
 20
164.2169645422
 30
0.0
 10
187.3639576752
 20
164.2115104558
 30
0.0
 10
187.3315351794
 20
164.2084322329
 30
0.0
  0
SPLINE
  5
3AA
100
AcDbEntity
  8
0
100
AcDbSpline
 62
7
  6
CONTINUOUS
 70
0
 71
3
 72
18
 73
14
 74
0
 42
0.0000001
 43
0.0000001
 44
0.0000000001
 40
0.0
 40
0.0
 40
0.0
 40
0.0
 40
0.0099312242
 40
0.0261079126
 40
0.0505834213
 40
0.0837514862
 40
0.1254952542
 40
0.1755577776
 40
0.2988277493
 40
0.4490778032
 40
0.6205045666
 40
0.8066393207
 40
1.0
 40
1.0
 40
1.0
 40
1.0
 10
188.5315351794
 20
164.2084322329
 30
0.0
 10
188.5315351794
 20
164.2101045183
 30
0.0
 10
188.5344790626
 20
164.2141419104
 30
0.0
 10
188.5423557468
 20
164.2174200886
 30
0.0
 10
188.5543798026
 20
164.2207169686
 30
0.0
 10
188.5709335604
 20
164.2232983713
 30
0.0
 10
188.5918729784
 20
164.2254397193
 30
0.0
 10
188.6280317293
 20
164.2276212434
 30
0.0
 10
188.6825335678
 20
164.2284755334
 30
0.0
 10
188.757450759
 20
164.2270048266
 30
0.0
 10
188.8428796005
 20
164.223124221
 30
0.0
 10
188.9354481752
 20
164.2169616889
 30
0.0
 10
188.999121583
 20
164.2115096108
 30
0.0
 10
189.0315351794
 20
164.2084322329
 30
0.0
  0
SPLINE
  5
3AB
100
AcDbEntity
  8
0
100
AcDbSpline
 62
7
  6
CONTINUOUS
 70
0
 71
3
 72
9
 73
5
 74
0
 42
0.0000001
 43
0.0000001
 44
0.0000000001
 40
0.0
 40
0.0
 40
0.0
 40
0.0
 40
0.5069188751
 40
1.0
 40
1.0
 40
1.0
 40
1.0
 10
181.4757638134
 20
149.5055398815
 30
0.0
 10
181.6491853066
 20
149.5055398815
 30
0.0
 10
181.9921652392
 20
149.5395266875
 30
0.0
 10
182.3214913461
 20
149.642569867
 30
0.0
 10
182.4757638134
 20
149.7108008714
 30
0.0
  0
SPLINE
  5
3AC
100
AcDbEntity
  8
0
100
AcDbSpline
 62
7
  6
CONTINUOUS
 70
0
 71
3
 72
13
 73
9
 74
0
 42
0.0000001
 43
0.0000001
 44
0.0000000001
 40
0.0
 40
0.0
 40
0.0
 40
0.0
 40
0.1430268154
 40
0.2840311678
 40
0.4871521054
 40
0.6757052842
 40
0.8465183815
 40
1.0
 40
1.0
 40
1.0
 40
1.0
 10
171.4815351794
 20
154.6799801395
 30
0.0
 10
171.3734677032
 20
154.6799801395
 30
0.0
 10
171.1586803513
 20
154.6690751376
 30
0.0
 10
170.7943795423
 20
154.6127164497
 30
0.0
 10
170.4063533557
 20
154.4985628673
 30
0.0
 10
170.024226389
 20
154.3063877143
 30
0.0
 10
169.7201929328
 20
154.060783702
 30
0.0
 10
169.5746653978
 20
153.8582039279
 30
0.0
 10
169.5241371927
 20
153.7538237868
 30
0.0
  0
SPLINE
  5
3AD
100
AcDbEntity
  8
0
100
AcDbSpline
 62
7
  6
CONTINUOUS
 70
0
 71
3
 72
14
 73
10
 74
0
 42
0.0000001
 43
0.0000001
 44
0.0000000001
 40
0.0
 40
0.0
 40
0.0
 40
0.0
 40
0.2532760744
 40
0.3833719724
 40
0.5132666719
 40
0.6412361794
 40
0.7657355925
 40
0.8855534297
 40
1.0
 40
1.0
 40
1.0
 40
1.0
 10
185.1815351794
 20
150.9074985145
 30
0.0
 10
185.7184402727
 20
151.144958733
 30
0.0
 10
186.5933580695
 20
151.3772759617
 30
0.0
 10
187.7835614882
 20
151.4406520948
 30
0.0
 10
188.682811023
 20
151.3643747868
 30
0.0
 10
189.5495754768
 20
151.1657924114
 30
0.0
 10
190.3566735452
 20
150.8510302045
 30
0.0
 10
191.077806225
 20
150.4300058693
 30
0.0
 10
191.495951167
 20
150.0781162383
 30
0.0
 10
191.6815351794
 20
149.888562103
 30
0.0
  0
SPLINE
  5
3AE
100
AcDbEntity
  8
0
100
AcDbSpline
 62
7
  6
CONTINUOUS
 70
0
 71
3
 72
9
 73
5
 74
0
 42
0.0000001
 43
0.0000001
 44
0.0000000001
 40
0.0
 40
0.0
 40
0.0
 40
0.0
 40
0.2549976671
 40
1.0
 40
1.0
 40
1.0
 40
1.0
 10
181.4757638134
 20
157.9850356408
 30
0.0
 10
181.5193217431
 20
157.9850356408
 30
0.0
 10
181.6899753639
 20
157.9935351616
 30
0.0
 10
181.8593795552
 20
158.0361921756
 30
0.0
 10
181.9757638134
 20
158.0876661358
 30
0.0
  0
SPLINE
  5
3AF
100
AcDbEntity
  8
0
100
AcDbSpline
 62
7
  6
CONTINUOUS
 70
0
 71
3
 72
14
 73
10
 74
0
 42
0.0000001
 43
0.0000001
 44
0.0000000001
 40
0.0
 40
0.0
 40
0.0
 40
0.0
 40
0.2961738361
 40
0.4365060348
 40
0.568029308
 40
0.6892958217
 40
0.8002498906
 40
0.9026088493
 40
1.0
 40
1.0
 40
1.0
 40
1.0
 10
171.4815351794
 20
152.8105953829
 30
0.0
 10
171.217902176
 20
152.8105953829
 30
0.0
 10
170.8264018645
 20
152.8582259362
 30
0.0
 10
170.3463207097
 20
153.0210399629
 30
0.0
 10
170.0343766161
 20
153.183163407
 30
0.0
 10
169.7762308688
 20
153.3818282097
 30
0.0
 10
169.5817055782
 20
153.6108817119
 30
0.0
 10
169.4596758024
 20
153.8627697109
 30
0.0
 10
169.4315508275
 20
154.0416192656
 30
0.0
 10
169.4315505074
 20
154.1283099804
 30
0.0
  0
SPLINE
  5
3B0
100
AcDbEntity
  8
0
100
AcDbSpline
 62
7
  6
CONTINUOUS
 70
0
 71
3
 72
14
 73
10
 74
0
 42
0.0000001
 43
0.0000001
 44
0.0000000001
 40
0.0
 40
0.0
 40
0.0
 40
0.0
 40
0.2532760744
 40
0.3833719724
 40
0.5132666719
 40
0.6412361794
 40
0.7657355925
 40
0.8855534297
 40
1.0
 40
1.0
 40
1.0
 40
1.0
 10
184.6815351794
 20
159.2843637789
 30
0.0
 10
185.3258212914
 20
159.5693160411
 30
0.0
 10
186.3757226475
 20
159.8480967155
 30
0.0
 10
187.8039667499
 20
159.9241480752
 30
0.0
 10
188.8830661917
 20
159.8326153056
 30
0.0
 10
189.9231835363
 20
159.5943164552
 30
0.0
 10
190.8917012184
 20
159.2166018069
 30
0.0
 10
191.7570604342
 20
158.7113726047
 30
0.0
 10
192.2588343645
 20
158.2891050475
 30
0.0
 10
192.4815351794
 20
158.0616400852
 30
0.0
  0
SPLINE
  5
3B1
100
AcDbEntity
  8
0
100
AcDbSpline
 62
7
  6
CONTINUOUS
 70
0
 71
3
 72
9
 73
5
 74
0
 42
0.0000001
 43
0.0000001
 44
0.0000000001
 40
0.0
 40
0.0
 40
0.0
 40
0.0
 40
0.2537786016
 40
1.0
 40
1.0
 40
1.0
 40
1.0
 10
192.9182994605
 20
156.90447817
 30
0.0
 10
192.9573460147
 20
156.8509909868
 30
0.0
 10
193.1064792372
 20
156.6368309863
 30
0.0
 10
193.2361240268
 20
156.4089906167
 30
0.0
 10
193.3196909041
 20
156.2331082616
 30
0.0
  0
SPLINE
  5
3B2
100
AcDbEntity
  8
0
100
AcDbSpline
 62
7
  6
CONTINUOUS
 70
0
 71
3
 72
9
 73
5
 74
0
 42
0.0000001
 43
0.0000001
 44
0.0000000001
 40
0.0
 40
0.0
 40
0.0
 40
0.0
 40
0.2531021972
 40
1.0
 40
1.0
 40
1.0
 40
1.0
 10
192.9182994605
 20
156.90447817
 30
0.0
 10
192.8836746298
 20
157.0029206465
 30
0.0
 10
192.7443375529
 20
157.3909712641
 30
0.0
 10
192.5961301133
 20
157.7758096723
 30
0.0
 10
192.4815351794
 20
158.0616400852
 30
0.0
  0
SPLINE
  5
3B3
100
AcDbEntity
  8
0
100
AcDbSpline
 62
7
  6
CONTINUOUS
 70
0
 71
3
 72
14
 73
10
 74
0
 42
0.0000001
 43
0.0000001
 44
0.0000000001
 40
0.0
 40
0.0
 40
0.0
 40
0.0
 40
0.1094218726
 40
0.225992631
 40
0.3498285324
 40
0.4794886866
 40
0.6124827151
 40
0.7457673035
 40
1.0
 40
1.0
 40
1.0
 40
1.0
 10
193.7783845199
 20
146.6000602723
 30
0.0
 10
193.8345051908
 20
146.4819436681
 30
0.0
 10
193.9875606986
 20
146.2545097565
 30
0.0
 10
194.3045330728
 20
145.9761551515
 30
0.0
 10
194.6964392321
 20
145.7639599343
 30
0.0
 10
195.1410687026
 20
145.6289104335
 30
0.0
 10
195.6145234133
 20
145.5778934365
 30
0.0
 10
196.2366272678
 20
145.6238189876
 30
0.0
 10
196.6877568468
 20
145.7861284694
 30
0.0
 10
196.9433449808
 20
145.9504173551
 30
0.0
  0
SPLINE
  5
3B4
100
AcDbEntity
  8
0
100
AcDbSpline
 62
7
  6
CONTINUOUS
 70
0
 71
3
 72
14
 73
10
 74
0
 42
0.0000001
 43
0.0000001
 44
0.0000000001
 40
0.0
 40
0.0
 40
0.0
 40
0.0
 40
0.0973901186
 40
0.1997472198
 40
0.3106992225
 40
0.4319645585
 40
0.5634885744
 40
0.7038220874
 40
1.0
 40
1.0
 40
1.0
 40
1.0
 10
169.4315505074
 20
154.1283099804
 30
0.0
 10
169.4315501874
 20
154.2149997537
 30
0.0
 10
169.4596755808
 20
154.3938466345
 30
0.0
 10
169.5817016766
 20
154.6457310822
 30
0.0
 10
169.7762225756
 20
154.8747822227
 30
0.0
 10
170.034364564
 20
155.0734480472
 30
0.0
 10
170.3463083319
 20
155.2355737196
 30
0.0
 10
170.8263932954
 20
155.3983931691
 30
0.0
 10
171.217898617
 20
155.4460245826
 30
0.0
 10
171.4815351794
 20
155.4460245826
 30
0.0
  0
SPLINE
  5
3B5
100
AcDbEntity
  8
0
100
AcDbSpline
 62
7
  6
CONTINUOUS
 70
0
 71
3
 72
9
 73
5
 74
0
 42
0.0000001
 43
0.0000001
 44
0.0000000001
 40
0.0
 40
0.0
 40
0.0
 40
0.0
 40
0.2446659068
 40
1.0
 40
1.0
 40
1.0
 40
1.0
 10
181.9757638134
 20
150.3742148196
 30
0.0
 10
181.9375378301
 20
150.3573083859
 30
0.0
 10
181.7774787476
 20
150.2970488109
 30
0.0
 10
181.604802136
 20
150.2715843246
 30
0.0
 10
181.4757638134
 20
150.2715843246
 30
0.0
  0
SPLINE
  5
3B6
100
AcDbEntity
  8
0
100
AcDbSpline
 62
7
  6
CONTINUOUS
 70
0
 71
3
 72
9
 73
5
 74
0
 42
0.0000001
 43
0.0000001
 44
0.0000000001
 40
0.0
 40
0.0
 40
0.0
 40
0.0
 40
0.5215433424
 40
1.0
 40
1.0
 40
1.0
 40
1.0
 10
192.4815351794
 20
150.3481887689
 30
0.0
 10
192.5538947126
 20
150.3808578146
 30
0.0
 10
192.6961430097
 20
150.4361800826
 30
0.0
 10
192.8458525516
 20
150.4691070228
 30
0.0
 10
192.9182994605
 20
150.4766020732
 30
0.0
  0
SPLINE
  5
3B7
100
AcDbEntity
  8
0
100
AcDbSpline
 62
7
  6
CONTINUOUS
 70
0
 71
3
 72
9
 73
5
 74
0
 42
0.0000001
 43
0.0000001
 44
0.0000000001
 40
0.0
 40
0.0
 40
0.0
 40
0.0
 40
0.2467225039
 40
1.0
 40
1.0
 40
1.0
 40
1.0
 10
193.309204344
 20
149.8271300023
 30
0.0
 10
193.2820853851
 20
149.8833177958
 30
0.0
 10
193.1668290038
 20
150.1084514029
 30
0.0
 10
193.030613341
 20
150.3227510297
 30
0.0
 10
192.9182994605
 20
150.4766020732
 30
0.0
  0
SPLINE
  5
3B8
100
AcDbEntity
  8
0
100
AcDbSpline
 62
7
  6
CONTINUOUS
 70
0
 71
3
 72
14
 73
10
 74
0
 42
0.0000001
 43
0.0000001
 44
0.0000000001
 40
0.0
 40
0.0
 40
0.0
 40
0.0
 40
0.114446565
 40
0.2342643976
 40
0.3587638078
 40
0.4867333142
 40
0.6166280144
 40
0.7467239151
 40
1.0
 40
1.0
 40
1.0
 40
1.0
 10
192.4815351794
 20
150.3481887689
 30
0.0
 10
192.2588343748
 20
150.5756537207
 30
0.0
 10
191.7570604683
 20
150.9979212626
 30
0.0
 10
190.8917012885
 20
151.503150455
 30
0.0
 10
189.9231836344
 20
151.8808651083
 30
0.0
 10
188.8830663024
 20
152.1191639721
 30
0.0
 10
187.8039668554
 20
152.210696758
 30
0.0
 10
186.3757227134
 20
152.1346454144
 30
0.0
 10
185.325821318
 20
151.8558647367
 30
0.0
 10
184.6815351794
 20
151.5709124627
 30
0.0
  0
SPLINE
  5
3B9
100
AcDbEntity
  8
0
100
AcDbSpline
 62
7
  6
CONTINUOUS
 70
0
 71
3
 72
13
 73
9
 74
0
 42
0.0000001
 43
0.0000001
 44
0.0000000001
 40
0.0
 40
0.0
 40
0.0
 40
0.0
 40
0.254522821
 40
0.5199697504
 40
0.6497765886
 40
0.7737500868
 40
0.8904589145
 40
1.0
 40
1.0
 40
1.0
 40
1.0
 10
196.3005573711
 20
146.537241444
 30
0.0
 10
196.1727617126
 20
146.4550959781
 30
0.0
 10
195.8717827795
 20
146.3465589151
 30
0.0
 10
195.4753239406
 20
146.3535223416
 30
0.0
 10
195.1771248797
 20
146.4439893575
 30
0.0
 10
194.9811415055
 20
146.5501110718
 30
0.0
 10
194.8226689039
 20
146.689290125
 30
0.0
 10
194.7461363766
 20
146.8030069147
 30
0.0
 10
194.7180771406
 20
146.8620629026
 30
0.0
  0
SPLINE
  5
3BA
100
AcDbEntity
  8
0
100
AcDbSpline
 62
7
  6
CONTINUOUS
 70
0
 71
3
 72
13
 73
9
 74
0
 42
0.0000001
 43
0.0000001
 44
0.0000000001
 40
0.0
 40
0.0
 40
0.0
 40
0.0
 40
0.1007391617
 40
0.2087353448
 40
0.3855703128
 40
0.5794307431
 40
0.7862327087
 40
1.0
 40
1.0
 40
1.0
 40
1.0
 10
135.8389479113
 20
153.7537933824
 30
0.0
 10
135.8057761203
 20
153.8223227584
 30
0.0
 10
135.7207256049
 20
153.9567926874
 30
0.0
 10
135.5196761029
 20
154.1696513101
 30
0.0
 10
135.2191368733
 20
154.3770167497
 30
0.0
 10
134.8154312736
 20
154.5489974572
 30
0.0
 10
134.3615041599
 20
154.6559478128
 30
0.0
 10
134.0430941963
 20
154.6799801395
 30
0.0
 10
133.8815351794
 20
154.6799801395
 30
0.0
  0
SPLINE
  5
3BB
100
AcDbEntity
  8
0
100
AcDbSpline
 62
7
  6
CONTINUOUS
 70
0
 71
3
 72
9
 73
5
 74
0
 42
0.0000001
 43
0.0000001
 44
0.0000000001
 40
0.0
 40
0.0
 40
0.0
 40
0.0
 40
0.2446659068
 40
1.0
 40
1.0
 40
1.0
 40
1.0
 10
123.3873065453
 20
158.0876661358
 30
0.0
 10
123.4255325286
 20
158.0707597021
 30
0.0
 10
123.5855916111
 20
158.0105001271
 30
0.0
 10
123.7582682228
 20
157.9850356408
 30
0.0
 10
123.8873065453
 20
157.9850356408
 30
0.0
  0
SPLINE
  5
3BC
100
AcDbEntity
  8
0
100
AcDbSpline
 62
7
  6
CONTINUOUS
 70
0
 71
3
 72
14
 73
10
 74
0
 42
0.0000001
 43
0.0000001
 44
0.0000000001
 40
0.0
 40
0.0
 40
0.0
 40
0.0
 40
0.0973901186
 40
0.1997472198
 40
0.3106992225
 40
0.4319645585
 40
0.5634885744
 40
0.7038220874
 40
1.0
 40
1.0
 40
1.0
 40
1.0
 10
135.9315198513
 20
154.128309985
 30
0.0
 10
135.9315201714
 20
154.0416202117
 30
0.0
 10
135.903394778
 20
153.862773331
 30
0.0
 10
135.7813686821
 20
153.6108888832
 30
0.0
 10
135.5868477832
 20
153.3818377428
 30
0.0
 10
135.3287057948
 20
153.1831719182
 30
0.0
 10
135.0167620268
 20
153.0210462458
 30
0.0
 10
134.5366770634
 20
152.8582267964
 30
0.0
 10
134.1451717418
 20
152.8105953829
 30
0.0
 10
133.8815351794
 20
152.8105953829
 30
0.0
  0
SPLINE
  5
3BD
100
AcDbEntity
  8
0
100
AcDbSpline
 62
7
  6
CONTINUOUS
 70
0
 71
3
 72
14
 73
10
 74
0
 42
0.0000001
 43
0.0000001
 44
0.0000000001
 40
0.0
 40
0.0
 40
0.0
 40
0.0
 40
0.114446565
 40
0.2342643976
 40
0.3587638078
 40
0.4867333142
 40
0.6166280144
 40
0.7467239151
 40
1.0
 40
1.0
 40
1.0
 40
1.0
 10
112.8815351794
 20
158.0616400852
 30
0.0
 10
113.104235984
 20
158.2891050369
 30
0.0
 10
113.6060098904
 20
158.7113725789
 30
0.0
 10
114.4713690703
 20
159.2166017713
 30
0.0
 10
115.4398867243
 20
159.5943164245
 30
0.0
 10
116.4800040564
 20
159.8326152884
 30
0.0
 10
117.5591035033
 20
159.9241480742
 30
0.0
 10
118.9873476454
 20
159.8480967306
 30
0.0
 10
120.0372490408
 20
159.5693160529
 30
0.0
 10
120.6815351794
 20
159.2843637789
 30
0.0
  0
SPLINE
  5
3BE
100
AcDbEntity
  8
0
100
AcDbSpline
 62
7
  6
CONTINUOUS
 70
0
 71
3
 72
14
 73
10
 74
0
 42
0.0000001
 43
0.0000001
 44
0.0000000001
 40
0.0
 40
0.0
 40
0.0
 40
0.0
 40
0.114446565
 40
0.2342643976
 40
0.3587638078
 40
0.4867333142
 40
0.6166280144
 40
0.7467239151
 40
1.0
 40
1.0
 40
1.0
 40
1.0
 10
113.6815351794
 20
149.888562103
 30
0.0
 10
113.8671191832
 20
150.0781162295
 30
0.0
 10
114.2852641053
 20
150.4300058478
 30
0.0
 10
115.0063967551
 20
150.8510301748
 30
0.0
 10
115.8134948002
 20
151.1657923858
 30
0.0
 10
116.6802592435
 20
151.3643747724
 30
0.0
 10
117.5795087827
 20
151.4406520939
 30
0.0
 10
118.7697122344
 20
151.3772759742
 30
0.0
 10
119.6446300639
 20
151.1449587428
 30
0.0
 10
120.1815351794
 20
150.9074985145
 30
0.0
  0
SPLINE
  5
3BF
100
AcDbEntity
  8
0
100
AcDbSpline
 62
7
  6
CONTINUOUS
 70
0
 71
3
 72
9
 73
5
 74
0
 42
0.0000001
 43
0.0000001
 44
0.0000000001
 40
0.0
 40
0.0
 40
0.0
 40
0.0
 40
0.4930811249
 40
1.0
 40
1.0
 40
1.0
 40
1.0
 10
122.8873065453
 20
149.7108008714
 30
0.0
 10
123.0415790126
 20
149.642569867
 30
0.0
 10
123.3709051196
 20
149.5395266875
 30
0.0
 10
123.7138850522
 20
149.5055398815
 30
0.0
 10
123.8873065453
 20
149.5055398815
 30
0.0
  0
SPLINE
  5
3C0
100
AcDbEntity
  8
0
100
AcDbSpline
 62
7
  6
CONTINUOUS
 70
0
 71
3
 72
9
 73
5
 74
0
 42
0.0000001
 43
0.0000001
 44
0.0000000001
 40
0.0
 40
0.0
 40
0.0
 40
0.0
 40
0.2468601524
 40
1.0
 40
1.0
 40
1.0
 40
1.0
 10
112.8815351794
 20
158.0616400852
 30
0.0
 10
112.8436601383
 20
157.9671696033
 30
0.0
 10
112.6919430245
 20
157.5838017344
 30
0.0
 10
112.5478012666
 20
157.1974056558
 30
0.0
 10
112.4447708983
 20
156.90447817
 30
0.0
  0
SPLINE
  5
3C1
100
AcDbEntity
  8
0
100
AcDbSpline
 62
7
  6
CONTINUOUS
 70
0
 71
3
 72
9
 73
5
 74
0
 42
0.0000001
 43
0.0000001
 44
0.0000000001
 40
0.0
 40
0.0
 40
0.0
 40
0.0
 40
0.2466317264
 40
1.0
 40
1.0
 40
1.0
 40
1.0
 10
112.0433794547
 20
156.2331082616
 30
0.0
 10
112.0709993619
 20
156.2912395988
 30
0.0
 10
112.1887073503
 20
156.5241947165
 30
0.0
 10
112.3288553116
 20
156.7456933975
 30
0.0
 10
112.4447708983
 20
156.90447817
 30
0.0
  0
SPLINE
  5
3C2
100
AcDbEntity
  8
0
100
AcDbSpline
 62
7
  6
CONTINUOUS
 70
0
 71
3
 72
14
 73
10
 74
0
 42
0.0000001
 43
0.0000001
 44
0.0000000001
 40
0.0
 40
0.0
 40
0.0
 40
0.0
 40
0.2542326646
 40
0.3875172444
 40
0.5205112708
 40
0.650171429
 40
0.7740073398
 40
0.8905781121
 40
1.0
 40
1.0
 40
1.0
 40
1.0
 10
108.419725378
 20
145.9504173551
 30
0.0
 10
108.6753134799
 20
145.78612849
 30
0.0
 10
109.126443004
 20
145.6238190141
 30
0.0
 10
109.7485468055
 20
145.5778934353
 30
0.0
 10
110.2220015112
 20
145.6289104041
 30
0.0
 10
110.666631003
 20
145.7639598819
 30
0.0
 10
111.0585372044
 20
145.9761550914
 30
0.0
 10
111.3755096261
 20
146.2545097137
 30
0.0
 10
111.5285651602
 20
146.4819436517
 30
0.0
 10
111.5846858389
 20
146.6000602723
 30
0.0
  0
SPLINE
  5
3C3
100
AcDbEntity
  8
0
100
AcDbSpline
 62
7
  6
CONTINUOUS
 70
0
 71
3
 72
9
 73
5
 74
0
 42
0.0000001
 43
0.0000001
 44
0.0000000001
 40
0.0
 40
0.0
 40
0.0
 40
0.0
 40
0.2549976671
 40
1.0
 40
1.0
 40
1.0
 40
1.0
 10
123.8873065453
 20
150.2715843246
 30
0.0
 10
123.8437486157
 20
150.2715843246
 30
0.0
 10
123.6730949949
 20
150.2800838454
 30
0.0
 10
123.5036908035
 20
150.3227408594
 30
0.0
 10
123.3873065453
 20
150.3742148196
 30
0.0
  0
SPLINE
  5
3C4
100
AcDbEntity
  8
0
100
AcDbSpline
 62
7
  6
CONTINUOUS
 70
0
 71
3
 72
9
 73
5
 74
0
 42
0.0000001
 43
0.0000001
 44
0.0000000001
 40
0.0
 40
0.0
 40
0.0
 40
0.0
 40
0.2536621599
 40
1.0
 40
1.0
 40
1.0
 40
1.0
 10
112.4447708983
 20
150.4766020732
 30
0.0
 10
112.4069503397
 20
150.4247942969
 30
0.0
 10
112.2622893011
 20
150.2173648743
 30
0.0
 10
112.1358999457
 20
149.9970961721
 30
0.0
 10
112.0538660147
 20
149.8271300023
 30
0.0
  0
SPLINE
  5
3C5
100
AcDbEntity
  8
0
100
AcDbSpline
 62
7
  6
CONTINUOUS
 70
0
 71
3
 72
9
 73
5
 74
0
 42
0.0000001
 43
0.0000001
 44
0.0000000001
 40
0.0
 40
0.0
 40
0.0
 40
0.0
 40
0.4784566626
 40
1.0
 40
1.0
 40
1.0
 40
1.0
 10
112.4447708983
 20
150.4766020732
 30
0.0
 10
112.517217808
 20
150.4691070227
 30
0.0
 10
112.666927351
 20
150.4361800867
 30
0.0
 10
112.8091756468
 20
150.3808578143
 30
0.0
 10
112.8815351794
 20
150.3481887689
 30
0.0
  0
SPLINE
  5
3C6
100
AcDbEntity
  8
0
100
AcDbSpline
 62
7
  6
CONTINUOUS
 70
0
 71
3
 72
14
 73
10
 74
0
 42
0.0000001
 43
0.0000001
 44
0.0000000001
 40
0.0
 40
0.0
 40
0.0
 40
0.0
 40
0.2532760744
 40
0.3833719724
 40
0.5132666719
 40
0.6412361794
 40
0.7657355925
 40
0.8855534297
 40
1.0
 40
1.0
 40
1.0
 40
1.0
 10
120.6815351794
 20
151.5709124627
 30
0.0
 10
120.0372490674
 20
151.8558647249
 30
0.0
 10
118.9873477113
 20
152.1346453993
 30
0.0
 10
117.5591036088
 20
152.210696759
 30
0.0
 10
116.480004167
 20
152.1191639894
 30
0.0
 10
115.4398868225
 20
151.880865139
 30
0.0
 10
114.4713691404
 20
151.5031504906
 30
0.0
 10
113.6060099246
 20
150.9979212884
 30
0.0
 10
113.1042359943
 20
150.5756537312
 30
0.0
 10
112.8815351794
 20
150.3481887689
 30
0.0
  0
SPLINE
  5
3C7
100
AcDbEntity
  8
0
100
AcDbSpline
 62
7
  6
CONTINUOUS
 70
0
 71
3
 72
13
 73
9
 74
0
 42
0.0000001
 43
0.0000001
 44
0.0000000001
 40
0.0
 40
0.0
 40
0.0
 40
0.0
 40
0.1095411112
 40
0.2262499684
 40
0.3502234819
 40
0.4800303281
 40
0.7454772396
 40
1.0
 40
1.0
 40
1.0
 40
1.0
 10
110.6449932181
 20
146.8620629026
 30
0.0
 10
110.6169339756
 20
146.8030069008
 30
0.0
 10
110.5404014209
 20
146.6892900885
 30
0.0
 10
110.3819287794
 20
146.5501110155
 30
0.0
 10
110.1859453625
 20
146.4439893119
 30
0.0
 10
109.8877462905
 20
146.3535223235
 30
0.0
 10
109.4912874934
 20
146.3465589373
 30
0.0
 10
109.1903086158
 20
146.4550959976
 30
0.0
 10
109.0625129876
 20
146.537241444
 30
0.0
  0
SPLINE
  5
3C8
100
AcDbEntity
  8
0
100
AcDbSpline
 62
7
  6
CONTINUOUS
 70
0
 71
3
 72
14
 73
10
 74
0
 42
0.0000001
 43
0.0000001
 44
0.0000000001
 40
0.0
 40
0.0
 40
0.0
 40
0.0
 40
0.2961738361
 40
0.4365060348
 40
0.568029308
 40
0.6892958217
 40
0.8002498906
 40
0.9026088493
 40
1.0
 40
1.0
 40
1.0
 40
1.0
 10
133.8815351794
 20
155.4460245826
 30
0.0
 10
134.1451681828
 20
155.4460245826
 30
0.0
 10
134.5366684942
 20
155.3983940293
 30
0.0
 10
135.0167496491
 20
155.2355800025
 30
0.0
 10
135.3286937426
 20
155.0734565584
 30
0.0
 10
135.58683949
 20
154.8747917558
 30
0.0
 10
135.7813647805
 20
154.6457382535
 30
0.0
 10
135.9033945564
 20
154.3938502545
 30
0.0
 10
135.9315195313
 20
154.2150006998
 30
0.0
 10
135.9315198513
 20
154.128309985
 30
0.0
  0
SPLINE
  5
3C9
100
AcDbEntity
  8
0
100
AcDbSpline
 62
7
  6
CONTINUOUS
 70
0
 71
3
 72
13
 73
9
 74
0
 42
0.0000001
 43
0.0000001
 44
0.0000000001
 40
0.0
 40
0.0
 40
0.0
 40
0.0
 40
0.2964528955
 40
0.5676707349
 40
0.6890408501
 40
0.8000690374
 40
0.9026039519
 40
1.0
 40
1.0
 40
1.0
 40
1.0
 10
26.6815351793
 20
147.0708979974
 30
0.0
 10
26.4243023844
 20
147.0708979974
 30
0.0
 10
25.9297570093
 20
147.1309424469
 30
0.0
 10
25.3664034415
 20
147.3603484142
 30
0.0
 10
25.0178450309
 20
147.6281341219
 30
0.0
 10
24.8279526289
 20
147.8516613846
 30
0.0
 10
24.7091592525
 20
148.0975041034
 30
0.0
 10
24.6815351794
 20
148.271962463
 30
0.0
 10
24.6815351794
 20
148.3564732168
 30
0.0
  0
SPLINE
  5
3CA
100
AcDbEntity
  8
0
100
AcDbSpline
 62
7
  6
CONTINUOUS
 70
0
 71
3
 72
13
 73
9
 74
0
 42
0.0000001
 43
0.0000001
 44
0.0000000001
 40
0.0
 40
0.0
 40
0.0
 40
0.0
 40
0.097396111
 40
0.1999311609
 40
0.3109594369
 40
0.4323295765
 40
0.7035473805
 40
1.0
 40
1.0
 40
1.0
 40
1.0
 10
202.6815351794
 20
148.3564732168
 30
0.0
 10
202.6815351794
 20
148.271962409
 30
0.0
 10
202.6539109188
 20
148.0975039071
 30
0.0
 10
202.5351175114
 20
147.8516609333
 30
0.0
 10
202.3452247872
 20
147.6281336375
 30
0.0
 10
201.9966662315
 20
147.3603480382
 30
0.0
 10
201.4333128214
 20
147.1309423637
 30
0.0
 10
200.938767733
 20
147.0708979974
 30
0.0
 10
200.6815351794
 20
147.0708979974
 30
0.0
  0
SPLINE
  5
3CB
100
AcDbEntity
  8
0
100
AcDbSpline
 62
7
  6
CONTINUOUS
 70
0
 71
3
 72
9
 73
5
 74
0
 42
0.0000001
 43
0.0000001
 44
0.0000000001
 40
0.0
 40
0.0
 40
0.0
 40
0.0
 40
0.5314728394
 40
1.0
 40
1.0
 40
1.0
 40
1.0
 10
200.6815351794
 20
148.2199646621
 30
0.0
 10
200.9876661605
 20
148.2199646621
 30
0.0
 10
201.5664623563
 20
148.3021649196
 30
0.0
 10
202.0967443806
 20
148.5707431611
 30
0.0
 10
202.2990018061
 20
148.7494157321
 30
0.0
  0
SPLINE
  5
3CC
100
AcDbEntity
  8
0
100
AcDbSpline
 62
7
  6
CONTINUOUS
 70
0
 71
3
 72
9
 73
5
 74
0
 42
0.0000001
 43
0.0000001
 44
0.0000000001
 40
0.0
 40
0.0
 40
0.0
 40
0.0
 40
0.5278200961
 40
1.0
 40
1.0
 40
1.0
 40
1.0
 10
202.2990018061
 20
148.7494157321
 30
0.0
 10
202.4133475053
 20
148.8504277964
 30
0.0
 10
202.6047970292
 20
149.0772714766
 30
0.0
 10
202.6815351794
 20
149.3690507979
 30
0.0
 10
202.6815351794
 20
149.5055398815
 30
0.0
  0
SPLINE
  5
3CD
100
AcDbEntity
  8
0
100
AcDbSpline
 62
7
  6
CONTINUOUS
 70
0
 71
3
 72
9
 73
5
 74
0
 42
0.0000001
 43
0.0000001
 44
0.0000000001
 40
0.0
 40
0.0
 40
0.0
 40
0.0
 40
0.4721759452
 40
1.0
 40
1.0
 40
1.0
 40
1.0
 10
24.6815351794
 20
149.5055398815
 30
0.0
 10
24.6815351794
 20
149.3690377982
 30
0.0
 10
24.7582894592
 20
149.0772281471
 30
0.0
 10
24.9497725755
 20
148.8503714866
 30
0.0
 10
25.0641371199
 20
148.7493551457
 30
0.0
  0
SPLINE
  5
3CE
100
AcDbEntity
  8
0
100
AcDbSpline
 62
7
  6
CONTINUOUS
 70
0
 71
3
 72
9
 73
5
 74
0
 42
0.0000001
 43
0.0000001
 44
0.0000000001
 40
0.0
 40
0.0
 40
0.0
 40
0.0
 40
0.468531057
 40
1.0
 40
1.0
 40
1.0
 40
1.0
 10
25.0641371199
 20
148.7493551457
 30
0.0
 10
25.2663966113
 20
148.5707026285
 30
0.0
 10
25.7966562927
 20
148.3021563662
 30
0.0
 10
26.3754222919
 20
148.2199646621
 30
0.0
 10
26.6815351793
 20
148.2199646621
 30
0.0
  0
ENDSEC
  0
SECTION
  2
OBJECTS
  0
DICTIONARY
  5
C
100
AcDbDictionary
280
0
281
1
  3
ACAD_GROUP
350
D
  3
ACAD_MLINESTYLE
350
17
  3
ACAD_LAYOUT
350
1A
  3
ACAD_PLOTSETTINGS
350
19
  3
ACAD_PLOTSTYLENAME
350
E
  0
DICTIONARY
  5
D
102
{ACAD_REACTORS
330
C
102
}
100
AcDbDictionary
280
0
281
1
  0
ACDBDICTIONARYWDFLT
  5
E
102
{ACAD_REACTORS
330
C
102
}
100
AcDbDictionary
281
1
  3
Normal
350
F
100
AcDbDictionaryWithDefault
340
F
  0
DICTIONARY
  5
17
102
{ACAD_REACTORS
330
C
102
}
100
AcDbDictionary
280
0
281
1
  3
Standard
350
18
  0
DICTIONARY
  5
19
102
{ACAD_REACTORS
330
C
102
}
100
AcDbDictionary
281
1
  0
DICTIONARY
  5
1A
102
{ACAD_REACTORS
330
C
102
}
100
AcDbDictionary
281
1
  3
Model
350
3CF
  3
Layout1
350
3D0
  0
ACDBPLACEHOLDER
  5
F
102
{ACAD_REACTORS
330
E
102
}
  0
MLINESTYLE
  5
18
102
{ACAD_REACTORS
330
17
102
}
100
AcDbMlineStyle
  2
STANDARD
 70
0
  3

 62
256
 51
90.0
 52
90.0
 71
2
 49
0.5
 62
256
  6
BYLAYER
 49
-0.5
 62
256
  6
BYLAYER
  0
LAYOUT
  5
3CF
102
{ACAD_REACTORS
330
1A
102
}
100
AcDbPlotSettings
  1

  2
none_device
  4

  6

 40
0.0
 41
0.0
 42
0.0
 43
0.0
 44
210.0
 45
297.0
 46
0.0
 47
0.0
 48
0.0
 49
0.0
140
0.0
141
0.0
142
1.0
143
1.0
 70
1024
 72
1
 73
0
 74
0
  7

 75
0
147
1.0
148
0.0
149
0.0
100
AcDbLayout
  1
Model
 70
0
 71
0
 10
0.0
 20
0.0
 11
210.0
 21
297.0
 12
0.0
 22
0.0
 32
0.0
 14
0.0
 24
0.0
 34
0.0
 15
0.0
 25
0.0
 35
0.0
146
0.0
 13
0.0
 23
0.0
 33
0.0
 16
1.0
 26
0.0
 36
0.0
 17
0.0
 27
1.0
 37
0.0
 76
0
330
210
345
0
346
0
  0
LAYOUT
  5
3D0
102
{ACAD_REACTORS
330
1A
102
}
100
AcDbPlotSettings
  1

  2
none_device
  4

  6

 40
0.0
 41
0.0
 42
0.0
 43
0.0
 44
210.0
 45
297.0
 46
0.0
 47
0.0
 48
0.0
 49
0.0
140
0.0
141
0.0
142
1.0
143
1.0
 70
0
 72
1
 73
0
 74
0
  7

 75
0
147
1.0
148
0.0
149
0.0
100
AcDbLayout
  1
Layout1
 70
0
 71
1
 10
0.0
 20
0.0
 11
210.0
 21
297.0
 12
0.0
 22
0.0
 32
0.0
 14
0.0
 24
0.0
 34
0.0
 15
0.0
 25
0.0
 35
0.0
146
0.0
 13
0.0
 23
0.0
 33
0.0
 16
1.0
 26
0.0
 36
0.0
 17
0.0
 27
1.0
 37
0.0
 76
0
330
211
345
0
346
0
  0
ENDSEC
  0
EOF
