999
DXF file: C:\Users\sesa63760\Dev\_Creo\CAD\MCADID0000943_3D-CAD\drw0001_1.dxf
999
Pro/ENGINEER 2019471 by Parametric Technology Corporation
  0
SECTION
  2
HEADER
  9
$ACADVER
  1
AC1024
  9
$DWGCODEPAGE
  3
ANSI_1252
  9
$EXTMAX
 10
279.7708559011
 20
395.6759247744
 30
0.0
  9
$EXTMIN
 10
0.0
 20
0.0
 30
0.0
  9
$LIMMIN
 10
0.0
 20
0.0
  9
$LIMMAX
 10
279.7708559011
 20
395.6759247744
  9
$VIEWCTR
 10
139.8854279505
 20
197.8379623872
  9
$VIEWSIZE
 40
395.6759247744
  9
$CLAYER
  8
0
  9
$LTSCALE
 40
25.7922084297
  9
$CELTYPE
  6
BYLAYER
  9
$DIMSCALE
 40
1.0
  9
$DIMASZ
 40
3.3306054274
  9
$DIMEXO
 40
1.0
  9
$DIMDLI
 40
17.8200712787
  9
$DIMEXE
 40
1.0
  9
$DIMCEN
 40
4.2205431976
  9
$DIMLFAC
 40
1.0
  9
$DIMBLK
  1
_FILLED
  9
$DIMALT
 70
0
  9
$DIMALTF
 40
0.0393700787
  9
$DIMTXT
 40
4.6628475984
  9
$DIMTOL
 70
1
  9
$DIMLIM
 70
0
  9
$DIMTFAC
 40
1.0
  9
$DIMTP
 40
0.01
  9
$DIMTM
 40
0.01
  9
$DIMGAP
 40
0.625
  9
$DIMDSEP
 70
46
  9
$AUNITS
 70
0
  9
$PDMODE
 70
3
  9
$PDSIZE
 40
0.3125
  9
$HANDSEED
  5
5E9
  9
$TILEMODE
 70
1
  9
$MEASUREMENT
 70
1
  9
$INSUNITS
 70
4
  0
ENDSEC
  0
SECTION
  2
CLASSES
  0
CLASS
  1
ACDBDICTIONARYWDFLT
  2
AcDbDictionaryWithDefault
  3
AutoCAD 2000
 90
0
 91
1
280
0
281
0
  0
CLASS
  1
ACDBPLACEHOLDER
  2
AcDbPlaceHolder
  3
AutoCAD 2000
 90
0
 91
1
280
0
281
0
  0
CLASS
  1
LAYOUT
  2
AcDbLayout
  3
AutoCAD 2000
 90
0
 91
0
280
0
281
0
  0
ENDSEC
  0
SECTION
  2
TABLES
  0
TABLE
  2
VPORT
  5
8
100
AcDbSymbolTable
 70
2
  0
VPORT
  5
1F4
100
AcDbSymbolTableRecord
100
AcDbViewportTableRecord
  2
*ACTIVE
 70
0
 10
0.0
 20
0.0
 11
1.0
 21
1.0
 12
139.8854279505
 22
197.8379623872
 13
0.0
 23
0.0
 14
1.0
 24
1.0
 15
0.0
 25
0.0
 16
0.0
 26
0.0
 36
1.0
 17
0.0
 27
0.0
 37
0.0
 40
395.6759247744
 41
0.7070707071
 42
50.0
 43
0.0
 44
0.0
 50
0.0
 51
0.0
 71
0
 72
100
 73
1
 74
1
 75
0
 76
0
 77
0
 78
0
  0
ENDTAB
  0
TABLE
  2
LTYPE
  5
5
100
AcDbSymbolTable
 70
6
  0
LTYPE
  5
14
100
AcDbSymbolTableRecord
100
AcDbLinetypeTableRecord
  2
BYBLOCK
 70
0
  3

 72
65
 73
0
 40
0.0
  0
LTYPE
  5
15
100
AcDbSymbolTableRecord
100
AcDbLinetypeTableRecord
  2
BYLAYER
 70
0
  3

 72
65
 73
0
 40
0.0
  0
LTYPE
  5
16
100
AcDbSymbolTableRecord
100
AcDbLinetypeTableRecord
  2
CONTINUOUS
 70
64
  3
Solid line
 72
65
 73
0
 40
0.0
  0
LTYPE
  5
1F5
100
AcDbSymbolTableRecord
100
AcDbLinetypeTableRecord
  2
CENTER
 70
64
  3
____ _ ____ _ ____ _ ____ _ ____ _ ____ _ ____
 72
65
 73
4
 40
0.6
 49
0.375
 74
0
 49
-0.075
 74
0
 49
0.075
 74
0
 49
-0.075
 74
0
  0
LTYPE
  5
1F6
100
AcDbSymbolTableRecord
100
AcDbLinetypeTableRecord
  2
HIDDEN
 70
64
  3
- - - - - - - - - - - - - - - - - - - -
 72
65
 73
2
 40
0.2
 49
0.1
 74
0
 49
-0.1
 74
0
  0
LTYPE
  5
1F7
100
AcDbSymbolTableRecord
100
AcDbLinetypeTableRecord
  2
PHANTOM
 70
64
  3
_____ _ _ _____ _ _ _____ _ _ _____
 72
65
 73
6
 40
0.8
 49
0.45
 74
0
 49
-0.05
 74
0
 49
0.1
 74
0
 49
-0.05
 74
0
 49
0.1
 74
0
 49
-0.05
 74
0
  0
LTYPE
  5
1F8
100
AcDbSymbolTableRecord
100
AcDbLinetypeTableRecord
  2
DOT
 70
64
  3
. . . . . . . . . . . . . . . . . . . .
 72
65
 73
2
 40
0.2
 49
0.1
 74
0
 49
-0.1
 74
0
  0
LTYPE
  5
1F9
100
AcDbSymbolTableRecord
100
AcDbLinetypeTableRecord
  2
DASHED
 70
64
  3
- - - - - - - - - - - - - - - - - - - -
 72
65
 73
2
 40
0.2
 49
0.1
 74
0
 49
-0.1
 74
0
  0
ENDTAB
  0
TABLE
  2
LAYER
  5
2
100
AcDbSymbolTable
 70
36
  0
LAYER
  5
10
100
AcDbSymbolTableRecord
100
AcDbLayerTableRecord
  2
0
 70
0
 62
7
  6
CONTINUOUS
370
-3
390
F
  0
LAYER
  5
1FA
100
AcDbSymbolTableRecord
100
AcDbLayerTableRecord
  2
DEFAULT_1
 70
0
 62
7
  6
CENTER
370
-3
390
F
  0
LAYER
  5
1FB
100
AcDbSymbolTableRecord
100
AcDbLayerTableRecord
  2
DEFAULT_2
 70
0
 62
8
  6
HIDDEN
370
-3
390
F
  0
LAYER
  5
1FC
100
AcDbSymbolTableRecord
100
AcDbLayerTableRecord
  2
DEFAULT_3
 70
0
 62
7
  6
PHANTOM
370
-3
390
F
  0
LAYER
  5
1FD
100
AcDbSymbolTableRecord
100
AcDbLayerTableRecord
  2
00_COMPONENTS
 70
0
 62
7
  6
CONTINUOUS
370
-3
390
F
  0
LAYER
  5
1FE
100
AcDbSymbolTableRecord
100
AcDbLayerTableRecord
  2
01_1_DEFAULT_DATUMS
 70
0
 62
7
  6
CONTINUOUS
370
-3
390
F
  0
LAYER
  5
1FF
100
AcDbSymbolTableRecord
100
AcDbLayerTableRecord
  2
01_PLANES
 70
0
 62
7
  6
CONTINUOUS
370
-3
390
F
  0
LAYER
  5
200
100
AcDbSymbolTableRecord
100
AcDbLayerTableRecord
  2
02_COORD_SYS
 70
0
 62
7
  6
CONTINUOUS
370
-3
390
F
  0
LAYER
  5
201
100
AcDbSymbolTableRecord
100
AcDbLayerTableRecord
  2
03_AXES
 70
0
 62
7
  6
CONTINUOUS
370
-3
390
F
  0
LAYER
  5
202
100
AcDbSymbolTableRecord
100
AcDbLayerTableRecord
  2
04_POINTS
 70
0
 62
7
  6
CONTINUOUS
370
-3
390
F
  0
LAYER
  5
203
100
AcDbSymbolTableRecord
100
AcDbLayerTableRecord
  2
05_CURVES
 70
0
 62
7
  6
CONTINUOUS
370
-3
390
F
  0
LAYER
  5
204
100
AcDbSymbolTableRecord
100
AcDbLayerTableRecord
  2
06_SURFS
 70
0
 62
7
  6
CONTINUOUS
370
-3
390
F
  0
LAYER
  5
205
100
AcDbSymbolTableRecord
100
AcDbLayerTableRecord
  2
07_COSMETICS
 70
0
 62
7
  6
CONTINUOUS
370
-3
390
F
  0
LAYER
  5
206
100
AcDbSymbolTableRecord
100
AcDbLayerTableRecord
  2
10_NOTES
 70
0
 62
7
  6
CONTINUOUS
370
-3
390
F
  0
LAYER
  5
207
100
AcDbSymbolTableRecord
100
AcDbLayerTableRecord
  2
11_NOTES_PUB
 70
0
 62
7
  6
CONTINUOUS
370
-3
390
F
  0
LAYER
  5
208
100
AcDbSymbolTableRecord
100
AcDbLayerTableRecord
  2
13_REF_GTOL
 70
0
 62
7
  6
CONTINUOUS
370
-3
390
F
  0
LAYER
  5
209
100
AcDbSymbolTableRecord
100
AcDbLayerTableRecord
  2
16_MISC
 70
0
 62
7
  6
CONTINUOUS
370
-3
390
F
  0
LAYER
  5
20A
100
AcDbSymbolTableRecord
100
AcDbLayerTableRecord
  2
17_NO_PRINT
 70
0
 62
7
  6
CONTINUOUS
370
-3
390
F
  0
LAYER
  5
20B
100
AcDbSymbolTableRecord
100
AcDbLayerTableRecord
  2
18_DATUM_CAMS_JOINTS
 70
0
 62
7
  6
CONTINUOUS
370
-3
390
F
  0
LAYER
  5
20C
100
AcDbSymbolTableRecord
100
AcDbLayerTableRecord
  2
19_DATUM_FUNCTIONAL
 70
0
 62
7
  6
CONTINUOUS
370
-3
390
F
  0
LAYER
  5
20D
100
AcDbSymbolTableRecord
100
AcDbLayerTableRecord
  2
20_DATUM_KINEMATIC_SCHEME
 70
0
 62
7
  6
CONTINUOUS
370
-3
390
F
  0
ENDTAB
  0
TABLE
  2
STYLE
  5
3
100
AcDbSymbolTable
 70
1
  0
STYLE
  5
11
100
AcDbSymbolTableRecord
100
AcDbTextStyleTableRecord
  2
STANDARD
 70
0
 40
0.0
 41
0.8
 50
0.0
 71
0
 42
0.2
  3
txt
  4

  0
STYLE
  5
20E
100
AcDbSymbolTableRecord
100
AcDbTextStyleTableRecord
  2
TEXTSTYLE_1
 70
0
 40
0.0
 41
0.8
 50
0.0
 71
0
 42
0.2
  3
gdt
  4

  0
ENDTAB
  0
TABLE
  2
VIEW
  5
6
100
AcDbSymbolTable
 70
0
  0
ENDTAB
  0
TABLE
  2
UCS
  5
7
100
AcDbSymbolTable
 70
0
  0
ENDTAB
  0
TABLE
  2
APPID
  5
9
100
AcDbSymbolTable
 70
1
  0
APPID
  5
20F
100
AcDbSymbolTableRecord
100
AcDbRegAppTableRecord
  2
ACAD
 70
0
  0
ENDTAB
  0
TABLE
  2
BLOCK_RECORD
  5
1
100
AcDbSymbolTable
 70
0
  0
BLOCK_RECORD
  5
210
100
AcDbSymbolTableRecord
100
AcDbBlockTableRecord
  2
*Model_Space
  0
BLOCK_RECORD
  5
211
100
AcDbSymbolTableRecord
100
AcDbBlockTableRecord
  2
*Paper_Space
  0
BLOCK_RECORD
  5
212
100
AcDbSymbolTableRecord
100
AcDbBlockTableRecord
  2
_FILLED
  0
ENDTAB
  0
TABLE
  2
DIMSTYLE
  5
A
100
AcDbSymbolTable
 70
1
100
AcDbDimStyleTable
 71
0
  0
DIMSTYLE
105
213
100
AcDbSymbolTableRecord
100
AcDbDimStyleTableRecord
  2
STANDARD
 70
0
  3

  4

 40
1.0
 41
3.3306054274
 42
1.0
 43
0.38
 44
1.0
 45
0.0
 46
0.0
 47
0.01
 48
0.01
140
4.6628475984
141
0.09
142
0.0
143
25.4
144
1.0
145
0.0
146
1.0
147
0.625
 71
1
 72
0
 73
0
 74
0
 75
0
 76
0
 77
1
 78
8
 79
2
170
0
171
1
172
0
173
0
174
0
175
0
176
0
177
0
178
0
270
2
179
2
271
2
272
2
273
2
274
2
275
0
280
0
281
0
282
0
283
1
284
8
285
0
286
0
287
3
288
0
340
11
278
46
341
212
342
212
343
212
344
212
  0
ENDTAB
  0
ENDSEC
  0
SECTION
  2
BLOCKS
  0
BLOCK
  5
20
100
AcDbEntity
  8
0
100
AcDbBlockBegin
  2
*Model_Space
 70
0
 10
0.0
 20
0.0
 30
0.0
  3
*Model_Space
  1

  0
ENDBLK
  5
21
100
AcDbEntity
  8
0
100
AcDbBlockEnd
  0
BLOCK
  5
1C
100
AcDbEntity
  8
0
100
AcDbBlockBegin
  2
*Paper_Space
 70
0
 10
0.0
 20
0.0
 30
0.0
  3
*Paper_Space
  1

  0
ENDBLK
  5
1D
100
AcDbEntity
  8
0
100
AcDbBlockEnd
  0
BLOCK
  5
214
100
AcDbEntity
  8
0
100
AcDbBlockBegin
  2
_FILLED
 70
64
 10
0.0
 20
0.0
  3
_FILLED
  1

  0
SOLID
  5
215
100
AcDbEntity
  8
0
  6
BYBLOCK
 62
0
100
AcDbTrace
 10
0.0
 20
0.0
 11
-1.0
 21
0.25
 12
-1.0
 22
-0.25
 13
-1.0
 23
-0.25
  0
ENDBLK
  5
216
100
AcDbEntity
  8
0
  6
BYBLOCK
 62
0
100
AcDbBlockEnd
  0
ENDSEC
  0
SECTION
  2
ENTITIES
  0
LINE
  5
217
100
AcDbEntity
  8
0
100
AcDbLine
 62
7
  6
CONTINUOUS
 10
32.4566381247
 20
135.6850960676
 11
32.4566381247
 21
142.2171154046
  0
LINE
  5
218
100
AcDbEntity
  8
0
100
AcDbLine
 62
7
  6
CONTINUOUS
 10
32.9755332614
 20
177.4356857931
 11
32.9755332614
 21
185.6007099644
  0
LINE
  5
219
100
AcDbEntity
  8
0
100
AcDbLine
 62
7
  6
CONTINUOUS
 10
131.4519996452
 20
78.5313904347
 11
128.2700058821
 21
80.3684738301
  0
LINE
  5
21A
100
AcDbEntity
  8
0
100
AcDbLine
 62
7
  6
CONTINUOUS
 10
124.7344572563
 20
82.4096776027
 11
39.1741805136
 21
131.8068088996
  0
LINE
  5
21B
100
AcDbEntity
  8
0
100
AcDbLine
 62
7
  6
CONTINUOUS
 10
35.6386318878
 20
133.8480126722
 11
32.4566381247
 21
135.6850960676
  0
LINE
  5
21C
100
AcDbEntity
  8
0
100
AcDbLine
 62
7
  6
CONTINUOUS
 10
96.1813665549
 20
101.3441492403
 11
90.4396355867
 21
104.659064167
  0
LINE
  5
21D
100
AcDbEntity
  8
0
100
AcDbLine
 62
7
  6
CONTINUOUS
 10
89.0254161364
 20
105.4755456761
 11
83.2836851682
 21
108.7904606028
  0
LINE
  5
21E
100
AcDbEntity
  8
0
100
AcDbLine
 62
7
  6
CONTINUOUS
 10
35.6386318878
 20
140.3800320093
 11
35.6386318878
 21
133.8480126722
  0
LINE
  5
21F
100
AcDbEntity
  8
0
100
AcDbLine
 62
7
  6
CONTINUOUS
 10
39.1741805136
 20
138.3388282367
 11
39.1741805136
 21
131.8068088996
  0
LINE
  5
220
100
AcDbEntity
  8
0
100
AcDbLine
 62
7
  6
CONTINUOUS
 10
40.2348068297
 20
143.0336190094
 11
40.2348068297
 21
138.9511774706
  0
LINE
  5
221
100
AcDbEntity
  8
0
100
AcDbLine
 62
7
  6
CONTINUOUS
 10
41.6489880084
 20
147.5242894049
 11
41.6489880084
 21
172.428177645
  0
LINE
  5
222
100
AcDbEntity
  8
0
100
AcDbLine
 62
7
  6
CONTINUOUS
 10
41.6489880084
 20
191.1622040549
 11
41.6489880084
 21
256.6979976541
  0
LINE
  5
223
100
AcDbEntity
  8
0
100
AcDbLine
 62
7
  6
CONTINUOUS
 10
42.3561742767
 20
136.5017448413
 11
42.3561742767
 21
172.0198926993
  0
LINE
  5
224
100
AcDbEntity
  8
0
100
AcDbLine
 62
7
  6
CONTINUOUS
 10
42.3561742767
 20
191.6156579976
 11
42.3561742767
 21
244.6771431949
  0
LINE
  5
225
100
AcDbEntity
  8
0
100
AcDbLine
 62
7
  6
CONTINUOUS
 10
44.1737549372
 20
186.5943812525
 11
44.1737549372
 21
182.4302189251
  0
LINE
  5
226
100
AcDbEntity
  8
0
100
AcDbLine
 62
7
  6
CONTINUOUS
 10
44.2653705346
 20
196.8004765723
 11
44.2653705346
 21
243.5748931577
  0
LINE
  5
227
100
AcDbEntity
  8
0
100
AcDbLine
 62
7
  6
CONTINUOUS
 10
44.4775034522
 20
196.9229550711
 11
44.4775034522
 21
215.3759096982
  0
LINE
  5
228
100
AcDbEntity
  8
0
100
AcDbLine
 62
7
  6
CONTINUOUS
 10
44.4775034522
 20
215.6208604233
 11
44.4775034522
 21
243.4524209314
  0
LINE
  5
229
100
AcDbEntity
  8
0
100
AcDbLine
 62
7
  6
CONTINUOUS
 10
140.644349529
 20
90.3705837721
 11
134.0513754796
 21
93.7978538642
  0
LINE
  5
22A
100
AcDbEntity
  8
0
100
AcDbLine
 62
7
  6
CONTINUOUS
 10
97.9491261479
 20
102.364759625
 11
92.2073951798
 21
105.6796745517
  0
LINE
  5
22B
100
AcDbEntity
  8
0
100
AcDbLine
 62
7
  6
CONTINUOUS
 10
89.0254161364
 20
107.5167494487
 11
85.0514447613
 21
109.8110709874
  0
LINE
  5
22C
100
AcDbEntity
  8
0
100
AcDbLine
 62
7
  6
CONTINUOUS
 10
131.4519996452
 20
85.0634097718
 11
128.2700058821
 21
86.9004931671
  0
LINE
  5
22D
100
AcDbEntity
  8
0
100
AcDbLine
 62
7
  6
CONTINUOUS
 10
124.7344572563
 20
88.9416969397
 11
121.5524634932
 21
90.7787803351
  0
LINE
  5
22E
100
AcDbEntity
  8
0
100
AcDbLine
 62
7
  6
CONTINUOUS
 10
42.3561742767
 20
136.5017448413
 11
39.1741805136
 21
138.3388282367
  0
LINE
  5
22F
100
AcDbEntity
  8
0
100
AcDbLine
 62
7
  6
CONTINUOUS
 10
35.6386318878
 20
140.3800320093
 11
32.4566381247
 21
142.2171154046
  0
LINE
  5
230
100
AcDbEntity
  8
0
100
AcDbLine
 62
7
  6
CONTINUOUS
 10
42.3561742767
 20
147.0708430554
 11
41.6489880084
 21
147.5242894049
  0
LINE
  5
231
100
AcDbEntity
  8
0
100
AcDbLine
 62
7
  6
CONTINUOUS
 10
47.5853337021
 20
252.858157413
 11
47.5853337021
 21
248.6447013441
  0
LINE
  5
232
100
AcDbEntity
  8
0
100
AcDbLine
 62
7
  6
CONTINUOUS
 10
48.578739858
 20
207.4558968855
 11
48.578739858
 21
209.6604534117
  0
LINE
  5
233
100
AcDbEntity
  8
0
100
AcDbLine
 62
7
  6
CONTINUOUS
 10
48.6848063168
 20
215.6413351853
 11
48.6848063168
 21
217.8458917116
  0
LINE
  5
234
100
AcDbEntity
  8
0
100
AcDbLine
 62
7
  6
CONTINUOUS
 10
48.6848063168
 20
220.295398963
 11
48.6848063168
 21
222.4999554892
  0
LINE
  5
235
100
AcDbEntity
  8
0
100
AcDbLine
 62
7
  6
CONTINUOUS
 10
48.6848063168
 20
224.9494627406
 11
48.6848063168
 21
227.1540192668
  0
LINE
  5
236
100
AcDbEntity
  8
0
100
AcDbLine
 62
7
  6
CONTINUOUS
 10
48.6848063168
 20
229.6035265182
 11
48.6848063168
 21
231.8080830445
  0
LINE
  5
237
100
AcDbEntity
  8
0
100
AcDbLine
 62
7
  6
CONTINUOUS
 10
48.6848063168
 20
234.2575902959
 11
48.6848063168
 21
236.4621468221
  0
LINE
  5
238
100
AcDbEntity
  8
0
100
AcDbLine
 62
7
  6
CONTINUOUS
 10
49.9929475324
 20
208.2723851932
 11
49.9929475324
 21
208.8439787013
  0
LINE
  5
239
100
AcDbEntity
  8
0
100
AcDbLine
 62
7
  6
CONTINUOUS
 10
53.8467073104
 20
219.5197979812
 11
53.8467073104
 21
217.315241455
  0
LINE
  5
23A
100
AcDbEntity
  8
0
100
AcDbLine
 62
7
  6
CONTINUOUS
 10
53.8467073104
 20
214.8657342036
 11
53.8467073104
 21
212.6611776773
  0
LINE
  5
23B
100
AcDbEntity
  8
0
100
AcDbLine
 62
7
  6
CONTINUOUS
 10
53.9737549372
 20
186.5943812525
 11
53.9737549372
 21
182.4302189251
  0
LINE
  5
23C
100
AcDbEntity
  8
0
100
AcDbLine
 62
7
  6
CONTINUOUS
 10
54.8013125048
 20
189.982858165
 11
54.8013125048
 21
198.5561335448
  0
LINE
  5
23D
100
AcDbEntity
  8
0
100
AcDbLine
 62
7
  6
CONTINUOUS
 10
55.084059244
 20
205.9046904798
 11
55.084059244
 21
205.3330969717
  0
LINE
  5
23E
100
AcDbEntity
  8
0
100
AcDbLine
 62
7
  6
CONTINUOUS
 10
55.2609267607
 20
203.5980217553
 11
55.2609267607
 21
205.8025782815
  0
LINE
  5
23F
100
AcDbEntity
  8
0
100
AcDbLine
 62
7
  6
CONTINUOUS
 10
55.2609267607
 20
221.1528237236
 11
55.2609267607
 21
223.3573802498
  0
LINE
  5
240
100
AcDbEntity
  8
0
100
AcDbLine
 62
7
  6
CONTINUOUS
 10
55.2609267607
 20
225.8068875012
 11
55.2609267607
 21
228.0114440274
  0
LINE
  5
241
100
AcDbEntity
  8
0
100
AcDbLine
 62
7
  6
CONTINUOUS
 10
55.2609267607
 20
230.4609512788
 11
55.2609267607
 21
232.6655078051
  0
LINE
  5
242
100
AcDbEntity
  8
0
100
AcDbLine
 62
7
  6
CONTINUOUS
 10
55.8619770926
 20
196.7190187874
 11
55.8619770926
 21
189.3704970332
  0
LINE
  5
243
100
AcDbEntity
  8
0
100
AcDbLine
 62
7
  6
CONTINUOUS
 10
44.3526568811
 20
243.6353652549
 11
44.2653705346
 21
243.5748931577
  0
LINE
  5
244
100
AcDbEntity
  8
0
100
AcDbLine
 62
7
  6
CONTINUOUS
 10
44.3527181706
 20
243.634692415
 11
44.2653705346
 21
243.5748931577
  0
LINE
  5
245
100
AcDbEntity
  8
0
100
AcDbLine
 62
7
  6
CONTINUOUS
 10
77.2164093488
 20
265.5906065777
 11
77.0979339299
 21
265.5133970107
  0
LINE
  5
246
100
AcDbEntity
  8
0
100
AcDbLine
 62
7
  6
CONTINUOUS
 10
77.2164093488
 20
265.5906065777
 11
77.097886238
 21
265.5143284134
  0
LINE
  5
247
100
AcDbEntity
  8
0
100
AcDbLine
 62
7
  6
CONTINUOUS
 10
57.0287010735
 20
231.6449059188
 11
57.0287010735
 21
229.4403493925
  0
LINE
  5
248
100
AcDbEntity
  8
0
100
AcDbLine
 62
7
  6
CONTINUOUS
 10
57.0287010735
 20
226.9908421411
 11
57.0287010735
 21
224.7862856149
  0
LINE
  5
249
100
AcDbEntity
  8
0
100
AcDbLine
 62
7
  6
CONTINUOUS
 10
57.0287010735
 20
222.3367783635
 11
57.0287010735
 21
220.1322218373
  0
LINE
  5
24A
100
AcDbEntity
  8
0
100
AcDbLine
 62
7
  6
CONTINUOUS
 10
57.0287010735
 20
217.927665311
 11
57.0287010735
 21
208.3745870306
  0
LINE
  5
24B
100
AcDbEntity
  8
0
100
AcDbLine
 62
7
  6
CONTINUOUS
 10
57.0287010735
 20
204.7819763952
 11
57.0287010735
 21
202.577419869
  0
LINE
  5
24C
100
AcDbEntity
  8
0
100
AcDbLine
 62
7
  6
CONTINUOUS
 10
57.0640536158
 20
192.269068621
 11
57.0640536158
 21
193.4938222467
  0
LINE
  5
24D
100
AcDbEntity
  8
0
100
AcDbLine
 62
7
  6
CONTINUOUS
 10
57.7711662849
 20
189.8195805781
 11
57.7711662849
 21
195.4534472563
  0
LINE
  5
24E
100
AcDbEntity
  8
0
100
AcDbLine
 62
7
  6
CONTINUOUS
 10
58.442908748
 20
203.9655016848
 11
58.442908748
 21
203.3939081767
  0
LINE
  5
24F
100
AcDbEntity
  8
0
100
AcDbLine
 62
7
  6
CONTINUOUS
 10
59.1500125852
 20
216.7029532454
 11
59.1500125852
 21
209.5993194922
  0
LINE
  5
250
100
AcDbEntity
  8
0
100
AcDbLine
 62
7
  6
CONTINUOUS
 10
62.2966685259
 20
192.8407064273
 11
62.2966685259
 21
187.2068397491
  0
LINE
  5
251
100
AcDbEntity
  8
0
100
AcDbLine
 62
7
  6
CONTINUOUS
 10
62.5088085089
 20
185.5330339407
 11
62.5088085089
 21
192.8815556949
  0
LINE
  5
252
100
AcDbEntity
  8
0
100
AcDbLine
 62
7
  6
CONTINUOUS
 10
63.0391337373
 20
214.4576188976
 11
63.0391337373
 21
204.9045406172
  0
LINE
  5
253
100
AcDbEntity
  8
0
100
AcDbLine
 62
7
  6
CONTINUOUS
 10
63.0391337373
 20
199.1073734555
 11
63.0391337373
 21
201.3119299818
  0
LINE
  5
254
100
AcDbEntity
  8
0
100
AcDbLine
 62
7
  6
CONTINUOUS
 10
63.0391337373
 20
216.6621754238
 11
63.0391337373
 21
218.8667319501
  0
LINE
  5
255
100
AcDbEntity
  8
0
100
AcDbLine
 62
7
  6
CONTINUOUS
 10
63.0391337373
 20
221.3162392015
 11
63.0391337373
 21
223.5207957277
  0
LINE
  5
256
100
AcDbEntity
  8
0
100
AcDbLine
 62
7
  6
CONTINUOUS
 10
63.0391337373
 20
225.9703029791
 11
63.0391337373
 21
228.1748595054
  0
LINE
  5
257
100
AcDbEntity
  8
0
100
AcDbLine
 62
7
  6
CONTINUOUS
 10
63.6401840692
 20
192.2283704877
 11
63.6401840692
 21
184.8798487335
  0
LINE
  5
258
100
AcDbEntity
  8
0
100
AcDbLine
 62
7
  6
CONTINUOUS
 10
64.8069080501
 20
227.1542576191
 11
64.8069080501
 21
224.9497010928
  0
LINE
  5
259
100
AcDbEntity
  8
0
100
AcDbLine
 62
7
  6
CONTINUOUS
 10
64.8069080501
 20
222.5001938414
 11
64.8069080501
 21
220.2956373152
  0
LINE
  5
25A
100
AcDbEntity
  8
0
100
AcDbLine
 62
7
  6
CONTINUOUS
 10
64.8069080501
 20
217.8461300638
 11
64.8069080501
 21
215.6415735375
  0
LINE
  5
25B
100
AcDbEntity
  8
0
100
AcDbLine
 62
7
  6
CONTINUOUS
 10
64.8069080501
 20
213.4370170113
 11
64.8069080501
 21
203.8839387309
  0
LINE
  5
25C
100
AcDbEntity
  8
0
100
AcDbLine
 62
7
  6
CONTINUOUS
 10
64.8069080501
 20
200.2913280955
 11
64.8069080501
 21
198.0867715692
  0
LINE
  5
25D
100
AcDbEntity
  8
0
100
AcDbLine
 62
7
  6
CONTINUOUS
 10
65.5493732615
 20
185.3289322783
 11
65.5493732615
 21
190.9627989565
  0
LINE
  5
25E
100
AcDbEntity
  8
0
100
AcDbLine
 62
7
  6
CONTINUOUS
 10
66.2211157246
 20
199.4748533851
 11
66.2211157246
 21
198.903259877
  0
LINE
  5
25F
100
AcDbEntity
  8
0
100
AcDbLine
 62
7
  6
CONTINUOUS
 10
66.3979019878
 20
184.8390450726
 11
66.3979019878
 21
184.43078341
  0
LINE
  5
260
100
AcDbEntity
  8
0
100
AcDbLine
 62
7
  6
CONTINUOUS
 10
66.9282195618
 20
212.2123049457
 11
66.9282195618
 21
205.1086711925
  0
LINE
  5
261
100
AcDbEntity
  8
0
100
AcDbLine
 62
7
  6
CONTINUOUS
 10
67.4585665755
 20
184.2266839408
 11
67.4585665755
 21
183.8184222782
  0
LINE
  5
262
100
AcDbEntity
  8
0
100
AcDbLine
 62
7
  6
CONTINUOUS
 10
50.5940355666
 20
235.3598777374
 11
48.6848063168
 21
234.2575902959
  0
LINE
  5
263
100
AcDbEntity
  8
0
100
AcDbLine
 62
7
  6
CONTINUOUS
 10
96.3937118803
 20
119.5142269706
 11
99.4637242889
 21
115.6951135306
  0
LINE
  5
264
100
AcDbEntity
  8
0
100
AcDbLine
 62
7
  6
CONTINUOUS
 10
100.6904942506
 20
114.1690045041
 11
103.7559123735
 21
110.3556063824
  0
LINE
  5
265
100
AcDbEntity
  8
0
100
AcDbLine
 62
7
  6
CONTINUOUS
 10
104.9816900445
 20
108.8307317712
 11
107.9842733072
 21
105.0955005841
  0
LINE
  5
266
100
AcDbEntity
  8
0
100
AcDbLine
 62
7
  6
CONTINUOUS
 10
70.7728461308
 20
151.3888092908
 11
73.775420848
 21
147.6535887344
  0
LINE
  5
267
100
AcDbEntity
  8
0
100
AcDbLine
 62
7
  6
CONTINUOUS
 10
75.0011940045
 20
146.1287197393
 11
78.0665965546
 21
142.3153409902
  0
LINE
  5
268
100
AcDbEntity
  8
0
100
AcDbLine
 62
7
  6
CONTINUOUS
 10
79.2933576319
 20
140.7892430159
 11
82.3633341901
 21
136.970174174
  0
LINE
  5
269
100
AcDbEntity
  8
0
100
AcDbLine
 62
7
  6
CONTINUOUS
 10
83.0704439152
 20
137.9761570905
 11
80.000467357
 21
141.7952259324
  0
LINE
  5
26A
100
AcDbEntity
  8
0
100
AcDbLine
 62
7
  6
CONTINUOUS
 10
78.7737062798
 20
143.3213239067
 11
75.7083037296
 21
147.1347026558
  0
LINE
  5
26B
100
AcDbEntity
  8
0
100
AcDbLine
 62
7
  6
CONTINUOUS
 10
74.4825305732
 20
148.6595716508
 11
71.4799558559
 21
152.3947922073
  0
LINE
  5
26C
100
AcDbEntity
  8
0
100
AcDbLine
 62
7
  6
CONTINUOUS
 10
108.6929393357
 20
106.1036976046
 11
105.690356073
 21
109.8389287917
  0
LINE
  5
26D
100
AcDbEntity
  8
0
100
AcDbLine
 62
7
  6
CONTINUOUS
 10
104.4645784019
 20
111.3638034029
 11
101.399160279
 21
115.1772015246
  0
LINE
  5
26E
100
AcDbEntity
  8
0
100
AcDbLine
 62
7
  6
CONTINUOUS
 10
100.1723903174
 20
116.7033105511
 11
97.1023779088
 21
120.5224239911
  0
LINE
  5
26F
100
AcDbEntity
  8
0
100
AcDbLine
 62
7
  6
CONTINUOUS
 10
73.247715449
 20
153.415402592
 11
76.0071830245
 21
149.9826087454
  0
LINE
  5
270
100
AcDbEntity
  8
0
100
AcDbLine
 62
7
  6
CONTINUOUS
 10
77.4760633226
 20
148.1553130405
 11
80.3107554711
 21
144.6289393841
  0
LINE
  5
271
100
AcDbEntity
  8
0
100
AcDbLine
 62
7
  6
CONTINUOUS
 10
81.7682269501
 20
142.8158363171
 11
84.727176281
 21
139.134885997
  0
LINE
  5
272
100
AcDbEntity
  8
0
100
AcDbLine
 62
7
  6
CONTINUOUS
 10
98.8701375018
 20
121.5430343758
 11
101.0006134192
 21
118.8927098406
  0
LINE
  5
273
100
AcDbEntity
  8
0
100
AcDbLine
 62
7
  6
CONTINUOUS
 10
103.166919872
 20
116.1978119093
 11
105.4138263333
 21
113.4026470948
  0
LINE
  5
274
100
AcDbEntity
  8
0
100
AcDbLine
 62
7
  6
CONTINUOUS
 10
107.458115666
 20
110.8595391764
 11
109.7075689742
 21
108.0612060693
  0
LINE
  5
275
100
AcDbEntity
  8
0
100
AcDbLine
 62
7
  6
CONTINUOUS
 10
68.8727860258
 20
183.4102024318
 11
68.8727860258
 21
183.0019407692
  0
LINE
  5
276
100
AcDbEntity
  8
0
100
AcDbLine
 62
7
  6
CONTINUOUS
 10
69.2263438323
 20
133.1387967715
 11
69.2263438323
 21
148.0305115898
  0
LINE
  5
277
100
AcDbEntity
  8
0
100
AcDbLine
 62
7
  6
CONTINUOUS
 10
69.9334506135
 20
182.7978413
 11
69.9334506135
 21
182.3895796374
  0
LINE
  5
278
100
AcDbEntity
  8
0
100
AcDbLine
 62
7
  6
CONTINUOUS
 10
70.0748755025
 20
188.3500581276
 11
70.0748755025
 21
182.7161914494
  0
LINE
  5
279
100
AcDbEntity
  8
0
100
AcDbLine
 62
7
  6
CONTINUOUS
 10
70.2870154856
 20
181.042385641
 11
70.2870154856
 21
188.3909073952
  0
LINE
  5
27A
100
AcDbEntity
  8
0
100
AcDbLine
 62
7
  6
CONTINUOUS
 10
70.8173407139
 20
209.9669705979
 11
70.8173407139
 21
200.4138923174
  0
LINE
  5
27B
100
AcDbEntity
  8
0
100
AcDbLine
 62
7
  6
CONTINUOUS
 10
70.8173407139
 20
194.6167251558
 11
70.8173407139
 21
196.8212816821
  0
LINE
  5
27C
100
AcDbEntity
  8
0
100
AcDbLine
 62
7
  6
CONTINUOUS
 10
70.8173407139
 20
212.1715271241
 11
70.8173407139
 21
214.3760836504
  0
LINE
  5
27D
100
AcDbEntity
  8
0
100
AcDbLine
 62
7
  6
CONTINUOUS
 10
70.8173407139
 20
216.8255909017
 11
70.8173407139
 21
219.030147428
  0
LINE
  5
27E
100
AcDbEntity
  8
0
100
AcDbLine
 62
7
  6
CONTINUOUS
 10
70.8173407139
 20
221.4796546794
 11
70.8173407139
 21
223.6842112056
  0
LINE
  5
27F
100
AcDbEntity
  8
0
100
AcDbLine
 62
7
  6
CONTINUOUS
 10
70.9941034253
 20
134.1594071562
 11
70.9941034253
 21
149.0511219745
  0
LINE
  5
280
100
AcDbEntity
  8
0
100
AcDbLine
 62
7
  6
CONTINUOUS
 10
71.4183910458
 20
187.7377221879
 11
71.4183910458
 21
180.3892004338
  0
LINE
  5
281
100
AcDbEntity
  8
0
100
AcDbLine
 62
7
  6
CONTINUOUS
 10
72.2669156504
 20
178.3479359253
 11
72.2669156504
 21
180.6341426933
  0
LINE
  5
282
100
AcDbEntity
  8
0
100
AcDbLine
 62
7
  6
CONTINUOUS
 10
72.4581439431
 20
170.2647510716
 11
72.4581439431
 21
166.1005887443
  0
LINE
  5
283
100
AcDbEntity
  8
0
100
AcDbLine
 62
7
  6
CONTINUOUS
 10
72.5851150268
 20
222.6636093193
 11
72.5851150268
 21
220.4590527931
  0
LINE
  5
284
100
AcDbEntity
  8
0
100
AcDbLine
 62
7
  6
CONTINUOUS
 10
72.5851150268
 20
218.0095455417
 11
72.5851150268
 21
215.8049890154
  0
LINE
  5
285
100
AcDbEntity
  8
0
100
AcDbLine
 62
7
  6
CONTINUOUS
 10
72.5851150268
 20
213.3554817641
 11
72.5851150268
 21
211.1509252378
  0
LINE
  5
286
100
AcDbEntity
  8
0
100
AcDbLine
 62
7
  6
CONTINUOUS
 10
72.5851150268
 20
208.9463687116
 11
72.5851150268
 21
199.3932904311
  0
LINE
  5
287
100
AcDbEntity
  8
0
100
AcDbLine
 62
7
  6
CONTINUOUS
 10
72.5851150268
 20
195.8006797958
 11
72.5851150268
 21
193.5961232695
  0
LINE
  5
288
100
AcDbEntity
  8
0
100
AcDbLine
 62
7
  6
CONTINUOUS
 10
72.6204675691
 20
179.6135111445
 11
72.6204675691
 21
180.8382647702
  0
LINE
  5
289
100
AcDbEntity
  8
0
100
AcDbLine
 62
7
  6
CONTINUOUS
 10
72.6204675691
 20
183.2877720216
 11
72.6204675691
 21
184.5125256473
  0
LINE
  5
28A
100
AcDbEntity
  8
0
100
AcDbLine
 62
7
  6
CONTINUOUS
 10
73.3275802382
 20
178.5195695687
 11
73.3275802382
 21
180.0217815615
  0
LINE
  5
28B
100
AcDbEntity
  8
0
100
AcDbLine
 62
7
  6
CONTINUOUS
 10
73.3275802382
 20
180.8382839786
 11
73.3275802382
 21
186.4721506568
  0
LINE
  5
28C
100
AcDbEntity
  8
0
100
AcDbLine
 62
7
  6
CONTINUOUS
 10
73.9993227012
 20
194.9842050854
 11
73.9993227012
 21
194.4126115773
  0
LINE
  5
28D
100
AcDbEntity
  8
0
100
AcDbLine
 62
7
  6
CONTINUOUS
 10
74.7064265384
 20
207.721656646
 11
74.7064265384
 21
200.6180228928
  0
LINE
  5
28E
100
AcDbEntity
  8
0
100
AcDbLine
 62
7
  6
CONTINUOUS
 10
76.9691953227
 20
220.1325166413
 11
76.9691953227
 21
217.9279601151
  0
LINE
  5
28F
100
AcDbEntity
  8
0
100
AcDbLine
 62
7
  6
CONTINUOUS
 10
76.9691953227
 20
215.4784528637
 11
76.9691953227
 21
213.2738963374
  0
LINE
  5
290
100
AcDbEntity
  8
0
100
AcDbLine
 62
7
  6
CONTINUOUS
 10
76.9691953227
 20
210.824389086
 11
76.9691953227
 21
208.6198325598
  0
LINE
  5
291
100
AcDbEntity
  8
0
100
AcDbLine
 62
7
  6
CONTINUOUS
 10
77.2164093488
 20
265.3315978544
 11
77.2164093488
 21
265.5906065777
  0
LINE
  5
292
100
AcDbEntity
  8
0
100
AcDbLine
 62
7
  6
CONTINUOUS
 10
77.8530824791
 20
183.8594098279
 11
77.8530824791
 21
178.2255431497
  0
LINE
  5
293
100
AcDbEntity
  8
0
100
AcDbLine
 62
7
  6
CONTINUOUS
 10
77.8530824791
 20
177.4090407326
 11
77.8530824791
 21
175.9068287398
  0
LINE
  5
294
100
AcDbEntity
  8
0
100
AcDbLine
 62
7
  6
CONTINUOUS
 10
78.0652224622
 20
176.5517373413
 11
78.0652224622
 21
183.9002590954
  0
LINE
  5
295
100
AcDbEntity
  8
0
100
AcDbLine
 62
7
  6
CONTINUOUS
 10
78.2066343977
 20
176.3884091838
 11
78.2066343977
 21
176.4700949692
  0
LINE
  5
296
100
AcDbEntity
  8
0
100
AcDbLine
 62
7
  6
CONTINUOUS
 10
50.5940355666
 20
230.7058139598
 11
48.6848063168
 21
229.6035265182
  0
LINE
  5
297
100
AcDbEntity
  8
0
100
AcDbLine
 62
7
  6
CONTINUOUS
 10
50.5940355666
 20
226.0517501822
 11
48.6848063168
 21
224.9494627406
  0
LINE
  5
298
100
AcDbEntity
  8
0
100
AcDbLine
 62
7
  6
CONTINUOUS
 10
57.0287010735
 20
229.4403493925
 11
58.9379303234
 21
230.5426368341
  0
LINE
  5
299
100
AcDbEntity
  8
0
100
AcDbLine
 62
7
  6
CONTINUOUS
 10
50.5940355666
 20
221.3976864045
 11
48.6848063168
 21
220.295398963
  0
LINE
  5
29A
100
AcDbEntity
  8
0
100
AcDbLine
 62
7
  6
CONTINUOUS
 10
57.0287010735
 20
224.7862856149
 11
58.9379303234
 21
225.8885730565
  0
LINE
  5
29B
100
AcDbEntity
  8
0
100
AcDbLine
 62
7
  6
CONTINUOUS
 10
44.6896400355
 20
215.4983860806
 11
44.4775034522
 21
215.3759096982
  0
LINE
  5
29C
100
AcDbEntity
  8
0
100
AcDbLine
 62
7
  6
CONTINUOUS
 10
71.4799558559
 20
126.1723280065
 11
74.4825305732
 21
126.4405523544
  0
LINE
  5
29D
100
AcDbEntity
  8
0
100
AcDbLine
 62
7
  6
CONTINUOUS
 10
75.7083037296
 20
126.5500524456
 11
78.7737062798
 21
126.8238892948
  0
LINE
  5
29E
100
AcDbEntity
  8
0
100
AcDbLine
 62
7
  6
CONTINUOUS
 10
80.000467357
 20
126.9334776385
 11
83.0704439152
 21
127.2077230905
  0
LINE
  5
29F
100
AcDbEntity
  8
0
100
AcDbLine
 62
7
  6
CONTINUOUS
 10
97.1017175331
 20
128.4611570832
 11
100.1716940913
 21
128.7354025352
  0
LINE
  5
2A0
100
AcDbEntity
  8
0
100
AcDbLine
 62
7
  6
CONTINUOUS
 10
101.3984551685
 20
128.8449908788
 11
104.4638577187
 21
129.1188277281
  0
LINE
  5
2A1
100
AcDbEntity
  8
0
100
AcDbLine
 62
7
  6
CONTINUOUS
 10
105.6896308751
 20
129.2283278193
 11
108.6922055924
 21
129.4965521672
  0
LINE
  5
2A2
100
AcDbEntity
  8
0
100
AcDbLine
 62
7
  6
CONTINUOUS
 10
107.9850958672
 20
131.3190165927
 11
104.98252115
 21
131.0507922448
  0
LINE
  5
2A3
100
AcDbEntity
  8
0
100
AcDbLine
 62
7
  6
CONTINUOUS
 10
103.7567479935
 20
130.9412921535
 11
100.6913454434
 21
130.6674553043
  0
LINE
  5
2A4
100
AcDbEntity
  8
0
100
AcDbLine
 62
7
  6
CONTINUOUS
 10
99.4645843661
 20
130.5578669607
 11
96.3946078079
 21
130.2836215087
  0
LINE
  5
2A5
100
AcDbEntity
  8
0
100
AcDbLine
 62
7
  6
CONTINUOUS
 10
82.3633341901
 20
129.0301875159
 11
79.2933576319
 21
128.755942064
  0
LINE
  5
2A6
100
AcDbEntity
  8
0
100
AcDbLine
 62
7
  6
CONTINUOUS
 10
78.0665965546
 20
128.6463537203
 11
75.0011940045
 21
128.3725168711
  0
LINE
  5
2A7
100
AcDbEntity
  8
0
100
AcDbLine
 62
7
  6
CONTINUOUS
 10
73.775420848
 20
128.2630167798
 11
70.7728461308
 21
127.9947924319
  0
LINE
  5
2A8
100
AcDbEntity
  8
0
100
AcDbLine
 62
7
  6
CONTINUOUS
 10
111.1341970665
 20
132.3117810448
 11
32.9755332614
 21
177.4356857931
  0
LINE
  5
2A9
100
AcDbEntity
  8
0
100
AcDbLine
 62
7
  6
CONTINUOUS
 10
32.9755332614
 20
185.6007099644
 11
111.1341970665
 21
140.4768052161
  0
LINE
  5
2AA
100
AcDbEntity
  8
0
100
AcDbLine
 62
7
  6
CONTINUOUS
 10
78.5955476905
 20
205.4763222981
 11
78.5955476905
 21
195.9232440177
  0
LINE
  5
2AB
100
AcDbEntity
  8
0
100
AcDbLine
 62
7
  6
CONTINUOUS
 10
78.5955476905
 20
190.1260768561
 11
78.5955476905
 21
192.3306333823
  0
LINE
  5
2AC
100
AcDbEntity
  8
0
100
AcDbLine
 62
7
  6
CONTINUOUS
 10
78.9137470668
 20
176.061852515
 11
78.9137470668
 21
174.5104728328
  0
LINE
  5
2AD
100
AcDbEntity
  8
0
100
AcDbLine
 62
7
  6
CONTINUOUS
 10
79.1965980224
 20
183.2470738882
 11
79.1965980224
 21
175.898552134
  0
LINE
  5
2AE
100
AcDbEntity
  8
0
100
AcDbLine
 62
7
  6
CONTINUOUS
 10
80.0451226271
 20
173.8572876256
 11
80.0451226271
 21
176.1434943935
  0
LINE
  5
2AF
100
AcDbEntity
  8
0
100
AcDbLine
 62
7
  6
CONTINUOUS
 10
80.1865445721
 20
205.4129501193
 11
80.1865445721
 21
222.8362628281
  0
LINE
  5
2B0
100
AcDbEntity
  8
0
100
AcDbLine
 62
7
  6
CONTINUOUS
 10
80.3986745457
 20
175.1228628448
 11
80.3986745457
 21
176.3476164705
  0
LINE
  5
2B1
100
AcDbEntity
  8
0
100
AcDbLine
 62
7
  6
CONTINUOUS
 10
80.3986745457
 20
178.7971237219
 11
80.3986745457
 21
180.0218773476
  0
LINE
  5
2B2
100
AcDbEntity
  8
0
100
AcDbLine
 62
7
  6
CONTINUOUS
 10
81.1057872148
 20
174.028921269
 11
81.1057872148
 21
175.5311332618
  0
LINE
  5
2B3
100
AcDbEntity
  8
0
100
AcDbLine
 62
7
  6
CONTINUOUS
 10
81.1057872148
 20
176.3476356789
 11
81.1057872148
 21
181.9815023571
  0
LINE
  5
2B4
100
AcDbEntity
  8
0
100
AcDbLine
 62
7
  6
CONTINUOUS
 10
82.2581439431
 20
170.2647510716
 11
82.2581439431
 21
166.1005887443
  0
LINE
  5
2B5
100
AcDbEntity
  8
0
100
AcDbLine
 62
7
  6
CONTINUOUS
 10
85.6312894557
 20
179.3687615282
 11
85.6312894557
 21
173.73489485
  0
LINE
  5
2B6
100
AcDbEntity
  8
0
100
AcDbLine
 62
7
  6
CONTINUOUS
 10
85.6312894557
 20
172.9183924328
 11
85.6312894557
 21
171.4161804401
  0
LINE
  5
2B7
100
AcDbEntity
  8
0
100
AcDbLine
 62
7
  6
CONTINUOUS
 10
85.8434294388
 20
172.0610890415
 11
85.8434294388
 21
179.4096107957
  0
LINE
  5
2B8
100
AcDbEntity
  8
0
100
AcDbLine
 62
7
  6
CONTINUOUS
 10
85.9848413743
 20
171.8977608841
 11
85.9848413743
 21
171.9794466695
  0
LINE
  5
2B9
100
AcDbEntity
  8
0
100
AcDbLine
 62
7
  6
CONTINUOUS
 10
86.6919540434
 20
171.5712042153
 11
86.6919540434
 21
170.0198245331
  0
LINE
  5
2BA
100
AcDbEntity
  8
0
100
AcDbLine
 62
7
  6
CONTINUOUS
 10
86.974804999
 20
178.7564255885
 11
86.974804999
 21
171.4079038343
  0
LINE
  5
2BB
100
AcDbEntity
  8
0
100
AcDbLine
 62
7
  6
CONTINUOUS
 10
87.8233296037
 20
169.3666393259
 11
87.8233296037
 21
171.6528460938
  0
LINE
  5
2BC
100
AcDbEntity
  8
0
100
AcDbLine
 62
7
  6
CONTINUOUS
 10
88.14152898
 20
186.8193831963
 11
88.14152898
 21
184.6148266701
  0
LINE
  5
2BD
100
AcDbEntity
  8
0
100
AcDbLine
 62
7
  6
CONTINUOUS
 10
88.1768815223
 20
170.6322145451
 11
88.1768815223
 21
171.8569681708
  0
LINE
  5
2BE
100
AcDbEntity
  8
0
100
AcDbLine
 62
7
  6
CONTINUOUS
 10
88.8839941914
 20
169.5382729693
 11
88.8839941914
 21
171.040484962
  0
LINE
  5
2BF
100
AcDbEntity
  8
0
100
AcDbLine
 62
7
  6
CONTINUOUS
 10
89.0254161364
 20
105.4755456761
 11
89.0254161364
 21
108.3491174286
  0
LINE
  5
2C0
100
AcDbEntity
  8
0
100
AcDbLine
 62
7
  6
CONTINUOUS
 10
89.0254161364
 20
109.9834865149
 11
89.0254161364
 21
114.0707021132
  0
LINE
  5
2C1
100
AcDbEntity
  8
0
100
AcDbLine
 62
7
  6
CONTINUOUS
 10
89.0254161364
 20
115.7063884312
 11
89.0254161364
 21
119.7997027251
  0
LINE
  5
2C2
100
AcDbEntity
  8
0
100
AcDbLine
 62
7
  6
CONTINUOUS
 10
89.0254161364
 20
138.5081233831
 11
89.0254161364
 21
142.601437677
  0
LINE
  5
2C3
100
AcDbEntity
  8
0
100
AcDbLine
 62
7
  6
CONTINUOUS
 10
89.0254161364
 20
144.237123995
 11
89.0254161364
 21
145.076002901
  0
LINE
  5
2C4
100
AcDbEntity
  8
0
100
AcDbLine
 62
7
  6
CONTINUOUS
 10
89.2375372781
 20
177.4500660518
 11
89.2375372781
 21
172.7142851267
  0
LINE
  5
2C5
100
AcDbEntity
  8
0
100
AcDbLine
 62
7
  6
CONTINUOUS
 10
64.8069080501
 20
224.9497010928
 11
66.7161373
 21
226.0519885344
  0
LINE
  5
2C6
100
AcDbEntity
  8
0
100
AcDbLine
 62
7
  6
CONTINUOUS
 10
50.5940355666
 20
216.7436226269
 11
48.6848063168
 21
215.6413351853
  0
LINE
  5
2C7
100
AcDbEntity
  8
0
100
AcDbLine
 62
7
  6
CONTINUOUS
 10
57.0287010735
 20
220.1322218373
 11
58.9379303234
 21
221.2345092788
  0
LINE
  5
2C8
100
AcDbEntity
  8
0
100
AcDbLine
 62
7
  6
CONTINUOUS
 10
107.9050179348
 20
247.8321409187
 11
188.1613034586
 21
294.1678523831
  0
LINE
  5
2C9
100
AcDbEntity
  8
0
100
AcDbLine
 62
7
  6
CONTINUOUS
 10
141.5278212918
 20
265.0396411827
 11
153.7607176756
 21
272.1022650446
  0
LINE
  5
2CA
100
AcDbEntity
  8
0
100
AcDbLine
 62
7
  6
CONTINUOUS
 10
141.7399533261
 20
265.0396416926
 11
153.7607185588
 21
271.9797923084
  0
LINE
  5
2CB
100
AcDbEntity
  8
0
100
AcDbLine
 62
7
  6
CONTINUOUS
 10
64.8069080501
 20
220.2956373152
 11
66.7161373
 21
221.3979247567
  0
LINE
  5
2CC
100
AcDbEntity
  8
0
100
AcDbLine
 62
7
  6
CONTINUOUS
 10
49.9929475324
 20
208.2723851932
 11
48.578739858
 21
207.4558968855
  0
LINE
  5
2CD
100
AcDbEntity
  8
0
100
AcDbLine
 62
7
  6
CONTINUOUS
 10
72.5851150268
 20
220.4590527931
 11
74.4943442766
 21
221.5613402347
  0
LINE
  5
2CE
100
AcDbEntity
  8
0
100
AcDbLine
 62
7
  6
CONTINUOUS
 10
64.8069080501
 20
215.6415735375
 11
66.7161373
 21
216.7438609791
  0
LINE
  5
2CF
100
AcDbEntity
  8
0
100
AcDbLine
 62
7
  6
CONTINUOUS
 10
163.0591761169
 20
271.5103358368
 11
171.5444221634
 21
276.4092656832
  0
LINE
  5
2D0
100
AcDbEntity
  8
0
100
AcDbLine
 62
7
  6
CONTINUOUS
 10
72.5406057238
 20
129.0154028166
 11
73.5194508791
 21
129.1028444719
  0
LINE
  5
2D1
100
AcDbEntity
  8
0
100
AcDbLine
 62
7
  6
CONTINUOUS
 10
76.7689535975
 20
129.3931272558
 11
77.8176745241
 21
129.486811015
  0
LINE
  5
2D2
100
AcDbEntity
  8
0
100
AcDbLine
 62
7
  6
CONTINUOUS
 10
81.0611172249
 20
129.7765524487
 11
82.1301492569
 21
129.8720506283
  0
LINE
  5
2D3
100
AcDbEntity
  8
0
100
AcDbLine
 62
7
  6
CONTINUOUS
 10
98.1623674009
 20
131.3042318934
 11
99.0004869837
 21
131.3791023295
  0
LINE
  5
2D4
100
AcDbEntity
  8
0
100
AcDbLine
 62
7
  6
CONTINUOUS
 10
102.4591050364
 20
131.688065689
 11
103.2990934443
 21
131.76310307
  0
LINE
  5
2D5
100
AcDbEntity
  8
0
100
AcDbLine
 62
7
  6
CONTINUOUS
 10
106.750280743
 20
132.0714026295
 11
107.5419773458
 21
132.1421260336
  0
LINE
  5
2D6
100
AcDbEntity
  8
0
100
AcDbLine
 62
7
  6
CONTINUOUS
 10
42.3561742767
 20
191.6156579976
 11
46.7453791621
 21
189.0816067034
  0
LINE
  5
2D7
100
AcDbEntity
  8
0
100
AcDbLine
 62
7
  6
CONTINUOUS
 10
53.9737549372
 20
184.9083964145
 11
75.0297681679
 21
172.7519765226
  0
LINE
  5
2D8
100
AcDbEntity
  8
0
100
AcDbLine
 62
7
  6
CONTINUOUS
 10
82.2581439431
 20
168.5787662336
 11
103.3141571738
 21
156.4223463418
  0
LINE
  5
2D9
100
AcDbEntity
  8
0
100
AcDbLine
 62
7
  6
CONTINUOUS
 10
110.5425329489
 20
152.2491360528
 11
121.5524634932
 21
145.8926934913
  0
LINE
  5
2DA
100
AcDbEntity
  8
0
100
AcDbLine
 62
7
  6
CONTINUOUS
 10
89.5557366544
 20
186.0029084859
 11
89.5557366544
 21
185.4313149778
  0
LINE
  5
2DB
100
AcDbEntity
  8
0
100
AcDbLine
 62
7
  6
CONTINUOUS
 10
90.4396355867
 20
144.2595213919
 11
90.4396355867
 21
143.4206424859
  0
LINE
  5
2DC
100
AcDbEntity
  8
0
100
AcDbLine
 62
7
  6
CONTINUOUS
 10
90.4396355867
 20
141.784956168
 11
90.4396355867
 21
137.6916418741
  0
LINE
  5
2DD
100
AcDbEntity
  8
0
100
AcDbLine
 62
7
  6
CONTINUOUS
 10
90.4396355867
 20
118.983221216
 11
90.4396355867
 21
114.8899069221
  0
LINE
  5
2DE
100
AcDbEntity
  8
0
100
AcDbLine
 62
7
  6
CONTINUOUS
 10
90.4396355867
 20
113.2542206042
 11
90.4396355867
 21
109.1670050059
  0
LINE
  5
2DF
100
AcDbEntity
  8
0
100
AcDbLine
 62
7
  6
CONTINUOUS
 10
90.4396355867
 20
107.5326359196
 11
90.4396355867
 21
104.659064167
  0
LINE
  5
2E0
100
AcDbEntity
  8
0
100
AcDbLine
 62
7
  6
CONTINUOUS
 10
92.2073951798
 20
140.2522150191
 11
92.2073951798
 21
138.7122522588
  0
LINE
  5
2E1
100
AcDbEntity
  8
0
100
AcDbLine
 62
7
  6
CONTINUOUS
 10
92.2073951798
 20
118.6059063476
 11
92.2073951798
 21
115.9105173068
  0
LINE
  5
2E2
100
AcDbEntity
  8
0
100
AcDbLine
 62
7
  6
CONTINUOUS
 10
92.2073951798
 20
112.7371880625
 11
92.2073951798
 21
110.1876153905
  0
LINE
  5
2E3
100
AcDbEntity
  8
0
100
AcDbLine
 62
7
  6
CONTINUOUS
 10
92.2073951798
 20
106.9272424134
 11
92.2073951798
 21
105.6796745517
  0
LINE
  5
2E4
100
AcDbEntity
  8
0
100
AcDbLine
 62
7
  6
CONTINUOUS
 10
93.4094964323
 20
168.4277441331
 11
93.4094964323
 21
166.9255321403
  0
LINE
  5
2E5
100
AcDbEntity
  8
0
100
AcDbLine
 62
7
  6
CONTINUOUS
 10
93.6216364154
 20
167.5704407418
 11
93.6216364154
 21
174.918962496
  0
LINE
  5
2E6
100
AcDbEntity
  8
0
100
AcDbLine
 62
7
  6
CONTINUOUS
 10
93.7630483509
 20
167.4071125844
 11
93.7630483509
 21
167.4887983698
  0
LINE
  5
2E7
100
AcDbEntity
  8
0
100
AcDbLine
 62
7
  6
CONTINUOUS
 10
94.1519616437
 20
181.1447802567
 11
94.1519616437
 21
183.3493367829
  0
LINE
  5
2E8
100
AcDbEntity
  8
0
100
AcDbLine
 62
7
  6
CONTINUOUS
 10
94.4701610201
 20
167.0805559156
 11
94.4701610201
 21
165.5291762334
  0
LINE
  5
2E9
100
AcDbEntity
  8
0
100
AcDbLine
 62
7
  6
CONTINUOUS
 10
94.7530119756
 20
174.2657772888
 11
94.7530119756
 21
166.9172555346
  0
LINE
  5
2EA
100
AcDbEntity
  8
0
100
AcDbLine
 62
7
  6
CONTINUOUS
 10
95.6015365803
 20
164.8759910261
 11
95.6015365803
 21
167.1621977941
  0
LINE
  5
2EB
100
AcDbEntity
  8
0
100
AcDbLine
 62
7
  6
CONTINUOUS
 10
95.9197359566
 20
182.3287348966
 11
95.9197359566
 21
180.1241783704
  0
LINE
  5
2EC
100
AcDbEntity
  8
0
100
AcDbLine
 62
7
  6
CONTINUOUS
 10
95.9550884989
 20
166.1415662453
 11
95.9550884989
 21
167.366319871
  0
LINE
  5
2ED
100
AcDbEntity
  8
0
100
AcDbLine
 62
7
  6
CONTINUOUS
 10
96.662201168
 20
165.0476246695
 11
96.662201168
 21
166.5498366623
  0
LINE
  5
2EE
100
AcDbEntity
  8
0
100
AcDbLine
 62
7
  6
CONTINUOUS
 10
97.0157442547
 20
172.9594177521
 11
97.0157442547
 21
168.223636827
  0
LINE
  5
2EF
100
AcDbEntity
  8
0
100
AcDbLine
 62
7
  6
CONTINUOUS
 10
97.333943631
 20
181.5122601862
 11
97.333943631
 21
180.9406666781
  0
LINE
  5
2F0
100
AcDbEntity
  8
0
100
AcDbLine
 62
7
  6
CONTINUOUS
 10
98.0057096458
 20
188.7995473918
 11
98.0057096458
 21
191.004103918
  0
LINE
  5
2F1
100
AcDbEntity
  8
0
100
AcDbLine
 62
7
  6
CONTINUOUS
 10
99.2076377931
 20
218.9128373029
 11
99.2076377931
 21
219.8182617332
  0
LINE
  5
2F2
100
AcDbEntity
  8
0
100
AcDbLine
 62
7
  6
CONTINUOUS
 10
99.9147698924
 20
212.8474436449
 11
99.9147698924
 21
215.314022344
  0
LINE
  5
2F3
100
AcDbEntity
  8
0
100
AcDbLine
 62
7
  6
CONTINUOUS
 10
107.2288917454
 20
225.45940607
 11
107.9050179348
 21
225.9321652123
  0
LINE
  5
2F4
100
AcDbEntity
  8
0
100
AcDbLine
 62
7
  6
CONTINUOUS
 10
107.2286043334
 20
225.462426453
 11
107.9048590991
 21
225.9338494645
  0
LINE
  5
2F5
100
AcDbEntity
  8
0
100
AcDbLine
 62
7
  6
CONTINUOUS
 10
42.3561742767
 20
191.6156579976
 11
32.9755332614
 21
185.6007099644
  0
LINE
  5
2F6
100
AcDbEntity
  8
0
100
AcDbLine
 62
7
  6
CONTINUOUS
 10
182.0095677861
 20
281.2265517979
 11
193.9949778269
 21
288.1462902061
  0
LINE
  5
2F7
100
AcDbEntity
  8
0
100
AcDbLine
 62
7
  6
CONTINUOUS
 10
112.9962008904
 20
241.381826082
 11
112.1476762857
 21
240.8919330974
  0
LINE
  5
2F8
100
AcDbEntity
  8
0
100
AcDbLine
 62
7
  6
CONTINUOUS
 10
164.4734200056
 20
270.6938402185
 11
171.5444221634
 21
274.776260849
  0
LINE
  5
2F9
100
AcDbEntity
  8
0
100
AcDbLine
 62
7
  6
CONTINUOUS
 10
57.0287010735
 20
208.3745870306
 11
59.1500125852
 21
209.5993194922
  0
LINE
  5
2FA
100
AcDbEntity
  8
0
100
AcDbLine
 62
7
  6
CONTINUOUS
 10
165.32194801
 20
270.2039534295
 11
171.5444309953
 21
273.7964842115
  0
LINE
  5
2FB
100
AcDbEntity
  8
0
100
AcDbLine
 62
7
  6
CONTINUOUS
 10
183.4238116749
 20
280.4100561797
 11
193.9949778269
 21
286.5132853718
  0
LINE
  5
2FC
100
AcDbEntity
  8
0
100
AcDbLine
 62
7
  6
CONTINUOUS
 10
72.5851150268
 20
215.8049890154
 11
74.4943442766
 21
216.907276457
  0
LINE
  5
2FD
100
AcDbEntity
  8
0
100
AcDbLine
 62
7
  6
CONTINUOUS
 10
44.477505285
 20
196.9229518964
 11
44.2653705346
 21
196.8004765723
  0
LINE
  5
2FE
100
AcDbEntity
  8
0
100
AcDbLine
 62
7
  6
CONTINUOUS
 10
57.0287010735
 20
202.577419869
 11
58.442908748
 21
203.3939081767
  0
LINE
  5
2FF
100
AcDbEntity
  8
0
100
AcDbLine
 62
7
  6
CONTINUOUS
 10
72.5851150268
 20
211.1509252378
 11
74.4943442766
 21
212.2532126794
  0
LINE
  5
300
100
AcDbEntity
  8
0
100
AcDbLine
 62
7
  6
CONTINUOUS
 10
178.1561920823
 20
270.4286903464
 11
171.5444928186
 21
266.6114467825
  0
LINE
  5
301
100
AcDbEntity
  8
0
100
AcDbLine
 62
7
  6
CONTINUOUS
 10
189.7877992012
 20
276.735889389
 11
196.1163423299
 21
280.3896536579
  0
LINE
  5
302
100
AcDbEntity
  8
0
100
AcDbLine
 62
7
  6
CONTINUOUS
 10
189.9292235901
 20
276.6542398272
 11
196.1163423299
 21
280.2263531745
  0
LINE
  5
303
100
AcDbEntity
  8
0
100
AcDbLine
 62
7
  6
CONTINUOUS
 10
54.8013125048
 20
198.5561335448
 11
55.6498371095
 21
199.0460265295
  0
LINE
  5
304
100
AcDbEntity
  8
0
100
AcDbLine
 62
7
  6
CONTINUOUS
 10
121.3753622256
 20
236.9521599676
 11
121.8986221268
 21
237.2542624091
  0
LINE
  5
305
100
AcDbEntity
  8
0
100
AcDbLine
 62
7
  6
CONTINUOUS
 10
64.8069080501
 20
203.8839387309
 11
66.9282195618
 21
205.1086711925
  0
LINE
  5
306
100
AcDbEntity
  8
0
100
AcDbLine
 62
7
  6
CONTINUOUS
 10
110.0265749733
 20
156.5478796339
 11
103.3797435569
 21
160.3853427264
  0
LINE
  5
307
100
AcDbEntity
  8
0
100
AcDbLine
 62
7
  6
CONTINUOUS
 10
102.2483679967
 20
161.0385279336
 11
95.6015365803
 21
164.8759910261
  0
LINE
  5
308
100
AcDbEntity
  8
0
100
AcDbLine
 62
7
  6
CONTINUOUS
 10
94.4701610201
 20
165.5291762334
 11
87.8233296037
 21
169.3666393259
  0
LINE
  5
309
100
AcDbEntity
  8
0
100
AcDbLine
 62
7
  6
CONTINUOUS
 10
86.6919540434
 20
170.0198245331
 11
80.0451226271
 21
173.8572876256
  0
LINE
  5
30A
100
AcDbEntity
  8
0
100
AcDbLine
 62
7
  6
CONTINUOUS
 10
78.9137470668
 20
174.5104728328
 11
72.2669156504
 21
178.3479359253
  0
LINE
  5
30B
100
AcDbEntity
  8
0
100
AcDbLine
 62
7
  6
CONTINUOUS
 10
108.9659103856
 20
157.9442355409
 11
104.4404081446
 21
160.5569763698
  0
LINE
  5
30C
100
AcDbEntity
  8
0
100
AcDbLine
 62
7
  6
CONTINUOUS
 10
101.187703409
 20
162.4348838406
 11
96.662201168
 21
165.0476246695
  0
LINE
  5
30D
100
AcDbEntity
  8
0
100
AcDbLine
 62
7
  6
CONTINUOUS
 10
93.4094964323
 20
166.9255321403
 11
88.8839941914
 21
169.5382729693
  0
LINE
  5
30E
100
AcDbEntity
  8
0
100
AcDbLine
 62
7
  6
CONTINUOUS
 10
85.6312894557
 20
171.4161804401
 11
81.1057872148
 21
174.028921269
  0
LINE
  5
30F
100
AcDbEntity
  8
0
100
AcDbLine
 62
7
  6
CONTINUOUS
 10
77.8530824791
 20
175.9068287398
 11
73.3275802382
 21
178.5195695687
  0
LINE
  5
310
100
AcDbEntity
  8
0
100
AcDbLine
 62
7
  6
CONTINUOUS
 10
110.0265749733
 20
158.0175735307
 11
109.3194623042
 21
158.4258159849
  0
LINE
  5
311
100
AcDbEntity
  8
0
100
AcDbLine
 62
7
  6
CONTINUOUS
 10
104.4404081446
 20
161.2426754914
 11
103.7332954755
 21
161.6509179456
  0
LINE
  5
312
100
AcDbEntity
  8
0
100
AcDbLine
 62
7
  6
CONTINUOUS
 10
102.2483679967
 20
162.5082218304
 11
101.5412553276
 21
162.9164642846
  0
LINE
  5
313
100
AcDbEntity
  8
0
100
AcDbLine
 62
7
  6
CONTINUOUS
 10
96.662201168
 20
165.7333237912
 11
95.9550884989
 21
166.1415662453
  0
LINE
  5
314
100
AcDbEntity
  8
0
100
AcDbLine
 62
7
  6
CONTINUOUS
 10
94.4701610201
 20
166.9988701302
 11
93.7630483509
 21
167.4071125844
  0
LINE
  5
315
100
AcDbEntity
  8
0
100
AcDbLine
 62
7
  6
CONTINUOUS
 10
88.8839941914
 20
170.2239720909
 11
88.1768815223
 21
170.6322145451
  0
LINE
  5
316
100
AcDbEntity
  8
0
100
AcDbLine
 62
7
  6
CONTINUOUS
 10
86.6919540434
 20
171.4895184299
 11
85.9848413743
 21
171.8977608841
  0
LINE
  5
317
100
AcDbEntity
  8
0
100
AcDbLine
 62
7
  6
CONTINUOUS
 10
81.1057872148
 20
174.7146203906
 11
80.3986745457
 21
175.1228628448
  0
LINE
  5
318
100
AcDbEntity
  8
0
100
AcDbLine
 62
7
  6
CONTINUOUS
 10
78.9137470668
 20
175.9801667296
 11
78.2066343977
 21
176.3884091838
  0
LINE
  5
319
100
AcDbEntity
  8
0
100
AcDbLine
 62
7
  6
CONTINUOUS
 10
73.3275802382
 20
179.2052686903
 11
72.6204675691
 21
179.6135111445
  0
LINE
  5
31A
100
AcDbEntity
  8
0
100
AcDbLine
 62
7
  6
CONTINUOUS
 10
110.2387149564
 20
157.9767830106
 11
109.1780503686
 21
158.5891441424
  0
LINE
  5
31B
100
AcDbEntity
  8
0
100
AcDbLine
 62
7
  6
CONTINUOUS
 10
102.5312189523
 20
162.4266072349
 11
101.399843392
 21
163.0797924421
  0
LINE
  5
31C
100
AcDbEntity
  8
0
100
AcDbLine
 62
7
  6
CONTINUOUS
 10
94.7530119756
 20
166.9172555346
 11
93.6216364154
 21
167.5704407418
  0
LINE
  5
31D
100
AcDbEntity
  8
0
100
AcDbLine
 62
7
  6
CONTINUOUS
 10
86.974804999
 20
171.4079038343
 11
85.8434294388
 21
172.0610890415
  0
LINE
  5
31E
100
AcDbEntity
  8
0
100
AcDbLine
 62
7
  6
CONTINUOUS
 10
79.1965980224
 20
175.898552134
 11
78.0652224622
 21
176.5517373413
  0
LINE
  5
31F
100
AcDbEntity
  8
0
100
AcDbLine
 62
7
  6
CONTINUOUS
 10
71.4183910458
 20
180.3892004338
 11
70.2870154856
 21
181.042385641
  0
LINE
  5
320
100
AcDbEntity
  8
0
100
AcDbLine
 62
7
  6
CONTINUOUS
 10
63.6401840692
 20
184.8798487335
 11
62.5088085089
 21
185.5330339407
  0
LINE
  5
321
100
AcDbEntity
  8
0
100
AcDbLine
 62
7
  6
CONTINUOUS
 10
55.8619770926
 20
189.3704970332
 11
54.8013125048
 21
189.982858165
  0
LINE
  5
322
100
AcDbEntity
  8
0
100
AcDbLine
 62
7
  6
CONTINUOUS
 10
119.6432672353
 20
153.2820121404
 11
110.8751029777
 21
158.3441996128
  0
LINE
  5
323
100
AcDbEntity
  8
0
100
AcDbLine
 62
7
  6
CONTINUOUS
 10
103.3797435569
 20
162.6715494944
 11
103.1676069736
 21
162.7940238371
  0
LINE
  5
324
100
AcDbEntity
  8
0
100
AcDbLine
 62
7
  6
CONTINUOUS
 10
95.6015365803
 20
167.1621977941
 11
95.389399997
 21
167.2846721368
  0
LINE
  5
325
100
AcDbEntity
  8
0
100
AcDbLine
 62
7
  6
CONTINUOUS
 10
87.8233296037
 20
171.6528460938
 11
87.6111930204
 21
171.7753204366
  0
LINE
  5
326
100
AcDbEntity
  8
0
100
AcDbLine
 62
7
  6
CONTINUOUS
 10
80.0451226271
 20
176.1434943935
 11
79.8329860437
 21
176.2659687363
  0
LINE
  5
327
100
AcDbEntity
  8
0
100
AcDbLine
 62
7
  6
CONTINUOUS
 10
72.2669156504
 20
180.6341426933
 11
72.0547790671
 21
180.756617036
  0
LINE
  5
328
100
AcDbEntity
  8
0
100
AcDbLine
 62
7
  6
CONTINUOUS
 10
70.2870154856
 20
181.7772127267
 11
64.2765720905
 21
185.2472653357
  0
LINE
  5
329
100
AcDbEntity
  8
0
100
AcDbLine
 62
7
  6
CONTINUOUS
 10
62.5088085089
 20
186.2678610265
 11
56.4983651139
 21
189.7379136355
  0
LINE
  5
32A
100
AcDbEntity
  8
0
100
AcDbLine
 62
7
  6
CONTINUOUS
 10
54.8013125048
 20
190.7176852507
 11
44.2653705346
 21
196.8004765723
  0
LINE
  5
32B
100
AcDbEntity
  8
0
100
AcDbLine
 62
7
  6
CONTINUOUS
 10
73.3275802382
 20
180.0217815615
 11
77.8530824791
 21
177.4090407326
  0
LINE
  5
32C
100
AcDbEntity
  8
0
100
AcDbLine
 62
7
  6
CONTINUOUS
 10
81.1057872148
 20
175.5311332618
 11
85.6312894557
 21
172.9183924328
  0
LINE
  5
32D
100
AcDbEntity
  8
0
100
AcDbLine
 62
7
  6
CONTINUOUS
 10
88.8839941914
 20
171.040484962
 11
93.4094964323
 21
168.4277441331
  0
LINE
  5
32E
100
AcDbEntity
  8
0
100
AcDbLine
 62
7
  6
CONTINUOUS
 10
96.662201168
 20
166.5498366623
 11
101.187703409
 21
163.9370958334
  0
LINE
  5
32F
100
AcDbEntity
  8
0
100
AcDbLine
 62
7
  6
CONTINUOUS
 10
104.4404081446
 20
162.0591883626
 11
108.9659103856
 21
159.4464475337
  0
LINE
  5
330
100
AcDbEntity
  8
0
100
AcDbLine
 62
7
  6
CONTINUOUS
 10
119.4311343177
 20
153.6494350919
 11
111.087239561
 21
158.4666759952
  0
LINE
  5
331
100
AcDbEntity
  8
0
100
AcDbLine
 62
7
  6
CONTINUOUS
 10
54.8013125048
 20
190.9626359759
 11
44.4775034522
 21
196.9229550711
  0
LINE
  5
332
100
AcDbEntity
  8
0
100
AcDbLine
 62
7
  6
CONTINUOUS
 10
104.7939600632
 20
162.2633104395
 11
103.7332954755
 21
162.8756715713
  0
LINE
  5
333
100
AcDbEntity
  8
0
100
AcDbLine
 62
7
  6
CONTINUOUS
 10
97.0157530866
 20
166.7539587393
 11
95.9550884989
 21
167.366319871
  0
LINE
  5
334
100
AcDbEntity
  8
0
100
AcDbLine
 62
7
  6
CONTINUOUS
 10
89.23754611
 20
171.244607039
 11
88.1768815223
 21
171.8569681708
  0
LINE
  5
335
100
AcDbEntity
  8
0
100
AcDbLine
 62
7
  6
CONTINUOUS
 10
81.4593391334
 20
175.7352553387
 11
80.3986745457
 21
176.3476164705
  0
LINE
  5
336
100
AcDbEntity
  8
0
100
AcDbLine
 62
7
  6
CONTINUOUS
 10
73.6811321568
 20
180.2259036384
 11
72.6204675691
 21
180.8382647702
  0
LINE
  5
337
100
AcDbEntity
  8
0
100
AcDbLine
 62
7
  6
CONTINUOUS
 10
69.9334506135
 20
182.3895796374
 11
68.8727860258
 21
183.0019407692
  0
LINE
  5
338
100
AcDbEntity
  8
0
100
AcDbLine
 62
7
  6
CONTINUOUS
 10
67.4585665755
 20
183.8184222782
 11
66.3979019878
 21
184.43078341
  0
LINE
  5
339
100
AcDbEntity
  8
0
100
AcDbLine
 62
7
  6
CONTINUOUS
 10
85.6312894557
 20
173.73489485
 11
81.1057872148
 21
176.3476356789
  0
LINE
  5
33A
100
AcDbEntity
  8
0
100
AcDbLine
 62
7
  6
CONTINUOUS
 10
77.8530824791
 20
178.2255431497
 11
73.3275802382
 21
180.8382839786
  0
LINE
  5
33B
100
AcDbEntity
  8
0
100
AcDbLine
 62
7
  6
CONTINUOUS
 10
70.0748755025
 20
182.7161914494
 11
65.5493732615
 21
185.3289322783
  0
LINE
  5
33C
100
AcDbEntity
  8
0
100
AcDbLine
 62
7
  6
CONTINUOUS
 10
62.2966685259
 20
187.2068397491
 11
57.7711662849
 21
189.8195805781
  0
LINE
  5
33D
100
AcDbEntity
  8
0
100
AcDbLine
 62
7
  6
CONTINUOUS
 10
89.0254006948
 20
172.5918087443
 11
93.6216364154
 21
169.9382308457
  0
LINE
  5
33E
100
AcDbEntity
  8
0
100
AcDbLine
 62
7
  6
CONTINUOUS
 10
96.8036076714
 20
168.1011604446
 11
101.399843392
 21
165.447582546
  0
LINE
  5
33F
100
AcDbEntity
  8
0
100
AcDbLine
 62
7
  6
CONTINUOUS
 10
104.581814648
 20
163.6105121449
 11
109.1780503686
 21
160.9569342463
  0
LINE
  5
340
100
AcDbEntity
  8
0
100
AcDbLine
 62
7
  6
CONTINUOUS
 10
57.0640536158
 20
192.269068621
 11
57.7711662849
 21
191.8608261669
  0
LINE
  5
341
100
AcDbEntity
  8
0
100
AcDbLine
 62
7
  6
CONTINUOUS
 10
72.6204675691
 20
183.2877720216
 11
73.3275802382
 21
182.8795295674
  0
LINE
  5
342
100
AcDbEntity
  8
0
100
AcDbLine
 62
7
  6
CONTINUOUS
 10
80.3986745457
 20
178.7971237219
 11
81.1057872148
 21
178.3888812677
  0
LINE
  5
343
100
AcDbEntity
  8
0
100
AcDbLine
 62
7
  6
CONTINUOUS
 10
81.1057872148
 20
179.6136348934
 11
80.3986745457
 21
180.0218773476
  0
LINE
  5
344
100
AcDbEntity
  8
0
100
AcDbLine
 62
7
  6
CONTINUOUS
 10
73.3275802382
 20
184.1042831931
 11
72.6204675691
 21
184.5125256473
  0
LINE
  5
345
100
AcDbEntity
  8
0
100
AcDbLine
 62
7
  6
CONTINUOUS
 10
57.7711662849
 20
193.0855797926
 11
57.0640536158
 21
193.4938222467
  0
LINE
  5
346
100
AcDbEntity
  8
0
100
AcDbLine
 62
7
  6
CONTINUOUS
 10
57.7711662849
 20
195.4534472563
 11
62.2966685259
 21
192.8407064273
  0
LINE
  5
347
100
AcDbEntity
  8
0
100
AcDbLine
 62
7
  6
CONTINUOUS
 10
65.5493732615
 20
190.9627989565
 11
70.0748755025
 21
188.3500581276
  0
LINE
  5
348
100
AcDbEntity
  8
0
100
AcDbLine
 62
7
  6
CONTINUOUS
 10
73.3275802382
 20
186.4721506568
 11
77.8530824791
 21
183.8594098279
  0
LINE
  5
349
100
AcDbEntity
  8
0
100
AcDbLine
 62
7
  6
CONTINUOUS
 10
81.1057872148
 20
181.9815023571
 11
85.6312894557
 21
179.3687615282
  0
LINE
  5
34A
100
AcDbEntity
  8
0
100
AcDbLine
 62
7
  6
CONTINUOUS
 10
109.1780503686
 20
165.9376658965
 11
102.5312189523
 21
169.775128989
  0
LINE
  5
34B
100
AcDbEntity
  8
0
100
AcDbLine
 62
7
  6
CONTINUOUS
 10
101.399843392
 20
170.4283141963
 11
94.7530119756
 21
174.2657772888
  0
LINE
  5
34C
100
AcDbEntity
  8
0
100
AcDbLine
 62
7
  6
CONTINUOUS
 10
93.6216364154
 20
174.918962496
 11
86.974804999
 21
178.7564255885
  0
LINE
  5
34D
100
AcDbEntity
  8
0
100
AcDbLine
 62
7
  6
CONTINUOUS
 10
85.8434294388
 20
179.4096107957
 11
79.1965980224
 21
183.2470738882
  0
LINE
  5
34E
100
AcDbEntity
  8
0
100
AcDbLine
 62
7
  6
CONTINUOUS
 10
78.0652224622
 20
183.9002590954
 11
71.4183910458
 21
187.7377221879
  0
LINE
  5
34F
100
AcDbEntity
  8
0
100
AcDbLine
 62
7
  6
CONTINUOUS
 10
70.2870154856
 20
188.3909073952
 11
63.6401840692
 21
192.2283704877
  0
LINE
  5
350
100
AcDbEntity
  8
0
100
AcDbLine
 62
7
  6
CONTINUOUS
 10
62.5088085089
 20
192.8815556949
 11
55.8619770926
 21
196.7190187874
  0
LINE
  5
351
100
AcDbEntity
  8
0
100
AcDbLine
 62
7
  6
CONTINUOUS
 10
54.8013125048
 20
198.5561335448
 11
110.2387149564
 21
166.5500583905
  0
LINE
  5
352
100
AcDbEntity
  8
0
100
AcDbLine
 62
7
  6
CONTINUOUS
 10
55.6498371095
 20
199.0460265295
 11
111.087239561
 21
167.0399513751
  0
LINE
  5
353
100
AcDbEntity
  8
0
100
AcDbLine
 62
7
  6
CONTINUOUS
 10
100.7425329489
 20
153.9351208908
 11
100.7425329489
 21
149.7709585635
  0
LINE
  5
354
100
AcDbEntity
  8
0
100
AcDbLine
 62
7
  6
CONTINUOUS
 10
101.187703409
 20
163.9370958334
 11
101.187703409
 21
162.4348838406
  0
LINE
  5
355
100
AcDbEntity
  8
0
100
AcDbLine
 62
7
  6
CONTINUOUS
 10
101.399843392
 20
163.0797924421
 11
101.399843392
 21
170.4283141963
  0
LINE
  5
356
100
AcDbEntity
  8
0
100
AcDbLine
 62
7
  6
CONTINUOUS
 10
101.5412553276
 20
162.9164642846
 11
101.5412553276
 21
162.99815007
  0
LINE
  5
357
100
AcDbEntity
  8
0
100
AcDbLine
 62
7
  6
CONTINUOUS
 10
101.9301686204
 20
176.6541319569
 11
101.9301686204
 21
178.8586884832
  0
LINE
  5
358
100
AcDbEntity
  8
0
100
AcDbLine
 62
7
  6
CONTINUOUS
 10
102.2483679967
 20
162.5899076159
 11
102.2483679967
 21
161.0385279336
  0
LINE
  5
359
100
AcDbEntity
  8
0
100
AcDbLine
 62
7
  6
CONTINUOUS
 10
102.3896333227
 20
214.6100963317
 11
102.3896333227
 21
217.0757528878
  0
LINE
  5
35A
100
AcDbEntity
  8
0
100
AcDbLine
 62
7
  6
CONTINUOUS
 10
102.5312189523
 20
169.775128989
 11
102.5312189523
 21
162.4266072349
  0
LINE
  5
35B
100
AcDbEntity
  8
0
100
AcDbLine
 62
7
  6
CONTINUOUS
 10
103.3797435569
 20
160.3853427264
 11
103.3797435569
 21
162.6715494944
  0
LINE
  5
35C
100
AcDbEntity
  8
0
100
AcDbLine
 62
7
  6
CONTINUOUS
 10
103.6979429332
 20
177.8380865969
 11
103.6979429332
 21
175.6335300706
  0
LINE
  5
35D
100
AcDbEntity
  8
0
100
AcDbLine
 62
7
  6
CONTINUOUS
 10
103.7332954755
 20
161.6509179456
 11
103.7332954755
 21
162.8756715713
  0
LINE
  5
35E
100
AcDbEntity
  8
0
100
AcDbLine
 62
7
  6
CONTINUOUS
 10
104.4404081446
 20
160.5569763698
 11
104.4404081446
 21
162.0591883626
  0
LINE
  5
35F
100
AcDbEntity
  8
0
100
AcDbLine
 62
7
  6
CONTINUOUS
 10
104.7939512313
 20
168.4687694524
 11
104.7939512313
 21
163.7329885273
  0
LINE
  5
360
100
AcDbEntity
  8
0
100
AcDbLine
 62
7
  6
CONTINUOUS
 10
105.1121506077
 20
177.0216118865
 11
105.1121506077
 21
176.4500183784
  0
LINE
  5
361
100
AcDbEntity
  8
0
100
AcDbLine
 62
7
  6
CONTINUOUS
 10
105.9606940537
 20
186.4113954297
 11
105.9606940537
 21
184.2068389034
  0
LINE
  5
362
100
AcDbEntity
  8
0
100
AcDbLine
 62
7
  6
CONTINUOUS
 10
107.7284683666
 20
183.1862370171
 11
107.7284683666
 21
185.3907935434
  0
LINE
  5
363
100
AcDbEntity
  8
0
100
AcDbLine
 62
7
  6
CONTINUOUS
 10
107.9050179348
 20
225.4834597395
 11
107.9050179348
 21
247.8321409187
  0
LINE
  5
364
100
AcDbEntity
  8
0
100
AcDbLine
 62
7
  6
CONTINUOUS
 10
108.9659103856
 20
159.4464475337
 11
108.9659103856
 21
157.9442355409
  0
LINE
  5
365
100
AcDbEntity
  8
0
100
AcDbLine
 62
7
  6
CONTINUOUS
 10
109.1780503686
 20
158.5891441424
 11
109.1780503686
 21
165.9376658965
  0
LINE
  5
366
100
AcDbEntity
  8
0
100
AcDbLine
 62
7
  6
CONTINUOUS
 10
109.3192373851
 20
242.5248961155
 11
109.3192373851
 21
224.6669782304
  0
LINE
  5
367
100
AcDbEntity
  8
0
100
AcDbLine
 62
7
  6
CONTINUOUS
 10
109.3194623042
 20
158.4258159849
 11
109.3194623042
 21
158.5075017703
  0
LINE
  5
368
100
AcDbEntity
  8
0
100
AcDbLine
 62
7
  6
CONTINUOUS
 10
109.708375597
 20
172.1634836572
 11
109.708375597
 21
174.3680401835
  0
LINE
  5
369
100
AcDbEntity
  8
0
100
AcDbLine
 62
7
  6
CONTINUOUS
 10
110.0265749733
 20
158.0992593161
 11
110.0265749733
 21
156.5478796339
  0
LINE
  5
36A
100
AcDbEntity
  8
0
100
AcDbLine
 62
7
  6
CONTINUOUS
 10
110.2387078908
 20
124.3525478276
 11
110.2387078908
 21
109.4608330093
  0
LINE
  5
36B
100
AcDbEntity
  8
0
100
AcDbLine
 62
7
  6
CONTINUOUS
 10
110.2387149564
 20
166.5500583905
 11
110.2387149564
 21
157.9767830106
  0
LINE
  5
36C
100
AcDbEntity
  8
0
100
AcDbLine
 62
7
  6
CONTINUOUS
 10
110.5425329489
 20
153.9351208908
 11
110.5425329489
 21
149.7709585635
  0
LINE
  5
36D
100
AcDbEntity
  8
0
100
AcDbLine
 62
7
  6
CONTINUOUS
 10
98.995506642
 20
219.0353085095
 11
99.2075682379
 21
219.1858332556
  0
LINE
  5
36E
100
AcDbEntity
  8
0
100
AcDbLine
 62
7
  6
CONTINUOUS
 10
120.8450299317
 20
233.6657298981
 11
122.824971376
 21
234.8088428005
  0
LINE
  5
36F
100
AcDbEntity
  8
0
100
AcDbLine
 62
7
  6
CONTINUOUS
 10
57.9126124024
 20
195.5351107228
 11
57.7711662849
 21
195.4534472563
  0
LINE
  5
370
100
AcDbEntity
  8
0
100
AcDbLine
 62
7
  6
CONTINUOUS
 10
64.8069080501
 20
198.0867715692
 11
66.2211157246
 21
198.903259877
  0
LINE
  5
371
100
AcDbEntity
  8
0
100
AcDbLine
 62
7
  6
CONTINUOUS
 10
57.0640536158
 20
193.4938222467
 11
57.7711662849
 21
193.9020714997
  0
LINE
  5
372
100
AcDbEntity
  8
0
100
AcDbLine
 62
7
  6
CONTINUOUS
 10
72.5851150268
 20
199.3932904311
 11
74.7064265384
 21
200.6180228928
  0
LINE
  5
373
100
AcDbEntity
  8
0
100
AcDbLine
 62
7
  6
CONTINUOUS
 10
69.0143848713
 20
197.2906016664
 11
69.5094064467
 21
197.5764008002
  0
LINE
  5
374
100
AcDbEntity
  8
0
100
AcDbLine
 62
7
  6
CONTINUOUS
 10
55.8619770926
 20
189.3704970332
 11
57.7711662849
 21
190.4727613477
  0
LINE
  5
375
100
AcDbEntity
  8
0
100
AcDbLine
 62
7
  6
CONTINUOUS
 10
62.4381146434
 20
192.9223698939
 11
62.2966685259
 21
192.8407064273
  0
LINE
  5
376
100
AcDbEntity
  8
0
100
AcDbLine
 62
7
  6
CONTINUOUS
 10
65.690819379
 20
191.0444624231
 11
65.5493732615
 21
190.9627989565
  0
LINE
  5
377
100
AcDbEntity
  8
0
100
AcDbLine
 62
7
  6
CONTINUOUS
 10
115.3298979119
 20
168.9179696588
 11
111.4761499098
 21
171.1428817709
  0
LINE
  5
378
100
AcDbEntity
  8
0
100
AcDbLine
 62
7
  6
CONTINUOUS
 10
109.708375597
 20
172.1634836572
 11
103.6979429332
 21
175.6335300706
  0
LINE
  5
379
100
AcDbEntity
  8
0
100
AcDbLine
 62
7
  6
CONTINUOUS
 10
101.9301686204
 20
176.6541319569
 11
95.9197359566
 21
180.1241783704
  0
LINE
  5
37A
100
AcDbEntity
  8
0
100
AcDbLine
 62
7
  6
CONTINUOUS
 10
94.1519616437
 20
181.1447802567
 11
88.14152898
 21
184.6148266701
  0
LINE
  5
37B
100
AcDbEntity
  8
0
100
AcDbLine
 62
7
  6
CONTINUOUS
 10
78.5955476905
 20
190.1260768561
 11
72.5851150268
 21
193.5961232695
  0
LINE
  5
37C
100
AcDbEntity
  8
0
100
AcDbLine
 62
7
  6
CONTINUOUS
 10
70.8173407139
 20
194.6167251558
 11
64.8069080501
 21
198.0867715692
  0
LINE
  5
37D
100
AcDbEntity
  8
0
100
AcDbLine
 62
7
  6
CONTINUOUS
 10
63.0391337373
 20
199.1073734555
 11
57.0287010735
 21
202.577419869
  0
LINE
  5
37E
100
AcDbEntity
  8
0
100
AcDbLine
 62
7
  6
CONTINUOUS
 10
55.2609267607
 20
203.5980217553
 11
48.578739858
 21
207.4558968855
  0
LINE
  5
37F
100
AcDbEntity
  8
0
100
AcDbLine
 62
7
  6
CONTINUOUS
 10
115.3298979119
 20
170.5509326769
 11
112.8903575843
 21
171.9593700786
  0
LINE
  5
380
100
AcDbEntity
  8
0
100
AcDbLine
 62
7
  6
CONTINUOUS
 10
109.708375597
 20
173.7964466753
 11
105.1121506077
 21
176.4500183784
  0
LINE
  5
381
100
AcDbEntity
  8
0
100
AcDbLine
 62
7
  6
CONTINUOUS
 10
101.9301686204
 20
178.2870949751
 11
97.333943631
 21
180.9406666781
  0
LINE
  5
382
100
AcDbEntity
  8
0
100
AcDbLine
 62
7
  6
CONTINUOUS
 10
94.1519616437
 20
182.7777432748
 11
89.5557366544
 21
185.4313149778
  0
LINE
  5
383
100
AcDbEntity
  8
0
100
AcDbLine
 62
7
  6
CONTINUOUS
 10
78.5955476905
 20
191.7590398742
 11
73.9993227012
 21
194.4126115773
  0
LINE
  5
384
100
AcDbEntity
  8
0
100
AcDbLine
 62
7
  6
CONTINUOUS
 10
70.8173407139
 20
196.249688174
 11
66.2211157246
 21
198.903259877
  0
LINE
  5
385
100
AcDbEntity
  8
0
100
AcDbLine
 62
7
  6
CONTINUOUS
 10
63.0391337373
 20
200.7403364737
 11
58.442908748
 21
203.3939081767
  0
LINE
  5
386
100
AcDbEntity
  8
0
100
AcDbLine
 62
7
  6
CONTINUOUS
 10
55.2609267607
 20
205.2309847734
 11
49.9929475324
 21
208.2723851932
  0
LINE
  5
387
100
AcDbEntity
  8
0
100
AcDbLine
 62
7
  6
CONTINUOUS
 10
48.578739858
 20
209.6604534117
 11
55.2609267607
 21
205.8025782815
  0
LINE
  5
388
100
AcDbEntity
  8
0
100
AcDbLine
 62
7
  6
CONTINUOUS
 10
57.0287010735
 20
204.7819763952
 11
63.0391337373
 21
201.3119299818
  0
LINE
  5
389
100
AcDbEntity
  8
0
100
AcDbLine
 62
7
  6
CONTINUOUS
 10
64.8069080501
 20
200.2913280955
 11
70.8173407139
 21
196.8212816821
  0
LINE
  5
38A
100
AcDbEntity
  8
0
100
AcDbLine
 62
7
  6
CONTINUOUS
 10
72.5851150268
 20
195.8006797958
 11
78.5955476905
 21
192.3306333823
  0
LINE
  5
38B
100
AcDbEntity
  8
0
100
AcDbLine
 62
7
  6
CONTINUOUS
 10
88.14152898
 20
186.8193831963
 11
94.1519616437
 21
183.3493367829
  0
LINE
  5
38C
100
AcDbEntity
  8
0
100
AcDbLine
 62
7
  6
CONTINUOUS
 10
95.9197359566
 20
182.3287348966
 11
101.9301686204
 21
178.8586884832
  0
LINE
  5
38D
100
AcDbEntity
  8
0
100
AcDbLine
 62
7
  6
CONTINUOUS
 10
103.6979429332
 20
177.8380865969
 11
109.708375597
 21
174.3680401835
  0
LINE
  5
38E
100
AcDbEntity
  8
0
100
AcDbLine
 62
7
  6
CONTINUOUS
 10
111.4761499098
 20
173.3474382972
 11
115.3298979119
 21
171.122526185
  0
LINE
  5
38F
100
AcDbEntity
  8
0
100
AcDbLine
 62
7
  6
CONTINUOUS
 10
44.4775034522
 20
215.3759096982
 11
119.4311343177
 21
172.102389719
  0
LINE
  5
390
100
AcDbEntity
  8
0
100
AcDbLine
 62
7
  6
CONTINUOUS
 10
119.4311343177
 20
172.3473404442
 11
78.5955476905
 21
195.9232440177
  0
LINE
  5
391
100
AcDbEntity
  8
0
100
AcDbLine
 62
7
  6
CONTINUOUS
 10
72.5851150268
 20
199.3932904311
 11
70.8173407139
 21
200.4138923174
  0
LINE
  5
392
100
AcDbEntity
  8
0
100
AcDbLine
 62
7
  6
CONTINUOUS
 10
64.8069080501
 20
203.8839387309
 11
63.0391337373
 21
204.9045406172
  0
LINE
  5
393
100
AcDbEntity
  8
0
100
AcDbLine
 62
7
  6
CONTINUOUS
 10
57.0287010735
 20
208.3745870306
 11
44.4775034522
 21
215.6208604233
  0
LINE
  5
394
100
AcDbEntity
  8
0
100
AcDbLine
 62
7
  6
CONTINUOUS
 10
53.8467073104
 20
212.6611776773
 11
48.6848063168
 21
215.6413351853
  0
LINE
  5
395
100
AcDbEntity
  8
0
100
AcDbLine
 62
7
  6
CONTINUOUS
 10
111.087239561
 20
167.0399513751
 11
111.087239561
 21
158.4666759952
  0
LINE
  5
396
100
AcDbEntity
  8
0
100
AcDbLine
 62
7
  6
CONTINUOUS
 10
111.1341970665
 20
140.4768052161
 11
111.1341970665
 21
132.3117810448
  0
LINE
  5
397
100
AcDbEntity
  8
0
100
AcDbLine
 62
7
  6
CONTINUOUS
 10
111.4761499098
 20
173.3474382972
 11
111.4761499098
 21
171.1428817709
  0
LINE
  5
398
100
AcDbEntity
  8
0
100
AcDbLine
 62
7
  6
CONTINUOUS
 10
112.1476762857
 20
242.9331891402
 11
112.1476762857
 21
240.8919330974
  0
LINE
  5
399
100
AcDbEntity
  8
0
100
AcDbLine
 62
7
  6
CONTINUOUS
 10
112.8903575843
 20
172.5309635868
 11
112.8903575843
 21
171.9593700786
  0
LINE
  5
39A
100
AcDbEntity
  8
0
100
AcDbLine
 62
7
  6
CONTINUOUS
 10
112.9962008904
 20
242.443304314
 11
112.9962008904
 21
241.381826082
  0
LINE
  5
39B
100
AcDbEntity
  8
0
100
AcDbLine
 62
7
  6
CONTINUOUS
 10
115.3298979119
 20
171.122526185
 11
115.3298979119
 21
168.9179696588
  0
LINE
  5
39C
100
AcDbEntity
  8
0
100
AcDbLine
 62
7
  6
CONTINUOUS
 10
115.6834527745
 20
180.798085055
 11
115.6834527745
 21
178.5935285288
  0
LINE
  5
39D
100
AcDbEntity
  8
0
100
AcDbLine
 62
7
  6
CONTINUOUS
 10
119.4311343177
 20
172.102389719
 11
119.4311343177
 21
153.6494350919
  0
LINE
  5
39E
100
AcDbEntity
  8
0
100
AcDbLine
 62
7
  6
CONTINUOUS
 10
119.4311343177
 20
172.3473404442
 11
119.4311343177
 21
182.7555882434
  0
LINE
  5
39F
100
AcDbEntity
  8
0
100
AcDbLine
 62
7
  6
CONTINUOUS
 10
119.6432672353
 20
153.2820121404
 11
119.6432672353
 21
183.2636899478
  0
LINE
  5
3A0
100
AcDbEntity
  8
0
100
AcDbLine
 62
7
  6
CONTINUOUS
 10
120.8450299317
 20
232.6019182329
 11
120.8450299317
 21
233.6657298981
  0
LINE
  5
3A1
100
AcDbEntity
  8
0
100
AcDbLine
 62
7
  6
CONTINUOUS
 10
121.3753622256
 20
236.9521599676
 11
121.3753622256
 21
235.6457561002
  0
LINE
  5
3A2
100
AcDbEntity
  8
0
100
AcDbLine
 62
7
  6
CONTINUOUS
 10
121.5524634932
 20
90.7787803351
 11
121.5524634932
 21
137.72766932
  0
LINE
  5
3A3
100
AcDbEntity
  8
0
100
AcDbLine
 62
7
  6
CONTINUOUS
 10
121.5524634932
 20
145.8926934913
 11
121.5524634932
 21
182.1614399106
  0
LINE
  5
3A4
100
AcDbEntity
  8
0
100
AcDbLine
 62
7
  6
CONTINUOUS
 10
72.5851150268
 20
193.5961232695
 11
73.9993227012
 21
194.4126115773
  0
LINE
  5
3A5
100
AcDbEntity
  8
0
100
AcDbLine
 62
7
  6
CONTINUOUS
 10
62.5088085089
 20
187.3293180944
 11
62.2966685259
 21
187.2068397491
  0
LINE
  5
3A6
100
AcDbEntity
  8
0
100
AcDbLine
 62
7
  6
CONTINUOUS
 10
136.939030006
 20
228.6202181989
 11
133.794351431
 21
226.8046480147
  0
LINE
  5
3A7
100
AcDbEntity
  8
0
100
AcDbLine
 62
7
  6
CONTINUOUS
 10
76.7925918479
 20
192.7999533667
 11
77.2876134233
 21
193.0857525005
  0
LINE
  5
3A8
100
AcDbEntity
  8
0
100
AcDbLine
 62
7
  6
CONTINUOUS
 10
63.6401840692
 20
184.8798487335
 11
65.5493732615
 21
185.982113048
  0
LINE
  5
3A9
100
AcDbEntity
  8
0
100
AcDbLine
 62
7
  6
CONTINUOUS
 10
184.1664367401
 20
254.425439864
 11
172.1456715075
 21
247.4852892482
  0
LINE
  5
3AA
100
AcDbEntity
  8
0
100
AcDbLine
 62
7
  6
CONTINUOUS
 10
70.21632162
 20
188.4317215941
 11
70.0748755025
 21
188.3500581276
  0
LINE
  5
3AB
100
AcDbEntity
  8
0
100
AcDbLine
 62
7
  6
CONTINUOUS
 10
184.5199907195
 20
254.343792223
 11
172.2870943357
 21
247.281168361
  0
LINE
  5
3AC
100
AcDbEntity
  8
0
100
AcDbLine
 62
7
  6
CONTINUOUS
 10
133.2619614915
 20
223.0108090534
 11
132.625568038
 21
222.6433893149
  0
LINE
  5
3AD
100
AcDbEntity
  8
0
100
AcDbLine
 62
7
  6
CONTINUOUS
 10
67.8121366013
 20
184.0225548093
 11
67.4585665755
 21
183.8184222782
  0
LINE
  5
3AE
100
AcDbEntity
  8
0
100
AcDbLine
 62
7
  6
CONTINUOUS
 10
73.4690263556
 20
186.5538141234
 11
73.3275802382
 21
186.4721506568
  0
LINE
  5
3AF
100
AcDbEntity
  8
0
100
AcDbLine
 62
7
  6
CONTINUOUS
 10
72.6204675691
 20
184.5125256473
 11
73.3275802382
 21
184.9207749002
  0
LINE
  5
3B0
100
AcDbEntity
  8
0
100
AcDbLine
 62
7
  6
CONTINUOUS
 10
70.2870154856
 20
182.8386697946
 11
70.0748755025
 21
182.7161914494
  0
LINE
  5
3B1
100
AcDbEntity
  8
0
100
AcDbLine
 62
7
  6
CONTINUOUS
 10
70.2870154856
 20
182.593709193
 11
69.9334506135
 21
182.3895796374
  0
LINE
  5
3B2
100
AcDbEntity
  8
0
100
AcDbLine
 62
7
  6
CONTINUOUS
 10
134.6584984295
 20
219.6325367672
 11
133.4493508678
 21
218.9344392641
  0
LINE
  5
3B3
100
AcDbEntity
  8
0
100
AcDbLine
 62
7
  6
CONTINUOUS
 10
218.0367438095
 20
267.7341902678
 11
211.7082006807
 21
264.0804259989
  0
LINE
  5
3B4
100
AcDbEntity
  8
0
100
AcDbLine
 62
7
  6
CONTINUOUS
 10
132.625568038
 20
218.1362930094
 11
132.3356542283
 21
217.9689121925
  0
LINE
  5
3B5
100
AcDbEntity
  8
0
100
AcDbLine
 62
7
  6
CONTINUOUS
 10
134.0513754795
 20
167.6913226145
 11
136.9235121941
 21
166.1982804474
  0
LINE
  5
3B6
100
AcDbEntity
  8
0
100
AcDbLine
 62
7
  6
CONTINUOUS
 10
136.9235121941
 20
168.4844872153
 11
134.0513754795
 21
169.9775293825
  0
LINE
  5
3B7
100
AcDbEntity
  8
0
100
AcDbLine
 62
7
  6
CONTINUOUS
 10
134.0513754795
 20
172.4270366338
 11
136.9235121941
 21
170.9339944667
  0
LINE
  5
3B8
100
AcDbEntity
  8
0
100
AcDbLine
 62
7
  6
CONTINUOUS
 10
136.9235121941
 20
173.2202012347
 11
134.0513754795
 21
174.7132434018
  0
LINE
  5
3B9
100
AcDbEntity
  8
0
100
AcDbLine
 62
7
  6
CONTINUOUS
 10
134.0513754795
 20
177.1627506532
 11
136.9235121941
 21
175.6697084861
  0
LINE
  5
3BA
100
AcDbEntity
  8
0
100
AcDbLine
 62
7
  6
CONTINUOUS
 10
136.9235121941
 20
177.955915254
 11
134.0513754795
 21
179.4489574212
  0
LINE
  5
3BB
100
AcDbEntity
  8
0
100
AcDbLine
 62
7
  6
CONTINUOUS
 10
115.6834527745
 20
178.5935285288
 11
107.7284683666
 21
183.1862370171
  0
LINE
  5
3BC
100
AcDbEntity
  8
0
100
AcDbLine
 62
7
  6
CONTINUOUS
 10
105.9606940537
 20
184.2068389034
 11
98.0057096458
 21
188.7995473918
  0
LINE
  5
3BD
100
AcDbEntity
  8
0
100
AcDbLine
 62
7
  6
CONTINUOUS
 10
48.6848063168
 20
217.8458917116
 11
53.8467073104
 21
214.8657342036
  0
LINE
  5
3BE
100
AcDbEntity
  8
0
100
AcDbLine
 62
7
  6
CONTINUOUS
 10
98.0057096458
 20
191.004103918
 11
105.9606940537
 21
186.4113954297
  0
LINE
  5
3BF
100
AcDbEntity
  8
0
100
AcDbLine
 62
7
  6
CONTINUOUS
 10
107.7284683666
 20
185.3907935434
 11
115.6834527745
 21
180.798085055
  0
LINE
  5
3C0
100
AcDbEntity
  8
0
100
AcDbLine
 62
7
  6
CONTINUOUS
 10
53.8467073104
 20
217.315241455
 11
48.6848063168
 21
220.295398963
  0
LINE
  5
3C1
100
AcDbEntity
  8
0
100
AcDbLine
 62
7
  6
CONTINUOUS
 10
152.3115628431
 20
161.6915053027
 11
150.5279227667
 21
162.7212670846
  0
LINE
  5
3C2
100
AcDbEntity
  8
0
100
AcDbLine
 62
7
  6
CONTINUOUS
 10
48.6848063168
 20
222.4999554892
 11
53.8467073104
 21
219.5197979812
  0
LINE
  5
3C3
100
AcDbEntity
  8
0
100
AcDbLine
 62
7
  6
CONTINUOUS
 10
57.0287010735
 20
217.927665311
 11
63.0391337373
 21
214.4576188976
  0
LINE
  5
3C4
100
AcDbEntity
  8
0
100
AcDbLine
 62
7
  6
CONTINUOUS
 10
64.8069080501
 20
213.4370170113
 11
70.8173407139
 21
209.9669705979
  0
LINE
  5
3C5
100
AcDbEntity
  8
0
100
AcDbLine
 62
7
  6
CONTINUOUS
 10
72.5851150268
 20
208.9463687116
 11
78.5955476905
 21
205.4763222981
  0
LINE
  5
3C6
100
AcDbEntity
  8
0
100
AcDbLine
 62
7
  6
CONTINUOUS
 10
80.1865445721
 20
205.4129501193
 11
119.4311343177
 21
182.7555882434
  0
LINE
  5
3C7
100
AcDbEntity
  8
0
100
AcDbLine
 62
7
  6
CONTINUOUS
 10
119.6432672353
 20
183.2636899478
 11
121.5524634932
 21
182.1614399106
  0
LINE
  5
3C8
100
AcDbEntity
  8
0
100
AcDbLine
 62
7
  6
CONTINUOUS
 10
76.9691953227
 20
208.6198325598
 11
72.5851150268
 21
211.1509252378
  0
LINE
  5
3C9
100
AcDbEntity
  8
0
100
AcDbLine
 62
7
  6
CONTINUOUS
 10
70.8173407139
 20
212.1715271241
 11
64.8069080501
 21
215.6415735375
  0
LINE
  5
3CA
100
AcDbEntity
  8
0
100
AcDbLine
 62
7
  6
CONTINUOUS
 10
63.0391337373
 20
216.6621754238
 11
57.0287010735
 21
220.1322218373
  0
LINE
  5
3CB
100
AcDbEntity
  8
0
100
AcDbLine
 62
7
  6
CONTINUOUS
 10
55.2609267607
 20
221.1528237236
 11
48.6848063168
 21
224.9494627406
  0
LINE
  5
3CC
100
AcDbEntity
  8
0
100
AcDbLine
 62
7
  6
CONTINUOUS
 10
152.3115628431
 20
166.4588698991
 11
150.5270235325
 21
167.4891508423
  0
LINE
  5
3CD
100
AcDbEntity
  8
0
100
AcDbLine
 62
7
  6
CONTINUOUS
 10
48.6848063168
 20
227.1540192668
 11
55.2609267607
 21
223.3573802498
  0
LINE
  5
3CE
100
AcDbEntity
  8
0
100
AcDbLine
 62
7
  6
CONTINUOUS
 10
57.0287010735
 20
222.3367783635
 11
63.0391337373
 21
218.8667319501
  0
LINE
  5
3CF
100
AcDbEntity
  8
0
100
AcDbLine
 62
7
  6
CONTINUOUS
 10
64.8069080501
 20
217.8461300638
 11
70.8173407139
 21
214.3760836504
  0
LINE
  5
3D0
100
AcDbEntity
  8
0
100
AcDbLine
 62
7
  6
CONTINUOUS
 10
72.5851150268
 20
213.3554817641
 11
76.9691953227
 21
210.824389086
  0
LINE
  5
3D1
100
AcDbEntity
  8
0
100
AcDbLine
 62
7
  6
CONTINUOUS
 10
121.8986221268
 20
237.3036052922
 11
121.8986221268
 21
236.8296884891
  0
LINE
  5
3D2
100
AcDbEntity
  8
0
100
AcDbLine
 62
7
  6
CONTINUOUS
 10
124.7344572563
 20
88.9416969397
 11
124.7344572563
 21
82.4096776027
  0
LINE
  5
3D3
100
AcDbEntity
  8
0
100
AcDbLine
 62
7
  6
CONTINUOUS
 10
127.3600694159
 20
186.0474898888
 11
127.3600694159
 21
184.1846553567
  0
LINE
  5
3D4
100
AcDbEntity
  8
0
100
AcDbLine
 62
7
  6
CONTINUOUS
 10
127.3600694159
 20
181.8984485887
 11
127.3600694159
 21
179.4489413373
  0
LINE
  5
3D5
100
AcDbEntity
  8
0
100
AcDbLine
 62
7
  6
CONTINUOUS
 10
127.3600694159
 20
177.1627345694
 11
127.3600694159
 21
174.713227318
  0
LINE
  5
3D6
100
AcDbEntity
  8
0
100
AcDbLine
 62
7
  6
CONTINUOUS
 10
127.3600694159
 20
172.42702055
 11
127.3600694159
 21
169.9775132986
  0
LINE
  5
3D7
100
AcDbEntity
  8
0
100
AcDbLine
 62
7
  6
CONTINUOUS
 10
127.3600694159
 20
167.6913065307
 11
127.3600694159
 21
93.7978377805
  0
LINE
  5
3D8
100
AcDbEntity
  8
0
100
AcDbLine
 62
7
  6
CONTINUOUS
 10
128.2700058821
 20
86.9004931671
 11
128.2700058821
 21
80.3684738301
  0
LINE
  5
3D9
100
AcDbEntity
  8
0
100
AcDbLine
 62
7
  6
CONTINUOUS
 10
129.3306321982
 20
91.5952839399
 11
129.3306321982
 21
87.512842401
  0
LINE
  5
3DA
100
AcDbEntity
  8
0
100
AcDbLine
 62
7
  6
CONTINUOUS
 10
131.4519996452
 20
78.5313904347
 11
131.4519996452
 21
85.0634097718
  0
LINE
  5
3DB
100
AcDbEntity
  8
0
100
AcDbLine
 62
7
  6
CONTINUOUS
 10
131.7699711586
 20
214.049706234
 11
131.7699711586
 21
211.7053342744
  0
LINE
  5
3DC
100
AcDbEntity
  8
0
100
AcDbLine
 62
7
  6
CONTINUOUS
 10
132.3356542283
 20
217.9689121925
 11
132.3356542283
 21
216.662508325
  0
LINE
  5
3DD
100
AcDbEntity
  8
0
100
AcDbLine
 62
7
  6
CONTINUOUS
 10
132.625568038
 20
222.6433893149
 11
132.625568038
 21
217.9648304648
  0
LINE
  5
3DE
100
AcDbEntity
  8
0
100
AcDbLine
 62
7
  6
CONTINUOUS
 10
133.2619614915
 20
223.0108090534
 11
133.794351431
 21
226.8046480147
  0
LINE
  5
3DF
100
AcDbEntity
  8
0
100
AcDbLine
 62
7
  6
CONTINUOUS
 10
71.4183910458
 20
180.3892004338
 11
73.3275802382
 21
181.4914647483
  0
LINE
  5
3E0
100
AcDbEntity
  8
0
100
AcDbLine
 62
7
  6
CONTINUOUS
 10
77.9945285966
 20
183.9410732944
 11
77.8530824791
 21
183.8594098279
  0
LINE
  5
3E1
100
AcDbEntity
  8
0
100
AcDbLine
 62
7
  6
CONTINUOUS
 10
72.6204675691
 20
180.8382647702
 11
72.2669156504
 21
180.6341426933
  0
LINE
  5
3E2
100
AcDbEntity
  8
0
100
AcDbLine
 62
7
  6
CONTINUOUS
 10
144.4802637577
 20
222.0618101065
 11
146.3895074933
 21
223.1641059114
  0
LINE
  5
3E3
100
AcDbEntity
  8
0
100
AcDbLine
 62
7
  6
CONTINUOUS
 10
134.3155956726
 20
215.5194144595
 11
131.7699711586
 21
214.049706234
  0
LINE
  5
3E4
100
AcDbEntity
  8
0
100
AcDbLine
 62
7
  6
CONTINUOUS
 10
138.2506158332
 20
217.5586737342
 11
137.0414682716
 21
216.8605762311
  0
LINE
  5
3E5
100
AcDbEntity
  8
0
100
AcDbLine
 62
7
  6
CONTINUOUS
 10
73.6811321568
 20
180.2259036384
 11
73.3275802382
 21
180.0217815615
  0
LINE
  5
3E6
100
AcDbEntity
  8
0
100
AcDbLine
 62
7
  6
CONTINUOUS
 10
73.3275802382
 20
178.9603072552
 11
72.2669156504
 21
178.3479359253
  0
LINE
  5
3E7
100
AcDbEntity
  8
0
100
AcDbLine
 62
7
  6
CONTINUOUS
 10
228.6433543591
 20
268.1424932346
 11
216.6579443183
 21
261.2227548265
  0
LINE
  5
3E8
100
AcDbEntity
  8
0
100
AcDbLine
 62
7
  6
CONTINUOUS
 10
81.2472333323
 20
182.0631658236
 11
81.1057872148
 21
181.9815023571
  0
LINE
  5
3E9
100
AcDbEntity
  8
0
100
AcDbLine
 62
7
  6
CONTINUOUS
 10
88.14152898
 20
184.6148266701
 11
89.5557366544
 21
185.4313149778
  0
LINE
  5
3EA
100
AcDbEntity
  8
0
100
AcDbLine
 62
7
  6
CONTINUOUS
 10
144.0100293138
 20
216.8055495847
 11
143.3736358603
 21
216.4381298462
  0
LINE
  5
3EB
100
AcDbEntity
  8
0
100
AcDbLine
 62
7
  6
CONTINUOUS
 10
80.3986745457
 20
180.0218773476
 11
81.1057872148
 21
180.4301266005
  0
LINE
  5
3EC
100
AcDbEntity
  8
0
100
AcDbLine
 62
7
  6
CONTINUOUS
 10
141.842733237
 20
215.4848107013
 11
140.6335856753
 21
214.7867131982
  0
LINE
  5
3ED
100
AcDbEntity
  8
0
100
AcDbLine
 62
7
  6
CONTINUOUS
 10
78.0652224622
 20
178.3480214949
 11
77.8530824791
 21
178.2255431497
  0
LINE
  5
3EE
100
AcDbEntity
  8
0
100
AcDbLine
 62
7
  6
CONTINUOUS
 10
78.0652224622
 20
177.5315190778
 11
77.8530824791
 21
177.4090407326
  0
LINE
  5
3EF
100
AcDbEntity
  8
0
100
AcDbLine
 62
7
  6
CONTINUOUS
 10
99.9149388956
 20
189.9018348334
 11
98.0057096458
 21
188.7995473918
  0
LINE
  5
3F0
100
AcDbEntity
  8
0
100
AcDbLine
 62
7
  6
CONTINUOUS
 10
78.4469238272
 20
176.2496811554
 11
77.8530824791
 21
175.9068287398
  0
LINE
  5
3F1
100
AcDbEntity
  8
0
100
AcDbLine
 62
7
  6
CONTINUOUS
 10
166.9485819505
 20
227.338511641
 11
182.9998390553
 21
236.6056539339
  0
LINE
  5
3F2
100
AcDbEntity
  8
0
100
AcDbLine
 62
7
  6
CONTINUOUS
 10
92.3490058012
 20
183.8186567672
 11
92.8440273766
 21
184.1044559011
  0
LINE
  5
3F3
100
AcDbEntity
  8
0
100
AcDbLine
 62
7
  6
CONTINUOUS
 10
167.019292923
 20
226.889436357
 11
179.7471619929
 21
234.2378311267
  0
LINE
  5
3F4
100
AcDbEntity
  8
0
100
AcDbLine
 62
7
  6
CONTINUOUS
 10
79.1965980224
 20
175.898552134
 11
81.1057872148
 21
177.0008164486
  0
LINE
  5
3F5
100
AcDbEntity
  8
0
100
AcDbLine
 62
7
  6
CONTINUOUS
 10
85.7727355732
 20
179.4504249947
 11
85.6312894557
 21
179.3687615282
  0
LINE
  5
3F6
100
AcDbEntity
  8
0
100
AcDbLine
 62
7
  6
CONTINUOUS
 10
80.3986745457
 20
176.3476164705
 11
80.0451226271
 21
176.1434943935
  0
LINE
  5
3F7
100
AcDbEntity
  8
0
100
AcDbLine
 62
7
  6
CONTINUOUS
 10
172.4286440488
 20
229.0735464895
 11
175.9641632349
 21
231.1147672588
  0
LINE
  5
3F8
100
AcDbEntity
  8
0
100
AcDbLine
 62
7
  6
CONTINUOUS
 10
181.9152507498
 20
234.3464654873
 11
182.9998390553
 21
234.9726490996
  0
LINE
  5
3F9
100
AcDbEntity
  8
0
100
AcDbLine
 62
7
  6
CONTINUOUS
 10
143.3736358603
 20
211.7595709961
 11
144.4802637577
 21
212.3984790968
  0
LINE
  5
3FA
100
AcDbEntity
  8
0
100
AcDbLine
 62
7
  6
CONTINUOUS
 10
173.1357659932
 20
228.6652986803
 11
175.9641632349
 21
230.2982648417
  0
LINE
  5
3FB
100
AcDbEntity
  8
0
100
AcDbLine
 62
7
  6
CONTINUOUS
 10
81.4593391334
 20
175.7352553387
 11
81.1057872148
 21
175.5311332618
  0
LINE
  5
3FC
100
AcDbEntity
  8
0
100
AcDbLine
 62
7
  6
CONTINUOUS
 10
176.8126949051
 20
230.6248783534
 11
173.277175719
 21
228.583657584
  0
LINE
  5
3FD
100
AcDbEntity
  8
0
100
AcDbLine
 62
7
  6
CONTINUOUS
 10
185.6161450383
 20
235.0951631422
 11
169.5648879336
 21
225.8280208493
  0
LINE
  5
3FE
100
AcDbEntity
  8
0
100
AcDbLine
 62
7
  6
CONTINUOUS
 10
81.1057872148
 20
174.4696589555
 11
80.0451226271
 21
173.8572876256
  0
LINE
  5
3FF
100
AcDbEntity
  8
0
100
AcDbLine
 62
7
  6
CONTINUOUS
 10
140.644349529
 20
183.1717097064
 11
134.0513754794
 21
186.5505345194
  0
LINE
  5
400
100
AcDbEntity
  8
0
100
AcDbLine
 62
7
  6
CONTINUOUS
 10
134.0513754795
 20
181.8984646726
 11
136.9235121941
 21
180.4054225054
  0
LINE
  5
401
100
AcDbEntity
  8
0
100
AcDbLine
 62
7
  6
CONTINUOUS
 10
136.9235121941
 20
182.6916292734
 11
134.0513754795
 21
184.1846714405
  0
LINE
  5
402
100
AcDbEntity
  8
0
100
AcDbLine
 62
7
  6
CONTINUOUS
 10
76.9691953227
 20
213.2738963374
 11
72.5851150268
 21
215.8049890154
  0
LINE
  5
403
100
AcDbEntity
  8
0
100
AcDbLine
 62
7
  6
CONTINUOUS
 10
70.8173407139
 20
216.8255909017
 11
64.8069080501
 21
220.2956373152
  0
LINE
  5
404
100
AcDbEntity
  8
0
100
AcDbLine
 62
7
  6
CONTINUOUS
 10
63.0391337373
 20
221.3162392015
 11
57.0287010735
 21
224.7862856149
  0
LINE
  5
405
100
AcDbEntity
  8
0
100
AcDbLine
 62
7
  6
CONTINUOUS
 10
55.2609267607
 20
225.8068875012
 11
48.6848063168
 21
229.6035265182
  0
LINE
  5
406
100
AcDbEntity
  8
0
100
AcDbLine
 62
7
  6
CONTINUOUS
 10
152.3115628431
 20
171.2258896658
 11
150.5261324562
 21
172.2566850605
  0
LINE
  5
407
100
AcDbEntity
  8
0
100
AcDbLine
 62
7
  6
CONTINUOUS
 10
48.6848063168
 20
231.8080830445
 11
55.2609267607
 21
228.0114440274
  0
LINE
  5
408
100
AcDbEntity
  8
0
100
AcDbLine
 62
7
  6
CONTINUOUS
 10
57.0287010735
 20
226.9908421411
 11
63.0391337373
 21
223.5207957277
  0
LINE
  5
409
100
AcDbEntity
  8
0
100
AcDbLine
 62
7
  6
CONTINUOUS
 10
64.8069080501
 20
222.5001938414
 11
70.8173407139
 21
219.030147428
  0
LINE
  5
40A
100
AcDbEntity
  8
0
100
AcDbLine
 62
7
  6
CONTINUOUS
 10
72.5851150268
 20
218.0095455417
 11
76.9691953227
 21
215.4784528637
  0
LINE
  5
40B
100
AcDbEntity
  8
0
100
AcDbLine
 62
7
  6
CONTINUOUS
 10
76.9691953227
 20
217.9279601151
 11
72.5851150268
 21
220.4590527931
  0
LINE
  5
40C
100
AcDbEntity
  8
0
100
AcDbLine
 62
7
  6
CONTINUOUS
 10
70.8173407139
 20
221.4796546794
 11
64.8069080501
 21
224.9497010928
  0
LINE
  5
40D
100
AcDbEntity
  8
0
100
AcDbLine
 62
7
  6
CONTINUOUS
 10
63.0391337373
 20
225.9703029791
 11
57.0287010735
 21
229.4403493925
  0
LINE
  5
40E
100
AcDbEntity
  8
0
100
AcDbLine
 62
7
  6
CONTINUOUS
 10
55.2609267607
 20
230.4609512788
 11
48.6848063168
 21
234.2575902959
  0
LINE
  5
40F
100
AcDbEntity
  8
0
100
AcDbLine
 62
7
  6
CONTINUOUS
 10
152.3115628431
 20
175.9925702257
 11
150.5252494278
 21
177.0238754256
  0
LINE
  5
410
100
AcDbEntity
  8
0
100
AcDbLine
 62
7
  6
CONTINUOUS
 10
48.6848063168
 20
236.4621468221
 11
55.2609267607
 21
232.6655078051
  0
LINE
  5
411
100
AcDbEntity
  8
0
100
AcDbLine
 62
7
  6
CONTINUOUS
 10
57.0287010735
 20
231.6449059188
 11
63.0391337373
 21
228.1748595054
  0
LINE
  5
412
100
AcDbEntity
  8
0
100
AcDbLine
 62
7
  6
CONTINUOUS
 10
64.8069080501
 20
227.1542576191
 11
70.8173407139
 21
223.6842112056
  0
LINE
  5
413
100
AcDbEntity
  8
0
100
AcDbLine
 62
7
  6
CONTINUOUS
 10
72.5851150268
 20
222.6636093193
 11
76.9691953227
 21
220.1325166413
  0
LINE
  5
414
100
AcDbEntity
  8
0
100
AcDbLine
 62
7
  6
CONTINUOUS
 10
42.3561742767
 20
244.6771431949
 11
44.2653705346
 21
243.5748931577
  0
LINE
  5
415
100
AcDbEntity
  8
0
100
AcDbLine
 62
7
  6
CONTINUOUS
 10
44.4775034522
 20
243.4524209314
 11
80.1865445721
 21
222.8362628281
  0
LINE
  5
416
100
AcDbEntity
  8
0
100
AcDbLine
 62
7
  6
CONTINUOUS
 10
133.4493508678
 20
218.9344392641
 11
133.4493508678
 21
220.5266189775
  0
LINE
  5
417
100
AcDbEntity
  8
0
100
AcDbLine
 62
7
  6
CONTINUOUS
 10
134.0513754794
 20
93.7978538644
 11
134.0513754794
 21
167.6913226146
  0
LINE
  5
418
100
AcDbEntity
  8
0
100
AcDbLine
 62
7
  6
CONTINUOUS
 10
134.0513754794
 20
169.9775293826
 11
134.0513754794
 21
172.4270366339
  0
LINE
  5
419
100
AcDbEntity
  8
0
100
AcDbLine
 62
7
  6
CONTINUOUS
 10
134.0513754794
 20
174.7132434019
 11
134.0513754794
 21
177.1627506533
  0
LINE
  5
41A
100
AcDbEntity
  8
0
100
AcDbLine
 62
7
  6
CONTINUOUS
 10
134.0513754794
 20
179.4489574213
 11
134.0513754794
 21
181.8984646726
  0
LINE
  5
41B
100
AcDbEntity
  8
0
100
AcDbLine
 62
7
  6
CONTINUOUS
 10
134.0513754794
 20
184.1846714406
 11
134.0513754794
 21
186.5505345194
  0
LINE
  5
41C
100
AcDbEntity
  8
0
100
AcDbLine
 62
7
  6
CONTINUOUS
 10
134.6584984295
 20
219.6325367672
 11
134.6584984295
 21
219.8285331001
  0
LINE
  5
41D
100
AcDbEntity
  8
0
100
AcDbLine
 62
7
  6
CONTINUOUS
 10
135.393902612
 20
219.4039569026
 11
135.393902612
 21
217.8117771892
  0
LINE
  5
41E
100
AcDbEntity
  8
0
100
AcDbLine
 62
7
  6
CONTINUOUS
 10
136.9235121941
 20
182.6916292734
 11
136.9235121941
 21
180.4054225054
  0
LINE
  5
41F
100
AcDbEntity
  8
0
100
AcDbLine
 62
7
  6
CONTINUOUS
 10
136.9235121941
 20
177.955915254
 11
136.9235121941
 21
175.6697084861
  0
LINE
  5
420
100
AcDbEntity
  8
0
100
AcDbLine
 62
7
  6
CONTINUOUS
 10
136.9235121941
 20
173.2202012347
 11
136.9235121941
 21
170.9339944667
  0
LINE
  5
421
100
AcDbEntity
  8
0
100
AcDbLine
 62
7
  6
CONTINUOUS
 10
136.9235121941
 20
168.4844872153
 11
136.9235121941
 21
166.1982804474
  0
LINE
  5
422
100
AcDbEntity
  8
0
100
AcDbLine
 62
7
  6
CONTINUOUS
 10
137.0414682716
 20
216.8605762311
 11
137.0414682716
 21
218.4527559445
  0
LINE
  5
423
100
AcDbEntity
  8
0
100
AcDbLine
 62
7
  6
CONTINUOUS
 10
138.2506158332
 20
217.5586737342
 11
138.2506158332
 21
217.7546700671
  0
LINE
  5
424
100
AcDbEntity
  8
0
100
AcDbLine
 62
7
  6
CONTINUOUS
 10
138.9860200157
 20
217.3300938696
 11
138.9860200157
 21
215.7379141562
  0
LINE
  5
425
100
AcDbEntity
  8
0
100
AcDbLine
 62
7
  6
CONTINUOUS
 10
140.6335856753
 20
214.7867131982
 11
140.6335856753
 21
216.3788929116
  0
LINE
  5
426
100
AcDbEntity
  8
0
100
AcDbLine
 62
7
  6
CONTINUOUS
 10
140.644349529
 20
90.3705837721
 11
140.644349529
 21
183.1717097064
  0
LINE
  5
427
100
AcDbEntity
  8
0
100
AcDbLine
 62
7
  6
CONTINUOUS
 10
141.7399533261
 20
264.9171694662
 11
141.7399533261
 21
265.0396416926
  0
LINE
  5
428
100
AcDbEntity
  8
0
100
AcDbLine
 62
7
  6
CONTINUOUS
 10
141.842733237
 20
215.4848107013
 11
141.842733237
 21
215.6808070342
  0
LINE
  5
429
100
AcDbEntity
  8
0
100
AcDbLine
 62
7
  6
CONTINUOUS
 10
142.5781374195
 20
215.2562308366
 11
142.5781374195
 21
213.6640511232
  0
LINE
  5
42A
100
AcDbEntity
  8
0
100
AcDbLine
 62
7
  6
CONTINUOUS
 10
143.3736358603
 20
216.4381298462
 11
143.3736358603
 21
211.7595709961
  0
LINE
  5
42B
100
AcDbEntity
  8
0
100
AcDbLine
 62
7
  6
CONTINUOUS
 10
144.4802637577
 20
220.1564651862
 11
144.0100293138
 21
216.8055495847
  0
LINE
  5
42C
100
AcDbEntity
  8
0
100
AcDbLine
 62
7
  6
CONTINUOUS
 10
76.9827091621
 20
150.8291343032
 11
74.4825305732
 21
148.6595716508
  0
LINE
  5
42D
100
AcDbEntity
  8
0
100
AcDbLine
 62
7
  6
CONTINUOUS
 10
75.7083037296
 20
147.1347026558
 11
77.9826752531
 21
149.0971319108
  0
LINE
  5
42E
100
AcDbEntity
  8
0
100
AcDbLine
 62
7
  6
CONTINUOUS
 10
80.4826126309
 20
144.7670875752
 11
78.7737062798
 21
143.3213239067
  0
LINE
  5
42F
100
AcDbEntity
  8
0
100
AcDbLine
 62
7
  6
CONTINUOUS
 10
119.643151347
 20
182.9121421235
 11
119.4311343177
 21
182.7555882434
  0
LINE
  5
430
100
AcDbEntity
  8
0
100
AcDbLine
 62
7
  6
CONTINUOUS
 10
238.4098868855
 20
265.8104098282
 11
237.8740561545
 21
265.4668305359
  0
LINE
  5
431
100
AcDbEntity
  8
0
100
AcDbLine
 62
7
  6
CONTINUOUS
 10
239.0732036692
 20
264.7745180577
 11
158.8169181454
 21
218.4388065933
  0
LINE
  5
432
100
AcDbEntity
  8
0
100
AcDbLine
 62
7
  6
CONTINUOUS
 10
156.2890130973
 20
215.4074969418
 11
156.1475742226
 21
215.3258376569
  0
LINE
  5
433
100
AcDbEntity
  8
0
100
AcDbLine
 62
7
  6
CONTINUOUS
 10
95.9197359566
 20
180.1241783704
 11
97.333943631
 21
180.9406666781
  0
LINE
  5
434
100
AcDbEntity
  8
0
100
AcDbLine
 62
7
  6
CONTINUOUS
 10
85.8434294388
 20
173.8573731952
 11
85.6312894557
 21
173.73489485
  0
LINE
  5
435
100
AcDbEntity
  8
0
100
AcDbLine
 62
7
  6
CONTINUOUS
 10
85.8434294388
 20
173.0408707781
 11
85.6312894557
 21
172.9183924328
  0
LINE
  5
436
100
AcDbEntity
  8
0
100
AcDbLine
 62
7
  6
CONTINUOUS
 10
41.6489880084
 20
147.5242894049
 11
32.4566381247
 21
142.2171154046
  0
LINE
  5
437
100
AcDbEntity
  8
0
100
AcDbLine
 62
7
  6
CONTINUOUS
 10
239.0732036692
 20
260.2837547635
 11
158.8169181454
 21
213.948043299
  0
LINE
  5
438
100
AcDbEntity
  8
0
100
AcDbLine
 62
7
  6
CONTINUOUS
 10
86.2251308039
 20
171.7590328557
 11
85.6312894557
 21
171.4161804401
  0
LINE
  5
439
100
AcDbEntity
  8
0
100
AcDbLine
 62
7
  6
CONTINUOUS
 10
100.1272127778
 20
179.3280084675
 11
100.6222343532
 21
179.6138076013
  0
LINE
  5
43A
100
AcDbEntity
  8
0
100
AcDbLine
 62
7
  6
CONTINUOUS
 10
86.974804999
 20
171.4079038343
 11
89.2375372781
 21
172.7142851267
  0
LINE
  5
43B
100
AcDbEntity
  8
0
100
AcDbLine
 62
7
  6
CONTINUOUS
 10
109.6376976164
 20
184.2885244587
 11
107.7284683666
 21
183.1862370171
  0
LINE
  5
43C
100
AcDbEntity
  8
0
100
AcDbLine
 62
7
  6
CONTINUOUS
 10
88.1768815223
 20
171.8569681708
 11
87.8233296037
 21
171.6528460938
  0
LINE
  5
43D
100
AcDbEntity
  8
0
100
AcDbLine
 62
7
  6
CONTINUOUS
 10
40.2348068297
 20
143.0336190094
 11
35.6386318878
 21
140.3800320093
  0
LINE
  5
43E
100
AcDbEntity
  8
0
100
AcDbLine
 62
7
  6
CONTINUOUS
 10
89.23754611
 20
171.244607039
 11
88.8839941914
 21
171.040484962
  0
LINE
  5
43F
100
AcDbEntity
  8
0
100
AcDbLine
 62
7
  6
CONTINUOUS
 10
88.8839941914
 20
169.9790106557
 11
87.8233296037
 21
169.3666393259
  0
LINE
  5
440
100
AcDbEntity
  8
0
100
AcDbLine
 62
7
  6
CONTINUOUS
 10
103.6979429332
 20
175.6335300706
 11
105.1121506077
 21
176.4500183784
  0
LINE
  5
441
100
AcDbEntity
  8
0
100
AcDbLine
 62
7
  6
CONTINUOUS
 10
42.3561742767
 20
140.1759422263
 11
39.1741805136
 21
138.3388282367
  0
LINE
  5
442
100
AcDbEntity
  8
0
100
AcDbLine
 62
7
  6
CONTINUOUS
 10
137.9635063371
 20
196.5376323612
 11
107.3394013987
 21
214.2180676061
  0
LINE
  5
443
100
AcDbEntity
  8
0
100
AcDbLine
 62
7
  6
CONTINUOUS
 10
102.3896333227
 20
217.0757528878
 11
98.995506642
 21
219.0353085095
  0
LINE
  5
444
100
AcDbEntity
  8
0
100
AcDbLine
 62
7
  6
CONTINUOUS
 10
99.2076377931
 20
219.8182617332
 11
138.6643604563
 21
197.038427631
  0
LINE
  5
445
100
AcDbEntity
  8
0
100
AcDbLine
 62
7
  6
CONTINUOUS
 10
41.6489880084
 20
256.6979976541
 11
47.5853337021
 21
252.858157413
  0
LINE
  5
446
100
AcDbEntity
  8
0
100
AcDbLine
 62
7
  6
CONTINUOUS
 10
144.4802637577
 20
222.0618101065
 11
144.4802637577
 21
210.9573772336
  0
LINE
  5
447
100
AcDbEntity
  8
0
100
AcDbLine
 62
7
  6
CONTINUOUS
 10
144.8869725523
 20
156.3661266351
 11
144.8869725523
 21
158.6704236716
  0
LINE
  5
448
100
AcDbEntity
  8
0
100
AcDbLine
 62
7
  6
CONTINUOUS
 10
144.8869725523
 20
161.1392069968
 11
144.8869725523
 21
163.4433063094
  0
LINE
  5
449
100
AcDbEntity
  8
0
100
AcDbLine
 62
7
  6
CONTINUOUS
 10
144.8869725523
 20
165.9118795309
 11
144.8869725523
 21
168.215784356
  0
LINE
  5
44A
100
AcDbEntity
  8
0
100
AcDbLine
 62
7
  6
CONTINUOUS
 10
144.8869725523
 20
170.6841509033
 11
144.8869725523
 21
172.9878644068
  0
LINE
  5
44B
100
AcDbEntity
  8
0
100
AcDbLine
 62
7
  6
CONTINUOUS
 10
144.8869725523
 20
180.2275161052
 11
144.8869725523
 21
182.5308561905
  0
LINE
  5
44C
100
AcDbEntity
  8
0
100
AcDbLine
 62
7
  6
CONTINUOUS
 10
152.3115628431
 20
178.2936065874
 11
152.3115628431
 21
175.9925702257
  0
LINE
  5
44D
100
AcDbEntity
  8
0
100
AcDbLine
 62
7
  6
CONTINUOUS
 10
152.3115628431
 20
173.5270878063
 11
152.3115628431
 21
171.2258896658
  0
LINE
  5
44E
100
AcDbEntity
  8
0
100
AcDbLine
 62
7
  6
CONTINUOUS
 10
152.3115628431
 20
168.760232489
 11
152.3115628431
 21
166.4588698991
  0
LINE
  5
44F
100
AcDbEntity
  8
0
100
AcDbLine
 62
7
  6
CONTINUOUS
 10
152.3115628431
 20
163.993035072
 11
152.3115628431
 21
161.6915053027
  0
LINE
  5
450
100
AcDbEntity
  8
0
100
AcDbLine
 62
7
  6
CONTINUOUS
 10
153.7607176756
 20
271.9797923084
 11
153.7607176756
 21
272.1022650446
  0
LINE
  5
451
100
AcDbEntity
  8
0
100
AcDbLine
 62
7
  6
CONTINUOUS
 10
80.000467357
 20
141.7952259324
 11
81.482590692
 21
143.0350644474
  0
LINE
  5
452
100
AcDbEntity
  8
0
100
AcDbLine
 62
7
  6
CONTINUOUS
 10
83.9826163796
 20
138.7048671784
 11
83.0704439152
 21
137.9761570905
  0
LINE
  5
453
100
AcDbEntity
  8
0
100
AcDbLine
 62
7
  6
CONTINUOUS
 10
93.6216364154
 20
168.5502224783
 11
93.4094964323
 21
168.4277441331
  0
LINE
  5
454
100
AcDbEntity
  8
0
100
AcDbLine
 62
7
  6
CONTINUOUS
 10
157.4026986951
 20
204.9460469105
 11
156.1475742226
 21
204.221404784
  0
LINE
  5
455
100
AcDbEntity
  8
0
100
AcDbLine
 62
7
  6
CONTINUOUS
 10
39.1741805136
 20
135.8892504385
 11
35.6386318878
 21
133.8480126722
  0
LINE
  5
456
100
AcDbEntity
  8
0
100
AcDbLine
 62
7
  6
CONTINUOUS
 10
94.0033377805
 20
167.268384556
 11
93.4094964323
 21
166.9255321403
  0
LINE
  5
457
100
AcDbEntity
  8
0
100
AcDbLine
 62
7
  6
CONTINUOUS
 10
107.9054197544
 20
174.8373601678
 11
108.4004413298
 21
175.1231593016
  0
LINE
  5
458
100
AcDbEntity
  8
0
100
AcDbLine
 62
7
  6
CONTINUOUS
 10
94.7530119756
 20
166.9172555346
 11
97.0157442547
 21
168.223636827
  0
LINE
  5
459
100
AcDbEntity
  8
0
100
AcDbLine
 62
7
  6
CONTINUOUS
 10
95.9550884989
 20
167.366319871
 11
95.6015365803
 21
167.1621977941
  0
LINE
  5
45A
100
AcDbEntity
  8
0
100
AcDbLine
 62
7
  6
CONTINUOUS
 10
71.4799558559
 20
152.3947922073
 11
73.247715449
 21
153.415402592
  0
LINE
  5
45B
100
AcDbEntity
  8
0
100
AcDbLine
 62
7
  6
CONTINUOUS
 10
97.0157530866
 20
166.7539587393
 11
96.662201168
 21
166.5498366623
  0
LINE
  5
45C
100
AcDbEntity
  8
0
100
AcDbLine
 62
7
  6
CONTINUOUS
 10
96.662201168
 20
165.488362356
 11
95.6015365803
 21
164.8759910261
  0
LINE
  5
45D
100
AcDbEntity
  8
0
100
AcDbLine
 62
7
  6
CONTINUOUS
 10
69.2263438323
 20
148.0305115898
 11
70.9941034253
 21
149.0511219745
  0
LINE
  5
45E
100
AcDbEntity
  8
0
100
AcDbLine
 62
7
  6
CONTINUOUS
 10
111.4761499098
 20
171.1428817709
 11
112.8903575843
 21
171.9593700786
  0
LINE
  5
45F
100
AcDbEntity
  8
0
100
AcDbLine
 62
7
  6
CONTINUOUS
 10
76.9825829418
 20
150.8293530513
 11
78.0213307823
 21
151.4290708168
  0
LINE
  5
460
100
AcDbEntity
  8
0
100
AcDbLine
 62
7
  6
CONTINUOUS
 10
101.399843392
 20
164.0595741786
 11
101.187703409
 21
163.9370958334
  0
LINE
  5
461
100
AcDbEntity
  8
0
100
AcDbLine
 62
7
  6
CONTINUOUS
 10
101.7815447571
 20
162.7777362563
 11
101.187703409
 21
162.4348838406
  0
LINE
  5
462
100
AcDbEntity
  8
0
100
AcDbLine
 62
7
  6
CONTINUOUS
 10
75.7083037296
 20
147.1347026558
 11
77.4760633226
 21
148.1553130405
  0
LINE
  5
463
100
AcDbEntity
  8
0
100
AcDbLine
 62
7
  6
CONTINUOUS
 10
119.6432672353
 20
172.4698147101
 11
119.4311343177
 21
172.3473404442
  0
LINE
  5
464
100
AcDbEntity
  8
0
100
AcDbLine
 62
7
  6
CONTINUOUS
 10
102.5312189523
 20
162.4266072349
 11
104.7939512313
 21
163.7329885273
  0
LINE
  5
465
100
AcDbEntity
  8
0
100
AcDbLine
 62
7
  6
CONTINUOUS
 10
119.6432672353
 20
172.224863985
 11
119.4311343177
 21
172.102389719
  0
LINE
  5
466
100
AcDbEntity
  8
0
100
AcDbLine
 62
7
  6
CONTINUOUS
 10
103.7332954755
 20
162.8756715713
 11
103.3797435569
 21
162.6715494944
  0
LINE
  5
467
100
AcDbEntity
  8
0
100
AcDbLine
 62
7
  6
CONTINUOUS
 10
110.2387149564
 20
166.5500583905
 11
111.087239561
 21
167.0399513751
  0
LINE
  5
468
100
AcDbEntity
  8
0
100
AcDbLine
 62
7
  6
CONTINUOUS
 10
132.609129846
 20
184.6271487079
 11
127.3600694158
 21
181.8984485887
  0
LINE
  5
469
100
AcDbEntity
  8
0
100
AcDbLine
 62
7
  6
CONTINUOUS
 10
132.609129846
 20
179.8914346885
 11
127.3600694158
 21
177.1627345693
  0
LINE
  5
46A
100
AcDbEntity
  8
0
100
AcDbLine
 62
7
  6
CONTINUOUS
 10
163.0627934669
 20
193.0471423
 11
161.257983075
 21
194.0891264928
  0
LINE
  5
46B
100
AcDbEntity
  8
0
100
AcDbLine
 62
7
  6
CONTINUOUS
 10
158.8169181454
 20
196.090125414
 11
131.7699711586
 21
211.7053342744
  0
LINE
  5
46C
100
AcDbEntity
  8
0
100
AcDbLine
 62
7
  6
CONTINUOUS
 10
109.3192373851
 20
224.6669782304
 11
107.9050179348
 21
225.4834597395
  0
LINE
  5
46D
100
AcDbEntity
  8
0
100
AcDbLine
 62
7
  6
CONTINUOUS
 10
157.4026986951
 20
199.2509788826
 11
131.7699711586
 21
214.049706234
  0
LINE
  5
46E
100
AcDbEntity
  8
0
100
AcDbLine
 62
7
  6
CONTINUOUS
 10
157.4026986951
 20
202.1903708578
 11
132.3356542283
 21
216.662508325
  0
LINE
  5
46F
100
AcDbEntity
  8
0
100
AcDbLine
 62
7
  6
CONTINUOUS
 10
157.4026986951
 20
203.4967747253
 11
156.1475742226
 21
204.221404784
  0
LINE
  5
470
100
AcDbEntity
  8
0
100
AcDbLine
 62
7
  6
CONTINUOUS
 10
144.4802637577
 20
210.9573772336
 11
132.3356542283
 21
217.9689121925
  0
LINE
  5
471
100
AcDbEntity
  8
0
100
AcDbLine
 62
7
  6
CONTINUOUS
 10
154.5742597945
 20
218.438743869
 11
154.5742597945
 21
216.3974878262
  0
LINE
  5
472
100
AcDbEntity
  8
0
100
AcDbLine
 62
7
  6
CONTINUOUS
 10
156.1475742226
 20
215.3258376569
 11
156.1475742226
 21
204.221404784
  0
LINE
  5
473
100
AcDbEntity
  8
0
100
AcDbLine
 62
7
  6
CONTINUOUS
 10
157.4026986951
 20
199.2509788826
 11
157.4026986951
 21
214.7645248081
  0
LINE
  5
474
100
AcDbEntity
  8
0
100
AcDbLine
 62
7
  6
CONTINUOUS
 10
158.8169181454
 20
196.090125414
 11
158.8169181454
 21
218.4388065933
  0
LINE
  5
475
100
AcDbEntity
  8
0
100
AcDbLine
 62
7
  6
CONTINUOUS
 10
104.7939600632
 20
162.2633104395
 11
104.4404081446
 21
162.0591883626
  0
LINE
  5
476
100
AcDbEntity
  8
0
100
AcDbLine
 62
7
  6
CONTINUOUS
 10
104.4404081446
 20
160.9977140563
 11
103.3797435569
 21
160.3853427264
  0
LINE
  5
477
100
AcDbEntity
  8
0
100
AcDbLine
 62
7
  6
CONTINUOUS
 10
80.4825672727
 20
144.7671661783
 11
82.2503268657
 21
145.7877765629
  0
LINE
  5
478
100
AcDbEntity
  8
0
100
AcDbLine
 62
7
  6
CONTINUOUS
 10
109.1780503686
 20
159.5689258789
 11
108.9659103856
 21
159.4464475337
  0
LINE
  5
479
100
AcDbEntity
  8
0
100
AcDbLine
 62
7
  6
CONTINUOUS
 10
80.000467357
 20
141.7952259324
 11
81.7682269501
 21
142.8158363171
  0
LINE
  5
47A
100
AcDbEntity
  8
0
100
AcDbLine
 62
7
  6
CONTINUOUS
 10
109.5597517337
 20
158.2870879565
 11
108.9659103856
 21
157.9442355409
  0
LINE
  5
47B
100
AcDbEntity
  8
0
100
AcDbLine
 62
7
  6
CONTINUOUS
 10
110.2387149564
 20
157.9767830106
 11
111.087239561
 21
158.4666759952
  0
LINE
  5
47C
100
AcDbEntity
  8
0
100
AcDbLine
 62
7
  6
CONTINUOUS
 10
70.9941034253
 20
134.1594071562
 11
69.2263438323
 21
133.1387967715
  0
LINE
  5
47D
100
AcDbEntity
  8
0
100
AcDbLine
 62
7
  6
CONTINUOUS
 10
91.1661364159
 20
143.8400854315
 11
90.4396355867
 21
143.4206424859
  0
LINE
  5
47E
100
AcDbEntity
  8
0
100
AcDbLine
 62
7
  6
CONTINUOUS
 10
83.9825516036
 20
138.7049793052
 11
85.7503111967
 21
139.7255896899
  0
LINE
  5
47F
100
AcDbEntity
  8
0
100
AcDbLine
 62
7
  6
CONTINUOUS
 10
132.609129846
 20
175.1557206692
 11
127.3600694158
 21
172.42702055
  0
LINE
  5
480
100
AcDbEntity
  8
0
100
AcDbLine
 62
7
  6
CONTINUOUS
 10
132.609129846
 20
170.4200066498
 11
127.3600694158
 21
167.6913065306
  0
LINE
  5
481
100
AcDbEntity
  8
0
100
AcDbLine
 62
7
  6
CONTINUOUS
 10
132.625568038
 20
217.9648304648
 11
143.3736358603
 21
211.7595709961
  0
LINE
  5
482
100
AcDbEntity
  8
0
100
AcDbLine
 62
7
  6
CONTINUOUS
 10
142.5781374195
 20
213.6640511232
 11
140.6335856753
 21
214.7867131982
  0
LINE
  5
483
100
AcDbEntity
  8
0
100
AcDbLine
 62
7
  6
CONTINUOUS
 10
138.9860200157
 20
215.7379141562
 11
137.0414682716
 21
216.8605762311
  0
LINE
  5
484
100
AcDbEntity
  8
0
100
AcDbLine
 62
7
  6
CONTINUOUS
 10
135.393902612
 20
217.8117771892
 11
133.4493508678
 21
218.9344392641
  0
LINE
  5
485
100
AcDbEntity
  8
0
100
AcDbLine
 62
7
  6
CONTINUOUS
 10
142.5781374195
 20
215.0602345037
 11
141.842733237
 21
215.4848107013
  0
LINE
  5
486
100
AcDbEntity
  8
0
100
AcDbLine
 62
7
  6
CONTINUOUS
 10
138.9860200157
 20
217.1340975367
 11
138.2506158332
 21
217.5586737342
  0
LINE
  5
487
100
AcDbEntity
  8
0
100
AcDbLine
 62
7
  6
CONTINUOUS
 10
135.393902612
 20
219.2079605697
 11
134.6584984295
 21
219.6325367672
  0
LINE
  5
488
100
AcDbEntity
  8
0
100
AcDbLine
 62
7
  6
CONTINUOUS
 10
133.4493508678
 20
220.5266189775
 11
135.393902612
 21
219.4039569026
  0
LINE
  5
489
100
AcDbEntity
  8
0
100
AcDbLine
 62
7
  6
CONTINUOUS
 10
137.0414682716
 20
218.4527559445
 11
138.9860200157
 21
217.3300938696
  0
LINE
  5
48A
100
AcDbEntity
  8
0
100
AcDbLine
 62
7
  6
CONTINUOUS
 10
140.6335856753
 20
216.3788929116
 11
142.5781374195
 21
215.2562308366
  0
LINE
  5
48B
100
AcDbEntity
  8
0
100
AcDbLine
 62
7
  6
CONTINUOUS
 10
143.3736358603
 20
216.4381298462
 11
132.625568038
 21
222.6433893149
  0
LINE
  5
48C
100
AcDbEntity
  8
0
100
AcDbLine
 62
7
  6
CONTINUOUS
 10
251.6596519716
 20
154.4649159299
 11
242.4673020878
 21
159.7720015475
  0
LINE
  5
48D
100
AcDbEntity
  8
0
100
AcDbLine
 62
7
  6
CONTINUOUS
 10
144.0100293138
 20
216.8055495847
 11
133.2619614915
 21
223.0108090534
  0
LINE
  5
48E
100
AcDbEntity
  8
0
100
AcDbLine
 62
7
  6
CONTINUOUS
 10
133.5764142835
 20
225.2516163363
 11
120.8450299317
 21
232.6019182329
  0
LINE
  5
48F
100
AcDbEntity
  8
0
100
AcDbLine
 62
7
  6
CONTINUOUS
 10
133.7145108394
 20
226.2356997215
 11
120.8450299317
 21
233.6657298981
  0
LINE
  5
490
100
AcDbEntity
  8
0
100
AcDbLine
 62
7
  6
CONTINUOUS
 10
144.4802637577
 20
220.6352732262
 11
133.794351431
 21
226.8046480147
  0
LINE
  5
491
100
AcDbEntity
  8
0
100
AcDbLine
 62
7
  6
CONTINUOUS
 10
156.1475742226
 20
215.3258376569
 11
144.4802637577
 21
222.0618101065
  0
LINE
  5
492
100
AcDbEntity
  8
0
100
AcDbLine
 62
7
  6
CONTINUOUS
 10
158.8169181454
 20
213.948043299
 11
154.5742597945
 21
216.3974878262
  0
LINE
  5
493
100
AcDbEntity
  8
0
100
AcDbLine
 62
7
  6
CONTINUOUS
 10
112.1476762857
 20
240.8919330974
 11
107.9050179348
 21
243.3413776245
  0
LINE
  5
494
100
AcDbEntity
  8
0
100
AcDbLine
 62
7
  6
CONTINUOUS
 10
135.2416421926
 20
227.6402367376
 11
121.3753622256
 21
235.6457561002
  0
LINE
  5
495
100
AcDbEntity
  8
0
100
AcDbLine
 62
7
  6
CONTINUOUS
 10
166.9485819505
 20
226.8089882815
 11
166.9485819505
 21
227.338511641
  0
LINE
  5
496
100
AcDbEntity
  8
0
100
AcDbLine
 62
7
  6
CONTINUOUS
 10
171.5444221634
 20
274.776260849
 11
171.5444221634
 21
276.4092656832
  0
LINE
  5
497
100
AcDbEntity
  8
0
100
AcDbLine
 62
7
  6
CONTINUOUS
 10
172.1456715075
 20
247.3628170218
 11
172.1456715075
 21
247.4852892482
  0
LINE
  5
498
100
AcDbEntity
  8
0
100
AcDbLine
 62
7
  6
CONTINUOUS
 10
173.1711260409
 20
195.2065155453
 11
173.1711260409
 21
197.5011521211
  0
LINE
  5
499
100
AcDbEntity
  8
0
100
AcDbLine
 62
7
  6
CONTINUOUS
 10
175.9641632349
 20
230.2982648417
 11
175.9641632349
 21
231.1147672588
  0
LINE
  5
49A
100
AcDbEntity
  8
0
100
AcDbLine
 62
7
  6
CONTINUOUS
 10
178.1638716902
 20
270.5182518263
 11
177.6323795342
 21
264.3198592432
  0
LINE
  5
49B
100
AcDbEntity
  8
0
100
AcDbLine
 62
7
  6
CONTINUOUS
 10
95.4824349918
 20
118.7864780295
 11
96.3937118803
 21
119.5142269706
  0
LINE
  5
49C
100
AcDbEntity
  8
0
100
AcDbLine
 62
7
  6
CONTINUOUS
 10
70.7728461308
 20
127.9947924319
 11
72.5406057238
 21
129.0154028166
  0
LINE
  5
49D
100
AcDbEntity
  8
0
100
AcDbLine
 62
7
  6
CONTINUOUS
 10
92.2073951798
 20
138.7122522588
 11
90.4396355867
 21
137.6916418741
  0
LINE
  5
49E
100
AcDbEntity
  8
0
100
AcDbLine
 62
7
  6
CONTINUOUS
 10
75.0011940045
 20
128.3725168711
 11
76.7689535975
 21
129.3931272558
  0
LINE
  5
49F
100
AcDbEntity
  8
0
100
AcDbLine
 62
7
  6
CONTINUOUS
 10
119.6432672353
 20
153.7719093579
 11
119.4311343177
 21
153.6494350919
  0
LINE
  5
4A0
100
AcDbEntity
  8
0
100
AcDbLine
 62
7
  6
CONTINUOUS
 10
79.2933576319
 20
128.755942064
 11
81.0611172249
 21
129.7765524487
  0
LINE
  5
4A1
100
AcDbEntity
  8
0
100
AcDbLine
 62
7
  6
CONTINUOUS
 10
136.3730373036
 20
228.2934441104
 11
121.3753622256
 21
236.9521599676
  0
LINE
  5
4A2
100
AcDbEntity
  8
0
100
AcDbLine
 62
7
  6
CONTINUOUS
 10
121.8986221268
 20
236.8296884891
 11
136.5286001478
 21
228.3832578243
  0
LINE
  5
4A3
100
AcDbEntity
  8
0
100
AcDbLine
 62
7
  6
CONTINUOUS
 10
112.1476762857
 20
242.9331891402
 11
154.5742597945
 21
218.438743869
  0
LINE
  5
4A4
100
AcDbEntity
  8
0
100
AcDbLine
 62
7
  6
CONTINUOUS
 10
107.9050179348
 20
247.6139232733
 11
77.2164111152
 21
265.3315978544
  0
LINE
  5
4A5
100
AcDbEntity
  8
0
100
AcDbLine
 62
7
  6
CONTINUOUS
 10
158.8169181454
 20
218.4388065933
 11
107.9050179348
 21
247.8321409187
  0
LINE
  5
4A6
100
AcDbEntity
  8
0
100
AcDbLine
 62
7
  6
CONTINUOUS
 10
77.2164093488
 20
265.5906065778
 11
107.9226803484
 21
247.8627338084
  0
LINE
  5
4A7
100
AcDbEntity
  8
0
100
AcDbLine
 62
7
  6
CONTINUOUS
 10
181.51495132
 20
205.5491594984
 11
179.6728148402
 21
206.6126934305
  0
LINE
  5
4A8
100
AcDbEntity
  8
0
100
AcDbLine
 62
7
  6
CONTINUOUS
 10
190.1381766548
 20
206.4703079284
 11
188.2791712625
 21
207.5435809114
  0
LINE
  5
4A9
100
AcDbEntity
  8
0
100
AcDbLine
 62
7
  6
CONTINUOUS
 10
181.51495132
 20
207.8417199931
 11
181.51495132
 21
205.5491594984
  0
LINE
  5
4AA
100
AcDbEntity
  8
0
100
AcDbLine
 62
7
  6
CONTINUOUS
 10
182.9998390553
 20
236.6056539339
 11
182.9998390553
 21
234.9726490996
  0
LINE
  5
4AB
100
AcDbEntity
  8
0
100
AcDbLine
 62
7
  6
CONTINUOUS
 10
184.1664367401
 20
254.1396689563
 11
184.1664367401
 21
254.425439864
  0
LINE
  5
4AC
100
AcDbEntity
  8
0
100
AcDbLine
 62
7
  6
CONTINUOUS
 10
102.4822839807
 20
106.6623117115
 11
104.9816900445
 21
108.8307317712
  0
LINE
  5
4AD
100
AcDbEntity
  8
0
100
AcDbLine
 62
7
  6
CONTINUOUS
 10
103.7559123735
 20
110.3556063824
 11
101.4823769072
 21
108.3942119306
  0
LINE
  5
4AE
100
AcDbEntity
  8
0
100
AcDbLine
 62
7
  6
CONTINUOUS
 10
98.9824394406
 20
112.7242564202
 11
100.6904942506
 21
114.1690045041
  0
LINE
  5
4AF
100
AcDbEntity
  8
0
100
AcDbLine
 62
7
  6
CONTINUOUS
 10
99.4637242889
 20
115.6951135306
 11
97.9824613223
 21
114.456279647
  0
LINE
  5
4B0
100
AcDbEntity
  8
0
100
AcDbLine
 62
7
  6
CONTINUOUS
 10
96.3946078079
 20
130.2836215087
 11
98.1623674009
 21
131.3042318934
  0
LINE
  5
4B1
100
AcDbEntity
  8
0
100
AcDbLine
 62
7
  6
CONTINUOUS
 10
100.6913454434
 20
130.6674553043
 11
102.4591050364
 21
131.688065689
  0
LINE
  5
4B2
100
AcDbEntity
  8
0
100
AcDbLine
 62
7
  6
CONTINUOUS
 10
104.98252115
 20
131.0507922448
 11
106.750280743
 21
132.0714026295
  0
LINE
  5
4B3
100
AcDbEntity
  8
0
100
AcDbLine
 62
7
  6
CONTINUOUS
 10
111.1341970665
 20
140.4768052161
 11
121.5524634932
 21
145.8926934913
  0
LINE
  5
4B4
100
AcDbEntity
  8
0
100
AcDbLine
 62
7
  6
CONTINUOUS
 10
121.5524634932
 20
137.72766932
 11
111.1341970665
 21
132.3117810448
  0
LINE
  5
4B5
100
AcDbEntity
  8
0
100
AcDbLine
 62
7
  6
CONTINUOUS
 10
216.8347879888
 20
199.6238995559
 11
214.9169033818
 21
200.7311657003
  0
LINE
  5
4B6
100
AcDbEntity
  8
0
100
AcDbLine
 62
7
  6
CONTINUOUS
 10
173.277175719
 20
228.583657584
 11
172.4286440488
 21
229.0735464895
  0
LINE
  5
4B7
100
AcDbEntity
  8
0
100
AcDbLine
 62
7
  6
CONTINUOUS
 10
217.2427956424
 20
204.6110660794
 11
215.3238229224
 21
205.7189604319
  0
LINE
  5
4B8
100
AcDbEntity
  8
0
100
AcDbLine
 62
7
  6
CONTINUOUS
 10
175.9641632349
 20
230.2982648417
 11
176.1055729607
 21
230.2166237454
  0
LINE
  5
4B9
100
AcDbEntity
  8
0
100
AcDbLine
 62
7
  6
CONTINUOUS
 10
193.9949778269
 20
286.5132853718
 11
193.9949778269
 21
288.1462902061
  0
LINE
  5
4BA
100
AcDbEntity
  8
0
100
AcDbLine
 62
7
  6
CONTINUOUS
 10
196.1163423299
 20
280.2263531745
 11
196.1163423299
 21
280.3896536579
  0
LINE
  5
4BB
100
AcDbEntity
  8
0
100
AcDbLine
 62
7
  6
CONTINUOUS
 10
107.9842733072
 20
105.0955005841
 11
104.9322050195
 21
102.4188988039
  0
LINE
  5
4BC
100
AcDbEntity
  8
0
100
AcDbLine
 62
7
  6
CONTINUOUS
 10
97.1023779088
 20
120.5224239911
 11
98.8701375018
 21
121.5430343758
  0
LINE
  5
4BD
100
AcDbEntity
  8
0
100
AcDbLine
 62
7
  6
CONTINUOUS
 10
95.4825001195
 20
118.7863652939
 11
96.5044957296
 21
119.3764112124
  0
LINE
  5
4BE
100
AcDbEntity
  8
0
100
AcDbLine
 62
7
  6
CONTINUOUS
 10
92.2073951798
 20
115.9105173068
 11
90.4396355867
 21
114.8899069221
  0
LINE
  5
4BF
100
AcDbEntity
  8
0
100
AcDbLine
 62
7
  6
CONTINUOUS
 10
83.2836851682
 20
108.7904606028
 11
85.0514447613
 21
109.8110709874
  0
LINE
  5
4C0
100
AcDbEntity
  8
0
100
AcDbLine
 62
7
  6
CONTINUOUS
 10
92.2073951798
 20
110.1876153905
 11
90.4396355867
 21
109.1670050059
  0
LINE
  5
4C1
100
AcDbEntity
  8
0
100
AcDbLine
 62
7
  6
CONTINUOUS
 10
101.399160279
 20
115.1772015246
 11
103.166919872
 21
116.1978119093
  0
LINE
  5
4C2
100
AcDbEntity
  8
0
100
AcDbLine
 62
7
  6
CONTINUOUS
 10
98.9824844504
 20
112.7241784209
 11
100.7502440435
 21
113.7447888056
  0
LINE
  5
4C3
100
AcDbEntity
  8
0
100
AcDbLine
 62
7
  6
CONTINUOUS
 10
90.4396355867
 20
104.659064167
 11
92.2073951798
 21
105.6796745517
  0
LINE
  5
4C4
100
AcDbEntity
  8
0
100
AcDbLine
 62
7
  6
CONTINUOUS
 10
175.9641632349
 20
231.1147672588
 11
176.8126949051
 21
230.6248783534
  0
LINE
  5
4C5
100
AcDbEntity
  8
0
100
AcDbLine
 62
7
  6
CONTINUOUS
 10
217.3061273211
 20
209.3874383961
 11
215.3866709016
 21
210.4956120064
  0
LINE
  5
4C6
100
AcDbEntity
  8
0
100
AcDbLine
 62
7
  6
CONTINUOUS
 10
217.2836191978
 20
214.1113649875
 11
215.3638509329
 21
215.2197186377
  0
LINE
  5
4C7
100
AcDbEntity
  8
0
100
AcDbLine
 62
7
  6
CONTINUOUS
 10
217.1753972572
 20
218.782960487
 11
215.2554883993
 21
219.8913953068
  0
LINE
  5
4C8
100
AcDbEntity
  8
0
100
AcDbLine
 62
7
  6
CONTINUOUS
 10
199.5733668327
 20
270.5182518263
 11
200.1048589886
 21
264.3198592432
  0
LINE
  5
4C9
100
AcDbEntity
  8
0
100
AcDbLine
 62
7
  6
CONTINUOUS
 10
202.6927112445
 20
190.8186619749
 11
202.6927112445
 21
193.1075701392
  0
LINE
  5
4CA
100
AcDbEntity
  8
0
100
AcDbLine
 62
7
  6
CONTINUOUS
 10
202.6927112445
 20
195.559955934
 11
202.6927112445
 21
197.848834706
  0
LINE
  5
4CB
100
AcDbEntity
  8
0
100
AcDbLine
 62
7
  6
CONTINUOUS
 10
202.6927112445
 20
200.3011892661
 11
202.6927112445
 21
202.5900391232
  0
LINE
  5
4CC
100
AcDbEntity
  8
0
100
AcDbLine
 62
7
  6
CONTINUOUS
 10
202.6927112445
 20
205.0423629547
 11
202.6927112445
 21
207.3311843639
  0
LINE
  5
4CD
100
AcDbEntity
  8
0
100
AcDbLine
 62
7
  6
CONTINUOUS
 10
202.6927112445
 20
209.7834779617
 11
202.6927112445
 21
212.0722713802
  0
LINE
  5
4CE
100
AcDbEntity
  8
0
100
AcDbLine
 62
7
  6
CONTINUOUS
 10
105.690356073
 20
109.8389287917
 11
107.458115666
 21
110.8595391764
  0
LINE
  5
4CF
100
AcDbEntity
  8
0
100
AcDbLine
 62
7
  6
CONTINUOUS
 10
102.4824687814
 20
106.6619915479
 11
104.2502283744
 21
107.6826019326
  0
LINE
  5
4D0
100
AcDbEntity
  8
0
100
AcDbLine
 62
7
  6
CONTINUOUS
 10
97.9491261479
 20
102.364759625
 11
96.1813665549
 21
101.3441492403
  0
LINE
  5
4D1
100
AcDbEntity
  8
0
100
AcDbLine
 62
7
  6
CONTINUOUS
 10
172.2870943357
 20
247.281168361
 11
141.5278212918
 21
265.0396411827
  0
LINE
  5
4D2
100
AcDbEntity
  8
0
100
AcDbLine
 62
7
  6
CONTINUOUS
 10
172.1456715075
 20
247.4852892482
 11
141.7399533261
 21
265.0396416926
  0
LINE
  5
4D3
100
AcDbEntity
  8
0
100
AcDbLine
 62
7
  6
CONTINUOUS
 10
238.2246790645
 20
217.0902326865
 11
236.2545318448
 21
218.2276719818
  0
LINE
  5
4D4
100
AcDbEntity
  8
0
100
AcDbLine
 62
7
  6
CONTINUOUS
 10
216.8347879888
 20
201.9111145939
 11
216.8347879888
 21
199.6238995559
  0
LINE
  5
4D5
100
AcDbEntity
  8
0
100
AcDbLine
 62
7
  6
CONTINUOUS
 10
238.2246790645
 20
221.8259497031
 11
236.2544706967
 21
222.9634243015
  0
LINE
  5
4D6
100
AcDbEntity
  8
0
100
AcDbLine
 62
7
  6
CONTINUOUS
 10
153.7607185588
 20
271.9797923084
 11
184.1664367401
 21
254.425439864
  0
LINE
  5
4D7
100
AcDbEntity
  8
0
100
AcDbLine
 62
7
  6
CONTINUOUS
 10
153.7607176756
 20
272.1022650446
 11
184.5199907195
 21
254.343792223
  0
LINE
  5
4D8
100
AcDbEntity
  8
0
100
AcDbLine
 62
7
  6
CONTINUOUS
 10
238.2246790645
 20
226.5616666873
 11
236.2544463197
 21
227.6991553594
  0
LINE
  5
4D9
100
AcDbEntity
  8
0
100
AcDbLine
 62
7
  6
CONTINUOUS
 10
171.5444928186
 20
266.6114467825
 11
163.0591761169
 21
271.5103358368
  0
LINE
  5
4DA
100
AcDbEntity
  8
0
100
AcDbLine
 62
7
  6
CONTINUOUS
 10
238.2246790645
 20
231.2973836397
 11
236.2544581077
 21
232.4348655062
  0
LINE
  5
4DB
100
AcDbEntity
  8
0
100
AcDbLine
 62
7
  6
CONTINUOUS
 10
129.3306321982
 20
91.5952839399
 11
124.7344572563
 21
88.9416969397
  0
LINE
  5
4DC
100
AcDbEntity
  8
0
100
AcDbLine
 62
7
  6
CONTINUOUS
 10
127.3600694158
 20
93.7978377805
 11
121.5524634932
 21
90.7787803351
  0
LINE
  5
4DD
100
AcDbEntity
  8
0
100
AcDbLine
 62
7
  6
CONTINUOUS
 10
171.5444309953
 20
273.7964842115
 11
177.7669758039
 21
270.2039775646
  0
LINE
  5
4DE
100
AcDbEntity
  8
0
100
AcDbLine
 62
7
  6
CONTINUOUS
 10
238.2246790645
 20
236.0331005609
 11
236.2545055088
 21
237.170555061
  0
LINE
  5
4DF
100
AcDbEntity
  8
0
100
AcDbLine
 62
7
  6
CONTINUOUS
 10
171.5444221634
 20
274.776260849
 11
178.2392317855
 21
270.9110981531
  0
LINE
  5
4E0
100
AcDbEntity
  8
0
100
AcDbLine
 62
7
  6
CONTINUOUS
 10
171.5444221634
 20
276.4092656832
 11
178.8243678751
 21
272.2062821511
  0
LINE
  5
4E1
100
AcDbEntity
  8
0
100
AcDbLine
 62
7
  6
CONTINUOUS
 10
236.5309285356
 20
266.2422680855
 11
236.5309285356
 21
268.4326117874
  0
LINE
  5
4E2
100
AcDbEntity
  8
0
100
AcDbLine
 62
7
  6
CONTINUOUS
 10
238.2246790645
 20
238.3193087186
 11
238.2246790645
 21
236.0331005609
  0
LINE
  5
4E3
100
AcDbEntity
  8
0
100
AcDbLine
 62
7
  6
CONTINUOUS
 10
238.2246790645
 20
233.5835918124
 11
238.2246790645
 21
231.2973836397
  0
LINE
  5
4E4
100
AcDbEntity
  8
0
100
AcDbLine
 62
7
  6
CONTINUOUS
 10
238.2246790645
 20
228.8478748752
 11
238.2246790645
 21
226.5616666873
  0
LINE
  5
4E5
100
AcDbEntity
  8
0
100
AcDbLine
 62
7
  6
CONTINUOUS
 10
238.2246790645
 20
224.1121579064
 11
238.2246790645
 21
221.8259497031
  0
LINE
  5
4E6
100
AcDbEntity
  8
0
100
AcDbLine
 62
7
  6
CONTINUOUS
 10
238.2246790645
 20
219.3764409055
 11
238.2246790645
 21
217.0902326865
  0
LINE
  5
4E7
100
AcDbEntity
  8
0
100
AcDbLine
 62
7
  6
CONTINUOUS
 10
238.4098868855
 20
265.8104098282
 11
238.4098868855
 21
265.1574755176
  0
LINE
  5
4E8
100
AcDbEntity
  8
0
100
AcDbLine
 62
7
  6
CONTINUOUS
 10
239.0732036692
 20
264.7745180577
 11
239.0732036692
 21
247.2197160894
  0
LINE
  5
4E9
100
AcDbEntity
  8
0
100
AcDbLine
 62
7
  6
CONTINUOUS
 10
132.866180824
 20
89.5540801673
 11
128.2700058821
 21
86.9004931671
  0
LINE
  5
4EA
100
AcDbEntity
  8
0
100
AcDbLine
 62
7
  6
CONTINUOUS
 10
128.2700058821
 20
84.4509153689
 11
124.7344572563
 21
82.4096776027
  0
LINE
  5
4EB
100
AcDbEntity
  8
0
100
AcDbLine
 62
7
  6
CONTINUOUS
 10
251.6596519716
 20
154.4649159299
 11
242.4673020878
 21
149.1577419296
  0
LINE
  5
4EC
100
AcDbEntity
  8
0
100
AcDbLine
 62
7
  6
CONTINUOUS
 10
140.644349529
 20
90.3705837721
 11
131.4519996452
 21
85.0634097718
  0
LINE
  5
4ED
100
AcDbEntity
  8
0
100
AcDbLine
 62
7
  6
CONTINUOUS
 10
251.6596519716
 20
147.9328965929
 11
131.4519996452
 21
78.5313904347
  0
LINE
  5
4EE
100
AcDbEntity
  8
0
100
AcDbLine
 62
7
  6
CONTINUOUS
 10
216.6579443183
 20
261.2227548265
 11
199.3035026509
 21
271.2421197264
  0
LINE
  5
4EF
100
AcDbEntity
  8
0
100
AcDbLine
 62
7
  6
CONTINUOUS
 10
190.5738365926
 20
276.282080756
 11
182.0095677861
 21
281.2265517979
  0
LINE
  5
4F0
100
AcDbEntity
  8
0
100
AcDbLine
 62
7
  6
CONTINUOUS
 10
196.1163423299
 20
280.2263531745
 11
217.8953194206
 21
267.6525393462
  0
LINE
  5
4F1
100
AcDbEntity
  8
0
100
AcDbLine
 62
7
  6
CONTINUOUS
 10
196.1163423299
 20
280.3896536579
 11
218.0367438095
 21
267.7341902678
  0
LINE
  5
4F2
100
AcDbEntity
  8
0
100
AcDbLine
 62
7
  6
CONTINUOUS
 10
241.7601158195
 20
261.407965519
 11
241.7601158195
 21
271.4573101507
  0
LINE
  5
4F3
100
AcDbEntity
  8
0
100
AcDbLine
 62
7
  6
CONTINUOUS
 10
242.4673020878
 20
149.1577419296
 11
242.4673020878
 21
260.9564807502
  0
LINE
  5
4F4
100
AcDbEntity
  8
0
100
AcDbLine
 62
7
  6
CONTINUOUS
 10
251.6596519716
 20
154.4649159299
 11
251.6596519716
 21
147.9328965929
  0
LINE
  5
4F5
100
AcDbEntity
  8
0
100
AcDbLine
 62
7
  6
CONTINUOUS
 10
150.0649146169
 20
314.6664501608
 11
143.4719405672
 21
318.110186383
  0
LINE
  5
4F6
100
AcDbEntity
  8
0
100
AcDbLine
 62
7
  6
CONTINUOUS
 10
193.9949778269
 20
286.5132853718
 11
227.2291104703
 21
267.3259840186
  0
LINE
  5
4F7
100
AcDbEntity
  8
0
100
AcDbLine
 62
7
  6
CONTINUOUS
 10
193.9949778269
 20
288.1462902061
 11
228.6433543591
 21
268.1424932346
  0
LINE
  5
4F8
100
AcDbEntity
  8
0
100
AcDbLine
 62
7
  6
CONTINUOUS
 10
188.1613034586
 20
294.1678523831
 11
239.0732036692
 21
264.7745180577
  0
LINE
  5
4F9
100
AcDbEntity
  8
0
100
AcDbLine
 62
7
  6
CONTINUOUS
 10
241.7601158195
 20
271.4573101507
 11
162.5638266031
 21
317.1802746569
  0
ARC
  5
4FA
100
AcDbEntity
  8
0
100
AcDbCircle
 62
7
  6
CONTINUOUS
 10
-53.5293719776
 20
212.6231313926
 40
274.373810614
100
AcDbArc
 50
358.7762488866
 51
359.2588857333
  0
ARC
  5
4FB
100
AcDbEntity
  8
0
100
AcDbCircle
 62
7
  6
CONTINUOUS
 10
-52.5415268577
 20
210.5864866702
 40
269.8504888231
100
AcDbArc
 50
358.7311701112
 51
359.2222271115
  0
ARC
  5
4FC
100
AcDbEntity
  8
0
100
AcDbCircle
 62
7
  6
CONTINUOUS
 10
-46.3856821356
 20
212.5559736877
 40
267.2297488821
100
AcDbArc
 50
359.7815142332
 51
359.9998797802
  0
ARC
  5
4FD
100
AcDbEntity
  8
0
100
AcDbCircle
 62
7
  6
CONTINUOUS
 10
-44.4053761926
 20
212.5562866275
 40
265.2494429398
100
AcDbArc
 50
359.9998112854
 51
0.2736557619
  0
ARC
  5
4FE
100
AcDbEntity
  8
0
100
AcDbCircle
 62
7
  6
CONTINUOUS
 10
-45.3006710385
 20
210.5148906419
 40
262.6092185992
100
AcDbArc
 50
359.7540130005
 51
359.9998476166
  0
ARC
  5
4FF
100
AcDbEntity
  8
0
100
AcDbCircle
 62
7
  6
CONTINUOUS
 10
-43.3199838585
 20
210.5149370674
 40
260.6285314193
100
AcDbArc
 50
359.9998362525
 51
0.2549140876
  0
ARC
  5
500
100
AcDbEntity
  8
0
100
AcDbCircle
 62
7
  6
CONTINUOUS
 10
-37.1289654522
 20
212.6308388088
 40
257.9725871445
100
AcDbArc
 50
0.8059526167
 51
1.3083448289
  0
ARC
  5
501
100
AcDbEntity
  8
0
100
AcDbCircle
 62
7
  6
CONTINUOUS
 10
-36.1352383973
 20
210.5875571461
 40
253.4433558145
100
AcDbArc
 50
0.7966506837
 51
1.3080586151
  0
ARC
  5
502
100
AcDbEntity
  8
0
100
AcDbCircle
 62
7
  6
CONTINUOUS
 10
-29.0752563413
 20
212.852996462
 40
249.9157278158
100
AcDbArc
 50
1.8523110864
 51
2.3655205946
  0
ARC
  5
503
100
AcDbEntity
  8
0
100
AcDbCircle
 62
7
  6
CONTINUOUS
 10
-28.0822171139
 20
210.8103447471
 40
245.3871634963
100
AcDbArc
 50
1.8618644548
 51
2.384435537
  0
ARC
  5
504
100
AcDbEntity
  8
0
100
AcDbCircle
 62
7
  6
CONTINUOUS
 10
-21.1368951463
 20
213.2194601653
 40
241.9688231147
100
AcDbArc
 50
2.9214244638
 51
3.4461071482
  0
ARC
  5
505
100
AcDbEntity
  8
0
100
AcDbCircle
 62
7
  6
CONTINUOUS
 10
-13.3336276818
 20
195.6425207459
 40
203.7597019414
100
AcDbArc
 50
3.0461315624
 51
3.6676794982
  0
ARC
  5
506
100
AcDbEntity
  8
0
100
AcDbCircle
 62
7
  6
CONTINUOUS
 10
-2.0053909371
 20
182.547231605
 40
169.0822536996
100
AcDbArc
 50
4.3838060823
 51
5.1224957933
  0
ARC
  5
507
100
AcDbEntity
  8
0
100
AcDbCircle
 62
7
  6
CONTINUOUS
 10
-0.8692030643
 20
180.5292011325
 40
164.409240427
100
AcDbArc
 50
4.3666644551
 51
5.126417662
  0
ARC
  5
508
100
AcDbEntity
  8
0
100
AcDbCircle
 62
7
  6
CONTINUOUS
 10
120.1402623095
 20
146.4732243381
 40
50.7015509805
100
AcDbArc
 50
203.3807348909
 51
203.7288661968
  0
ARC
  5
509
100
AcDbEntity
  8
0
100
AcDbCircle
 62
7
  6
CONTINUOUS
 10
113.9412187512
 20
142.815554164
 40
39.5237029809
100
AcDbArc
 50
204.0188395445
 51
204.5101714149
  0
ARC
  5
50A
100
AcDbEntity
  8
0
100
AcDbCircle
 62
7
  6
CONTINUOUS
 10
107.5966844983
 20
139.0862843861
 40
28.1255274317
100
AcDbArc
 50
205.2042807137
 51
205.9096516135
  0
ARC
  5
50B
100
AcDbEntity
  8
0
100
AcDbCircle
 62
7
  6
CONTINUOUS
 10
82.2688822224
 20
146.3641701644
 40
11.4499488515
100
AcDbArc
 50
138.3725533615
 51
141.9876794299
  0
ARC
  5
50C
100
AcDbEntity
  8
0
100
AcDbCircle
 62
7
  6
CONTINUOUS
 10
101.4712666052
 20
112.6121651275
 40
10.5630120755
100
AcDbArc
 50
287.6313940142
 51
288.6619717525
  0
ARC
  5
50D
100
AcDbEntity
  8
0
100
AcDbCircle
 62
7
  6
CONTINUOUS
 10
101.5192957116
 20
112.4731044526
 40
10.4158943039
100
AcDbArc
 50
288.6564343736
 51
292.5449574226
  0
ARC
  5
50E
100
AcDbEntity
  8
0
100
AcDbCircle
 62
7
  6
CONTINUOUS
 10
81.2829397423
 20
143.3689730309
 40
8.6110741222
100
AcDbArc
 50
109.6662814011
 51
119.960265811
  0
ARC
  5
50F
100
AcDbEntity
  8
0
100
AcDbCircle
 62
7
  6
CONTINUOUS
 10
84.1529763168
 20
142.7790140667
 40
8.5723834368
100
AcDbArc
 50
134.3428555476
 51
141.1587292916
  0
ARC
  5
510
100
AcDbEntity
  8
0
100
AcDbCircle
 62
7
  6
CONTINUOUS
 10
99.9631913697
 20
115.1019689302
 40
8.5688727811
100
AcDbArc
 50
300.0200560925
 51
308.670183603
  0
ARC
  5
511
100
AcDbEntity
  8
0
100
AcDbCircle
 62
7
  6
CONTINUOUS
 10
83.820983692
 20
143.1256534912
 40
8.0924323459
100
AcDbArc
 50
126.4632140782
 51
134.3772124539
  0
ARC
  5
512
100
AcDbEntity
  8
0
100
AcDbCircle
 62
7
  6
CONTINUOUS
 10
97.6734821065
 20
119.0734873332
 40
6.1531762011
100
AcDbArc
 50
300.0019065998
 51
302.0988237233
  0
ARC
  5
513
100
AcDbEntity
  8
0
100
AcDbCircle
 62
7
  6
CONTINUOUS
 10
96.8291016481
 20
120.7668108543
 40
6.0554060299
100
AcDbArc
 50
280.781244805
 51
283.4974750743
  0
ARC
  5
514
100
AcDbEntity
  8
0
100
AcDbCircle
 62
7
  6
CONTINUOUS
 10
184.612074985
 20
233.2087526725
 40
2.0299409561
100
AcDbArc
 50
63.9048807823
 51
66.4474436925
  0
ARC
  5
515
100
AcDbEntity
  8
0
100
AcDbCircle
 62
7
  6
CONTINUOUS
 10
184.6682077286
 20
233.3236543146
 40
1.9020611133
100
AcDbArc
 50
61.768990244
 51
63.9009621438
  0
ARC
  5
516
100
AcDbEntity
  8
0
100
AcDbCircle
 62
7
  6
CONTINUOUS
 10
167.1579529697
 20
226.1597508135
 40
0.653077222
100
AcDbArc
 50
156.6018432538
 51
164.9057428164
  0
ARC
  5
517
100
AcDbEntity
  8
0
100
AcDbCircle
 62
7
  6
CONTINUOUS
 10
182.1424574519
 20
233.5237134349
 40
0.5920746753
100
AcDbArc
 50
350.258354188
 51
359.9706133284
  0
ARC
  5
518
100
AcDbEntity
  8
0
100
AcDbCircle
 62
7
  6
CONTINUOUS
 10
775.9913744532
 20
-703.3227832127
 40
1072.0771422381
100
AcDbArc
 50
121.4076948249
 51
122.3273008698
  0
ARC
  5
519
100
AcDbEntity
  8
0
100
AcDbCircle
 62
7
  6
CONTINUOUS
 10
774.8021778538
 20
-699.1393585191
 40
1069.9784237223
100
AcDbArc
 50
121.4031051193
 51
122.3230617173
  0
ARC
  5
51A
100
AcDbEntity
  8
0
100
AcDbCircle
 62
7
  6
CONTINUOUS
 10
773.2732608139
 20
-703.3380398312
 40
1066.6301825773
100
AcDbArc
 50
121.4166512403
 51
122.3396771307
  0
ARC
  5
51B
100
AcDbEntity
  8
0
100
AcDbCircle
 62
7
  6
CONTINUOUS
 10
772.0590884729
 20
-699.1163511543
 40
1064.4857836224
100
AcDbArc
 50
121.4091829144
 51
122.3354055522
  0
ARC
  5
51C
100
AcDbEntity
  8
0
100
AcDbCircle
 62
7
  6
CONTINUOUS
 10
770.7485559685
 20
-703.6606607642
 40
1061.5463733077
100
AcDbArc
 50
121.4529980963
 51
122.3521233221
  0
ARC
  5
51D
100
AcDbEntity
  8
0
100
AcDbCircle
 62
7
  6
CONTINUOUS
 10
769.3699713522
 20
-699.1798113885
 40
1059.0950704972
100
AcDbArc
 50
121.4208193146
 51
122.3478429865
  0
ARC
  5
51E
100
AcDbEntity
  8
0
100
AcDbCircle
 62
7
  6
CONTINUOUS
 10
766.8976204462
 20
-699.5904589106
 40
1054.1136476316
100
AcDbArc
 50
121.4547473081
 51
122.3602611827
  0
ARC
  5
51F
100
AcDbEntity
  8
0
100
AcDbCircle
 62
7
  6
CONTINUOUS
 10
764.1255701103
 20
-670.3931147587
 40
1049.9190520153
100
AcDbArc
 50
120.0593368083
 51
121.1900955863
  0
ARC
  5
520
100
AcDbEntity
  8
0
100
AcDbCircle
 62
7
  6
CONTINUOUS
 10
761.2532207243
 20
-670.1577540927
 40
1044.1777988873
100
AcDbArc
 50
120.0595539367
 51
121.1816171963
  0
ARC
  5
521
100
AcDbEntity
  8
0
100
AcDbCircle
 62
7
  6
CONTINUOUS
 10
759.7078641147
 20
-665.1587956276
 40
1041.1971696301
100
AcDbArc
 50
120.056224964
 51
121.1885589626
  0
ARC
  5
522
100
AcDbEntity
  8
0
100
AcDbCircle
 62
7
  6
CONTINUOUS
 10
758.4310849534
 20
-670.0074926351
 40
1038.5353515552
100
AcDbArc
 50
120.0598194555
 51
121.1784183844
  0
ARC
  5
523
100
AcDbEntity
  8
0
100
AcDbCircle
 62
7
  6
CONTINUOUS
 10
756.8929675569
 20
-665.0200489131
 40
1035.5683142051
100
AcDbArc
 50
120.0565006931
 51
121.1825842286
  0
ARC
  5
524
100
AcDbEntity
  8
0
100
AcDbCircle
 62
7
  6
CONTINUOUS
 10
755.6591184389
 20
-669.9422674988
 40
1032.991633382
100
AcDbArc
 50
120.0601336993
 51
121.1805816798
  0
ARC
  5
525
100
AcDbEntity
  8
0
100
AcDbCircle
 62
7
  6
CONTINUOUS
 10
754.1135554654
 20
-664.9420704617
 40
1030.0098281787
100
AcDbArc
 50
120.0567948221
 51
121.1819581129
  0
ARC
  5
526
100
AcDbEntity
  8
0
100
AcDbCircle
 62
7
  6
CONTINUOUS
 10
752.9373533478
 20
-669.9621218563
 40
1027.54669786
100
AcDbArc
 50
120.0604977126
 51
121.1881967184
  0
ARC
  5
527
100
AcDbEntity
  8
0
100
AcDbCircle
 62
7
  6
CONTINUOUS
 10
751.3696232777
 20
-664.9248516337
 40
1024.5217017921
100
AcDbArc
 50
120.0571076112
 51
121.1867669473
  0
ARC
  5
528
100
AcDbEntity
  8
0
100
AcDbCircle
 62
7
  6
CONTINUOUS
 10
748.6612162353
 20
-664.9684609779
 40
1019.1040170404
100
AcDbArc
 50
120.0574395683
 51
121.1971048158
  0
ARC
  5
529
100
AcDbEntity
  8
0
100
AcDbCircle
 62
7
  6
CONTINUOUS
 10
696.8624296371
 20
-600.5532604635
 40
973.9989559269
100
AcDbArc
 50
117.8089797546
 51
118.0349441051
  0
ARC
  5
52A
100
AcDbEntity
  8
0
100
AcDbCircle
 62
7
  6
CONTINUOUS
 10
817.9595087893
 20
-793.464810931
 40
1241.7993913071
100
AcDbArc
 50
125.3780970225
 51
126.4496437894
  0
ARC
  5
52B
100
AcDbEntity
  8
0
100
AcDbCircle
 62
7
  6
CONTINUOUS
 10
856.9842961223
 20
-814.8866973499
 40
1240.9576900696
100
AcDbArc
 50
125.3692214231
 51
126.4535546518
  0
ARC
  5
52C
100
AcDbEntity
  8
0
100
AcDbCircle
 62
7
  6
CONTINUOUS
 10
809.6224547197
 20
-779.0578353566
 40
1221.662960595
100
AcDbArc
 50
125.3739095308
 51
125.5163850579
  0
ARC
  5
52D
100
AcDbEntity
  8
0
100
AcDbCircle
 62
7
  6
CONTINUOUS
 10
814.57222279
 20
-781.9155206302
 40
1221.6629605851
100
AcDbArc
 50
125.3739095308
 51
125.5163850579
  0
ARC
  5
52E
100
AcDbEntity
  8
0
100
AcDbCircle
 62
7
  6
CONTINUOUS
 10
808.2314851133
 20
-779.050280693
 40
1218.8411154076
100
AcDbArc
 50
125.3878983751
 51
125.5307289031
  0
ARC
  5
52F
100
AcDbEntity
  8
0
100
AcDbCircle
 62
7
  6
CONTINUOUS
 10
854.4616530244
 20
-801.7287256955
 40
1216.3733022491
100
AcDbArc
 50
124.8785097045
 51
125.9331304471
  0
ARC
  5
530
100
AcDbEntity
  8
0
100
AcDbCircle
 62
7
  6
CONTINUOUS
 10
802.7765077943
 20
-771.4839093814
 40
1215.6023812462
100
AcDbArc
 50
125.2307808569
 51
125.3649258828
  0
ARC
  5
531
100
AcDbEntity
  8
0
100
AcDbCircle
 62
7
  6
CONTINUOUS
 10
851.0246405953
 20
-799.8105908158
 40
1209.8037546377
100
AcDbArc
 50
124.6669263798
 51
125.7097584377
  0
ARC
  5
532
100
AcDbEntity
  8
0
100
AcDbCircle
 62
7
  6
CONTINUOUS
 10
798.5595484296
 20
-765.5095127909
 40
1208.2896418632
100
AcDbArc
 50
124.9007522968
 51
125.2308708122
  0
ARC
  5
533
100
AcDbEntity
  8
0
100
AcDbCircle
 62
7
  6
CONTINUOUS
 10
850.9560594537
 20
-807.2022371117
 40
1208.0174628674
100
AcDbArc
 50
125.3338528144
 51
125.7666744117
  0
ARC
  5
534
100
AcDbEntity
  8
0
100
AcDbCircle
 62
7
  6
CONTINUOUS
 10
848.1693567054
 20
-805.1113388875
 40
1202.822908726
100
AcDbArc
 50
125.3465544986
 51
125.7813194614
  0
ARC
  5
535
100
AcDbEntity
  8
0
100
AcDbCircle
 62
7
  6
CONTINUOUS
 10
848.2690744988
 20
-807.1863425744
 40
1202.5621358413
100
AcDbArc
 50
125.3611927103
 51
125.7961318874
  0
ARC
  5
536
100
AcDbEntity
  8
0
100
AcDbCircle
 62
7
  6
CONTINUOUS
 10
846.0236466231
 20
-794.5577696607
 40
1200.7493448146
100
AcDbArc
 50
124.6651163357
 51
125.7264425196
  0
ARC
  5
537
100
AcDbEntity
  8
0
100
AcDbCircle
 62
7
  6
CONTINUOUS
 10
845.4814787393
 20
-805.0959686089
 40
1197.3674888055
100
AcDbArc
 50
125.374025987
 51
125.8109274789
  0
ARC
  5
538
100
AcDbEntity
  8
0
100
AcDbCircle
 62
7
  6
CONTINUOUS
 10
845.5825279834
 20
-807.170187426
 40
1197.1068522158
100
AcDbArc
 50
125.3888154398
 51
125.8258933011
  0
ARC
  5
539
100
AcDbEntity
  8
0
100
AcDbCircle
 62
7
  6
CONTINUOUS
 10
841.4032601152
 20
-783.0279192869
 40
1193.5645007832
100
AcDbArc
 50
124.5283904258
 51
124.8776057297
  0
ARC
  5
53A
100
AcDbEntity
  8
0
100
AcDbCircle
 62
7
  6
CONTINUOUS
 10
842.7940332178
 20
-805.0803455703
 40
1191.9121146669
100
AcDbArc
 50
125.4017823739
 51
125.8408417797
  0
ARC
  5
53B
100
AcDbEntity
  8
0
100
AcDbCircle
 62
7
  6
CONTINUOUS
 10
842.896425775
 20
-807.1537659765
 40
1191.6516110414
100
AcDbArc
 50
125.4167254341
 51
125.8559634061
  0
ARC
  5
53C
100
AcDbEntity
  8
0
100
AcDbCircle
 62
7
  6
CONTINUOUS
 10
790.3417186829
 20
-752.204964497
 40
1190.8276166267
100
AcDbArc
 50
124.208859115
 51
124.8821310707
  0
ARC
  5
53D
100
AcDbEntity
  8
0
100
AcDbCircle
 62
7
  6
CONTINUOUS
 10
840.1070259948
 20
-805.0644642733
 40
1186.4567854932
100
AcDbArc
 50
125.4298281341
 51
125.8710671662
  0
ARC
  5
53E
100
AcDbEntity
  8
0
100
AcDbCircle
 62
7
  6
CONTINUOUS
 10
827.1649357044
 20
-765.3142492501
 40
1167.8597701818
100
AcDbArc
 50
123.5626795105
 51
124.4571679302
  0
ARC
  5
53F
100
AcDbEntity
  8
0
100
AcDbCircle
 62
7
  6
CONTINUOUS
 10
822.8684992845
 20
-760.8818428632
 40
1159.8807075783
100
AcDbArc
 50
123.5694840557
 51
124.4594088697
  0
ARC
  5
540
100
AcDbEntity
  8
0
100
AcDbCircle
 62
7
  6
CONTINUOUS
 10
815.8567828321
 20
-752.5108157109
 40
1146.9819494958
100
AcDbArc
 50
123.0689347429
 51
124.0784573241
  0
ARC
  5
541
100
AcDbEntity
  8
0
100
AcDbCircle
 62
7
  6
CONTINUOUS
 10
811.269793211
 20
-747.5732435869
 40
1138.421531452
100
AcDbArc
 50
123.0662053024
 51
124.091197413
  0
ARC
  5
542
100
AcDbEntity
  8
0
100
AcDbCircle
 62
7
  6
CONTINUOUS
 10
801.6005940273
 20
-723.2492006862
 40
1121.7434476128
100
AcDbArc
 50
122.3067546999
 51
123.0171272597
  0
ARC
  5
543
100
AcDbEntity
  8
0
100
AcDbCircle
 62
7
  6
CONTINUOUS
 10
781.5439636414
 20
-703.4772381128
 40
1083.1895848531
100
AcDbArc
 50
121.4061523334
 51
122.3029007528
  0
ARC
  5
544
100
AcDbEntity
  8
0
100
AcDbCircle
 62
7
  6
CONTINUOUS
 10
778.7483007605
 20
-703.3691975432
 40
1077.5969691022
100
AcDbArc
 50
121.4042253061
 51
122.3150425756
  0
ARC
  5
545
100
AcDbEntity
  8
0
100
AcDbCircle
 62
7
  6
CONTINUOUS
 10
777.5991036639
 20
-699.2487141879
 40
1075.5728178086
100
AcDbArc
 50
121.4024907234
 51
122.3108108108
  0
SPLINE
  5
546
100
AcDbEntity
  8
0
100
AcDbSpline
 62
7
  6
CONTINUOUS
 70
0
 71
3
 72
11
 73
7
 74
0
 42
0.0000001
 43
0.0000001
 44
0.0000000001
 40
0.0
 40
0.0
 40
0.0
 40
0.0
 40
0.261651817
 40
0.5129145417
 40
0.7575790609
 40
1.0
 40
1.0
 40
1.0
 40
1.0
 10
178.2625175908
 20
261.8328720998
 30
0.0
 10
178.1437209831
 20
262.0267929492
 30
0.0
 10
177.9360620126
 20
262.4233266027
 30
0.0
 10
177.721476826
 20
263.0486544343
 30
0.0
 10
177.6137836231
 20
263.6841907601
 30
0.0
 10
177.6143773043
 20
264.109928814
 30
0.0
 10
177.632384394
 20
264.3198591034
 30
0.0
  0
SPLINE
  5
547
100
AcDbEntity
  8
0
100
AcDbSpline
 62
7
  6
CONTINUOUS
 70
0
 71
3
 72
24
 73
20
 74
0
 42
0.0000001
 43
0.0000001
 44
0.0000000001
 40
0.0
 40
0.0
 40
0.0
 40
0.0
 40
0.0619213756
 40
0.1276999385
 40
0.1966767705
 40
0.2680283835
 40
0.3408258288
 40
0.4140761418
 40
0.4867678997
 40
0.5579131987
 40
0.6265912577
 40
0.6919946153
 40
0.7534817917
 40
0.8106390142
 40
0.8633537588
 40
0.9118991021
 40
0.9570126635
 40
0.9786868429
 40
1.0
 40
1.0
 40
1.0
 40
1.0
 10
196.4472570453
 20
274.5877971708
 30
0.0
 10
196.0705168782
 20
274.8053032871
 30
0.0
 10
195.2642468934
 20
275.2042416944
 30
0.0
 10
193.9646816022
 20
275.6801074747
 30
0.0
 10
192.5609656226
 20
276.044032629
 30
0.0
 10
191.0818682988
 20
276.2885285007
 30
0.0
 10
189.5574956018
 20
276.4086846203
 30
0.0
 10
188.0190310565
 20
276.4020282861
 30
0.0
 10
186.4979498873
 20
276.2687026215
 30
0.0
 10
185.0253467482
 20
276.0114268065
 30
0.0
 10
183.6312485637
 20
275.6354220586
 30
0.0
 10
182.3439611316
 20
275.148242378
 30
0.0
 10
181.1894719851
 20
274.5594750928
 30
0.0
 10
180.1909896907
 20
273.880416144
 30
0.0
 10
179.3687490548
 20
273.1233285535
 30
0.0
 10
178.7403788382
 20
272.3019263052
 30
0.0
 10
178.3866622285
 20
271.5648151406
 30
0.0
 10
178.2213996301
 20
270.9670449773
 30
0.0
 10
178.1766727146
 20
270.667436375
 30
0.0
 10
178.1638763339
 20
270.518251693
 30
0.0
  0
SPLINE
  5
548
100
AcDbEntity
  8
0
100
AcDbSpline
 62
7
  6
CONTINUOUS
 70
0
 71
3
 72
14
 73
10
 74
0
 42
0.0000001
 43
0.0000001
 44
0.0000000001
 40
0.0
 40
0.0
 40
0.0
 40
0.0
 40
0.1077541465
 40
0.2181888485
 40
0.3328140074
 40
0.4528509879
 40
0.5791888728
 40
0.712395105
 40
1.0
 40
1.0
 40
1.0
 40
1.0
 10
199.5733556661
 20
270.5182515118
 30
0.0
 10
199.5570083584
 20
270.7089451347
 30
0.0
 10
199.4927842108
 20
271.093048818
 30
0.0
 10
199.3062624783
 20
271.6561978696
 30
0.0
 10
199.0309255975
 20
272.2060720888
 30
0.0
 10
198.6696942675
 20
272.7378712925
 30
0.0
 10
198.2259470808
 20
273.2474603461
 30
0.0
 10
197.5115594253
 20
273.9084033149
 30
0.0
 10
196.8896635361
 20
274.3323794426
 30
0.0
 10
196.4472570453
 20
274.5877971708
 30
0.0
  0
SPLINE
  5
549
100
AcDbEntity
  8
0
100
AcDbSpline
 62
7
  6
CONTINUOUS
 70
0
 71
3
 72
11
 73
7
 74
0
 42
0.0000001
 43
0.0000001
 44
0.0000000001
 40
0.0
 40
0.0
 40
0.0
 40
0.0
 40
0.2409456489
 40
0.4847126626
 40
0.7363166507
 40
1.0
 40
1.0
 40
1.0
 40
1.0
 10
200.1048472875
 20
264.3198589149
 30
0.0
 10
200.1243482041
 20
264.0923802345
 30
0.0
 10
200.1217368611
 20
263.6300459121
 30
0.0
 10
199.9899091399
 20
262.9412110842
 30
0.0
 10
199.7327407235
 20
262.2659406895
 30
0.0
 10
199.486956022
 20
261.8414928999
 30
0.0
 10
199.3468982693
 20
261.6345795238
 30
0.0
  0
SPLINE
  5
54A
100
AcDbEntity
  8
0
100
AcDbSpline
 62
7
  6
CONTINUOUS
 70
0
 71
3
 72
25
 73
21
 74
0
 42
0.0000001
 43
0.0000001
 44
0.0000000001
 40
0.0
 40
0.0
 40
0.0
 40
0.0
 40
0.0628403756
 40
0.1297299275
 40
0.1999308407
 40
0.2725199446
 40
0.3464603046
 40
0.4206501698
 40
0.4939770243
 40
0.5653681064
 40
0.6338432846
 40
0.6985724705
 40
0.7589425378
 40
0.8146366927
 40
0.8657293005
 40
0.9127875749
 40
0.9351749057
 40
0.9570235013
 40
0.9785530594
 40
1.0
 40
1.0
 40
1.0
 40
1.0
 10
181.2899814775
 20
265.836792278
 30
0.0
 10
181.6834116848
 20
265.6096503806
 30
0.0
 10
182.5276262232
 20
265.1948740222
 30
0.0
 10
183.8905475113
 20
264.706290777
 30
0.0
 10
185.3639698524
 20
264.3401238355
 30
0.0
 10
186.9151032583
 20
264.1045720399
 30
0.0
 10
188.5096452103
 20
264.0047660509
 30
0.0
 10
190.1121613888
 20
264.0429436757
 30
0.0
 10
191.6870467111
 20
264.2182487321
 30
0.0
 10
193.1993577949
 20
264.5268053925
 30
0.0
 10
194.6156544463
 20
264.961833501
 30
0.0
 10
195.9047941801
 20
265.5139361157
 30
0.0
 10
197.038605097
 20
266.1714286146
 30
0.0
 10
197.9923720041
 20
266.9211835072
 30
0.0
 10
198.7446131442
 20
267.7483315036
 30
0.0
 10
199.1953259653
 20
268.503010863
 30
0.0
 10
199.4290354085
 20
269.1217753263
 30
0.0
 10
199.5414728304
 20
269.585060324
 30
0.0
 10
199.5930750848
 20
270.052105967
 30
0.0
 10
199.5865985115
 20
270.3637718749
 30
0.0
 10
199.5733556661
 20
270.5182515118
 30
0.0
  0
SPLINE
  5
54B
100
AcDbEntity
  8
0
100
AcDbSpline
 62
7
  6
CONTINUOUS
 70
0
 71
3
 72
15
 73
11
 74
0
 42
0.0000001
 43
0.0000001
 44
0.0000000001
 40
0.0
 40
0.0
 40
0.0
 40
0.0
 40
0.1086460792
 40
0.2185254258
 40
0.3318544097
 40
0.4505173396
 40
0.5759466215
 40
0.7090732539
 40
0.8504172933
 40
1.0
 40
1.0
 40
1.0
 40
1.0
 10
178.1638763339
 20
270.518251693
 30
0.0
 10
178.1454888444
 20
270.3038839093
 30
0.0
 10
178.1475449043
 20
269.8683252997
 30
0.0
 10
178.2697490416
 20
269.2192350833
 30
0.0
 10
178.5088787779
 20
268.582451558
 30
0.0
 10
178.86126991
 20
267.965481444
 30
0.0
 10
179.3221987469
 20
267.3747293021
 30
0.0
 10
179.8861423395
 20
266.8160238261
 30
0.0
 10
180.5467431421
 20
266.2950861166
 30
0.0
 10
181.0334434618
 20
265.9849012198
 30
0.0
 10
181.2899814775
 20
265.836792278
 30
0.0
  0
SPLINE
  5
54C
100
AcDbEntity
  8
0
100
AcDbSpline
 62
7
  6
CONTINUOUS
 70
0
 71
3
 72
11
 73
7
 74
0
 42
0.0000001
 43
0.0000001
 44
0.0000000001
 40
0.0
 40
0.0
 40
0.0
 40
0.0
 40
0.2177827477
 40
0.4509152641
 40
0.7103063952
 40
1.0
 40
1.0
 40
1.0
 40
1.0
 10
142.7571506876
 20
224.652036724
 30
0.0
 10
142.7571407217
 20
224.5790979002
 30
0.0
 10
142.7302021404
 20
224.4270685602
 30
0.0
 10
142.6149427379
 20
224.2152418673
 30
0.0
 10
142.432744856
 20
224.0237663612
 30
0.0
 10
142.2802990267
 20
223.9187668837
 30
0.0
 10
142.1962746162
 20
223.8702556572
 30
0.0
  0
SPLINE
  5
54D
100
AcDbEntity
  8
0
100
AcDbSpline
 62
7
  6
CONTINUOUS
 70
0
 71
3
 72
11
 73
7
 74
0
 42
0.0000001
 43
0.0000001
 44
0.0000000001
 40
0.0
 40
0.0
 40
0.0
 40
0.0
 40
0.2177827477
 40
0.4509152641
 40
0.7103063952
 40
1.0
 40
1.0
 40
1.0
 40
1.0
 10
139.1650332839
 20
226.7258997569
 30
0.0
 10
139.1650233179
 20
226.6529609331
 30
0.0
 10
139.1380847367
 20
226.5009315932
 30
0.0
 10
139.0228253342
 20
226.2891049003
 30
0.0
 10
138.8406274523
 20
226.0976293942
 30
0.0
 10
138.688181623
 20
225.9926299167
 30
0.0
 10
138.6041572124
 20
225.9441186902
 30
0.0
  0
SPLINE
  5
54E
100
AcDbEntity
  8
0
100
AcDbSpline
 62
7
  6
CONTINUOUS
 70
0
 71
3
 72
13
 73
9
 74
0
 42
0.0000001
 43
0.0000001
 44
0.0000000001
 40
0.0
 40
0.0
 40
0.0
 40
0.0
 40
0.3058958034
 40
0.5829443383
 40
0.7040991027
 40
0.8123288778
 40
0.9094595589
 40
1.0
 40
1.0
 40
1.0
 40
1.0
 10
144.4818647901
 20
221.4729117786
 30
0.0
 10
144.2315017045
 20
221.4692966616
 30
0.0
 10
143.7522448968
 20
221.515519454
 30
0.0
 10
143.1998563098
 20
221.7083106063
 30
0.0
 10
142.8539342608
 20
221.940879182
 30
0.0
 10
142.6662068924
 20
222.1345882323
 30
0.0
 10
142.5471633287
 20
222.3493813829
 30
0.0
 10
142.5192755749
 20
222.5040623102
 30
0.0
 10
142.5192857011
 20
222.5781736473
 30
0.0
  0
SPLINE
  5
54F
100
AcDbEntity
  8
0
100
AcDbSpline
 62
7
  6
CONTINUOUS
 70
0
 71
3
 72
16
 73
12
 74
0
 42
0.0000001
 43
0.0000001
 44
0.0000000001
 40
0.0
 40
0.0
 40
0.0
 40
0.0
 40
0.1287485152
 40
0.270396897
 40
0.4176196091
 40
0.5620243102
 40
0.6957521804
 40
0.8130664593
 40
0.9124733977
 40
0.9571202175
 40
1.0
 40
1.0
 40
1.0
 40
1.0
 10
142.1962746162
 20
223.8702556572
 30
0.0
 10
142.0545152503
 20
223.7884113377
 30
0.0
 10
141.7335566051
 20
223.6559811395
 30
0.0
 10
141.2104612822
 20
223.5513334492
 30
0.0
 10
140.6571615164
 20
223.5360488415
 30
0.0
 10
140.1189912795
 20
223.6115576368
 30
0.0
 10
139.6389426049
 20
223.7722310781
 30
0.0
 10
139.2543208542
 20
224.0056546837
 30
0.0
 10
139.0302246737
 20
224.2629492496
 30
0.0
 10
138.9417813966
 20
224.4857708684
 30
0.0
 10
138.9271608485
 20
224.5975198217
 30
0.0
 10
138.9271682974
 20
224.6520366803
 30
0.0
  0
SPLINE
  5
550
100
AcDbEntity
  8
0
100
AcDbSpline
 62
7
  6
CONTINUOUS
 70
0
 71
3
 72
16
 73
12
 74
0
 42
0.0000001
 43
0.0000001
 44
0.0000000001
 40
0.0
 40
0.0
 40
0.0
 40
0.0
 40
0.1287485152
 40
0.270396897
 40
0.4176196091
 40
0.5620243102
 40
0.6957521804
 40
0.8130664593
 40
0.9124733977
 40
0.9571202175
 40
1.0
 40
1.0
 40
1.0
 40
1.0
 10
138.6041572124
 20
225.9441186902
 30
0.0
 10
138.4623978465
 20
225.8622743707
 30
0.0
 10
138.1414392014
 20
225.7298441725
 30
0.0
 10
137.6183438785
 20
225.6251964822
 30
0.0
 10
137.0650441126
 20
225.6099118744
 30
0.0
 10
136.5268738758
 20
225.6854206698
 30
0.0
 10
136.0468252011
 20
225.846094111
 30
0.0
 10
135.6622034505
 20
226.0795177166
 30
0.0
 10
135.43810727
 20
226.3368122826
 30
0.0
 10
135.3496639929
 20
226.5596339014
 30
0.0
 10
135.3350434447
 20
226.6713828547
 30
0.0
 10
135.3350508936
 20
226.7258997132
 30
0.0
  0
SPLINE
  5
551
100
AcDbEntity
  8
0
100
AcDbSpline
 62
7
  6
CONTINUOUS
 70
0
 71
3
 72
11
 73
7
 74
0
 42
0.0000001
 43
0.0000001
 44
0.0000000001
 40
0.0
 40
0.0
 40
0.0
 40
0.0
 40
0.2177827477
 40
0.4509152641
 40
0.7103063952
 40
1.0
 40
1.0
 40
1.0
 40
1.0
 10
135.3350508936
 20
226.7258997132
 30
0.0
 10
135.3350608596
 20
226.798838537
 30
0.0
 10
135.3619994409
 20
226.950867877
 30
0.0
 10
135.4772588434
 20
227.1626945699
 30
0.0
 10
135.6594567253
 20
227.354170076
 30
0.0
 10
135.8119025546
 20
227.4591695535
 30
0.0
 10
135.8959269651
 20
227.50768078
 30
0.0
  0
SPLINE
  5
552
100
AcDbEntity
  8
0
100
AcDbSpline
 62
7
  6
CONTINUOUS
 70
0
 71
3
 72
9
 73
5
 74
0
 42
0.0000001
 43
0.0000001
 44
0.0000000001
 40
0.0
 40
0.0
 40
0.0
 40
0.0
 40
0.274366605
 40
1.0
 40
1.0
 40
1.0
 40
1.0
 10
143.0801617726
 20
222.6251025386
 30
0.0
 10
143.0318108762
 20
222.5971873022
 30
0.0
 10
142.860760173
 20
222.4876091045
 30
0.0
 10
142.7091722381
 20
222.341478705
 30
0.0
 10
142.6313490435
 20
222.2159929913
 30
0.0
  0
SPLINE
  5
553
100
AcDbEntity
  8
0
100
AcDbSpline
 62
7
  6
CONTINUOUS
 70
0
 71
3
 72
9
 73
5
 74
0
 42
0.0000001
 43
0.0000001
 44
0.0000000001
 40
0.0
 40
0.0
 40
0.0
 40
0.0
 40
0.274366605
 40
1.0
 40
1.0
 40
1.0
 40
1.0
 10
139.4880443689
 20
224.6989655716
 30
0.0
 10
139.4396934725
 20
224.6710503352
 30
0.0
 10
139.2686427693
 20
224.5614721375
 30
0.0
 10
139.1170548343
 20
224.4153417379
 30
0.0
 10
139.0392316398
 20
224.2898560243
 30
0.0
  0
SPLINE
  5
554
100
AcDbEntity
  8
0
100
AcDbSpline
 62
7
  6
CONTINUOUS
 70
0
 71
3
 72
9
 73
5
 74
0
 42
0.0000001
 43
0.0000001
 44
0.0000000001
 40
0.0
 40
0.0
 40
0.0
 40
0.0
 40
0.274366605
 40
1.0
 40
1.0
 40
1.0
 40
1.0
 10
135.8959269651
 20
226.7728286046
 30
0.0
 10
135.8475760688
 20
226.7449133682
 30
0.0
 10
135.6765253656
 20
226.6353351704
 30
0.0
 10
135.5249374306
 20
226.4892047709
 30
0.0
 10
135.4471142361
 20
226.3637190573
 30
0.0
  0
SPLINE
  5
555
100
AcDbEntity
  8
0
100
AcDbSpline
 62
7
  6
CONTINUOUS
 70
0
 71
3
 72
14
 73
10
 74
0
 42
0.0000001
 43
0.0000001
 44
0.0000000001
 40
0.0
 40
0.0
 40
0.0
 40
0.0
 40
0.1200888117
 40
0.2510799843
 40
0.526699298
 40
0.6614798337
 40
0.7873717936
 40
0.9007235974
 40
1.0
 40
1.0
 40
1.0
 40
1.0
 10
143.0801617726
 20
223.3599547141
 30
0.0
 10
143.1954727198
 20
223.4265291231
 30
0.0
 10
143.4520785423
 20
223.5396102364
 30
0.0
 10
144.0197024695
 20
223.6834911243
 30
0.0
 10
144.6293736884
 20
223.702796733
 30
0.0
 10
145.2163582917
 20
223.5989591135
 30
0.0
 10
145.6106776522
 20
223.4638695251
 30
0.0
 10
145.9397527646
 20
223.2787167172
 30
0.0
 10
146.1153848436
 20
223.1161518387
 30
0.0
 10
146.1827349396
 20
223.0290878496
 30
0.0
  0
SPLINE
  5
556
100
AcDbEntity
  8
0
100
AcDbSpline
 62
7
  6
CONTINUOUS
 70
0
 71
3
 72
16
 73
12
 74
0
 42
0.0000001
 43
0.0000001
 44
0.0000000001
 40
0.0
 40
0.0
 40
0.0
 40
0.0
 40
0.1287485152
 40
0.270396897
 40
0.4176196091
 40
0.5620243102
 40
0.6957521804
 40
0.8130664593
 40
0.9124733977
 40
0.9571202175
 40
1.0
 40
1.0
 40
1.0
 40
1.0
 10
139.4880443689
 20
225.433817747
 30
0.0
 10
139.6298037348
 20
225.5156620665
 30
0.0
 10
139.9507623799
 20
225.6480922647
 30
0.0
 10
140.4738577028
 20
225.752739955
 30
0.0
 10
141.0271574686
 20
225.7680245628
 30
0.0
 10
141.5653277055
 20
225.6925157674
 30
0.0
 10
142.0453763802
 20
225.5318423262
 30
0.0
 10
142.4299981308
 20
225.2984187206
 30
0.0
 10
142.6540943113
 20
225.0411241546
 30
0.0
 10
142.7425375884
 20
224.8183025358
 30
0.0
 10
142.7571581366
 20
224.7065535825
 30
0.0
 10
142.7571506876
 20
224.652036724
 30
0.0
  0
SPLINE
  5
557
100
AcDbEntity
  8
0
100
AcDbSpline
 62
7
  6
CONTINUOUS
 70
0
 71
3
 72
11
 73
7
 74
0
 42
0.0000001
 43
0.0000001
 44
0.0000000001
 40
0.0
 40
0.0
 40
0.0
 40
0.0
 40
0.2446005043
 40
0.5073686278
 40
0.7661659871
 40
1.0
 40
1.0
 40
1.0
 40
1.0
 10
145.6069999961
 20
222.7173447471
 30
0.0
 10
145.4130793407
 20
222.8040738055
 30
0.0
 10
144.9843614923
 20
222.9263142404
 30
0.0
 10
144.3160998757
 20
222.9696742506
 30
0.0
 10
143.6618934132
 20
222.8801176758
 30
0.0
 10
143.2560353383
 20
222.726642583
 30
0.0
 10
143.0801617726
 20
222.6251025386
 30
0.0
  0
SPLINE
  5
558
100
AcDbEntity
  8
0
100
AcDbSpline
 62
7
  6
CONTINUOUS
 70
0
 71
3
 72
16
 73
12
 74
0
 42
0.0000001
 43
0.0000001
 44
0.0000000001
 40
0.0
 40
0.0
 40
0.0
 40
0.0
 40
0.1287485152
 40
0.270396897
 40
0.4176196091
 40
0.5620243102
 40
0.6957521804
 40
0.8130664593
 40
0.9124733977
 40
0.9571202175
 40
1.0
 40
1.0
 40
1.0
 40
1.0
 10
135.8959269651
 20
227.50768078
 30
0.0
 10
136.037686331
 20
227.5895250995
 30
0.0
 10
136.3586449762
 20
227.7219552977
 30
0.0
 10
136.8817402991
 20
227.826602988
 30
0.0
 10
137.4350400649
 20
227.8418875957
 30
0.0
 10
137.9732103017
 20
227.7663788004
 30
0.0
 10
138.4532589764
 20
227.6057053591
 30
0.0
 10
138.8378807271
 20
227.3722817535
 30
0.0
 10
139.0619769076
 20
227.1149871876
 30
0.0
 10
139.1504201847
 20
226.8921655688
 30
0.0
 10
139.1650407328
 20
226.7804166155
 30
0.0
 10
139.1650332839
 20
226.7258997569
 30
0.0
  0
SPLINE
  5
559
100
AcDbEntity
  8
0
100
AcDbSpline
 62
7
  6
CONTINUOUS
 70
0
 71
3
 72
11
 73
7
 74
0
 42
0.0000001
 43
0.0000001
 44
0.0000000001
 40
0.0
 40
0.0
 40
0.0
 40
0.0
 40
0.2177827477
 40
0.4509152641
 40
0.7103063952
 40
1.0
 40
1.0
 40
1.0
 40
1.0
 10
142.5192857011
 20
222.5781736473
 30
0.0
 10
142.5192956671
 20
222.6511124711
 30
0.0
 10
142.5462342483
 20
222.8031418111
 30
0.0
 10
142.6614936509
 20
223.0149685039
 30
0.0
 10
142.8436915328
 20
223.2064440101
 30
0.0
 10
142.9961373621
 20
223.3114434876
 30
0.0
 10
143.0801617726
 20
223.3599547141
 30
0.0
  0
SPLINE
  5
55A
100
AcDbEntity
  8
0
100
AcDbSpline
 62
7
  6
CONTINUOUS
 70
0
 71
3
 72
14
 73
10
 74
0
 42
0.0000001
 43
0.0000001
 44
0.0000000001
 40
0.0
 40
0.0
 40
0.0
 40
0.0
 40
0.2057853731
 40
0.3306924684
 40
0.4657801118
 40
0.6059279367
 40
0.7453361925
 40
0.8783106472
 40
1.0
 40
1.0
 40
1.0
 40
1.0
 10
142.6433257226
 20
224.2926403435
 30
0.0
 10
142.5191386741
 20
224.4911469268
 30
0.0
 10
142.1975520783
 20
224.7293461702
 30
0.0
 10
141.7034699761
 20
224.9171406278
 30
0.0
 10
141.2546021956
 20
225.0085660172
 30
0.0
 10
140.782115291
 20
225.0335822321
 30
0.0
 10
140.3128305992
 20
224.9915418352
 30
0.0
 10
139.875608128
 20
224.8847983476
 30
0.0
 10
139.6079577739
 20
224.7681971951
 30
0.0
 10
139.4880443689
 20
224.6989655716
 30
0.0
  0
SPLINE
  5
55B
100
AcDbEntity
  8
0
100
AcDbSpline
 62
7
  6
CONTINUOUS
 70
0
 71
3
 72
11
 73
7
 74
0
 42
0.0000001
 43
0.0000001
 44
0.0000000001
 40
0.0
 40
0.0
 40
0.0
 40
0.0
 40
0.2177827477
 40
0.4509152641
 40
0.7103063952
 40
1.0
 40
1.0
 40
1.0
 40
1.0
 10
138.9271682974
 20
224.6520366803
 30
0.0
 10
138.9271782634
 20
224.7249755041
 30
0.0
 10
138.9541168446
 20
224.877004844
 30
0.0
 10
139.0693762471
 20
225.0888315369
 30
0.0
 10
139.251574129
 20
225.280307043
 30
0.0
 10
139.4040199583
 20
225.3853065205
 30
0.0
 10
139.4880443689
 20
225.433817747
 30
0.0
  0
SPLINE
  5
55C
100
AcDbEntity
  8
0
100
AcDbSpline
 62
7
  6
CONTINUOUS
 70
0
 71
3
 72
14
 73
10
 74
0
 42
0.0000001
 43
0.0000001
 44
0.0000000001
 40
0.0
 40
0.0
 40
0.0
 40
0.0
 40
0.2057853731
 40
0.3306924684
 40
0.4657801118
 40
0.6059279367
 40
0.7453361925
 40
0.8783106472
 40
1.0
 40
1.0
 40
1.0
 40
1.0
 10
139.0512083188
 20
226.3665033764
 30
0.0
 10
138.9270212703
 20
226.5650099597
 30
0.0
 10
138.6054346745
 20
226.8032092032
 30
0.0
 10
138.1113525724
 20
226.9910036607
 30
0.0
 10
137.6624847918
 20
227.0824290502
 30
0.0
 10
137.1899978873
 20
227.107445265
 30
0.0
 10
136.7207131955
 20
227.0654048681
 30
0.0
 10
136.2834907242
 20
226.9586613806
 30
0.0
 10
136.0158403702
 20
226.842060228
 30
0.0
 10
135.8959269651
 20
226.7728286046
 30
0.0
  0
SPLINE
  5
55D
100
AcDbEntity
  8
0
100
AcDbSpline
 62
7
  6
CONTINUOUS
 70
0
 71
3
 72
16
 73
12
 74
0
 42
0.0000001
 43
0.0000001
 44
0.0000000001
 40
0.0
 40
0.0
 40
0.0
 40
0.0
 40
0.0466111211
 40
0.0939682632
 40
0.1953417146
 40
0.311027442
 40
0.4413314247
 40
0.5821342314
 40
0.7269009052
 40
0.868358431
 40
1.0
 40
1.0
 40
1.0
 40
1.0
 10
98.8896654835
 20
213.6441986418
 30
0.0
 10
98.889679884
 20
213.5336506735
 30
0.0
 10
98.9153454563
 20
213.3099066102
 30
0.0
 10
99.0731852353
 20
212.8704536379
 30
0.0
 10
99.4781293043
 20
212.3683339795
 30
0.0
 10
100.190079289
 20
211.9320267779
 30
0.0
 10
101.0755536859
 20
211.6630305917
 30
0.0
 10
102.0646129299
 20
211.5787438899
 30
0.0
 10
103.0779391471
 20
211.6832696237
 30
0.0
 10
104.0334413989
 20
211.9664364553
 30
0.0
 10
104.6104102971
 20
212.2749602175
 30
0.0
 10
104.8645379685
 20
212.4563370624
 30
0.0
  0
SPLINE
  5
55E
100
AcDbEntity
  8
0
100
AcDbSpline
 62
7
  6
CONTINUOUS
 70
0
 71
3
 72
9
 73
5
 74
0
 42
0.0000001
 43
0.0000001
 44
0.0000000001
 40
0.0
 40
0.0
 40
0.0
 40
0.0
 40
0.2420892617
 40
1.0
 40
1.0
 40
1.0
 40
1.0
 10
99.4559413011
 20
212.4503003984
 30
0.0
 10
99.4895534925
 20
212.4859733032
 30
0.0
 10
99.6323686539
 20
212.6295630038
 30
0.0
 10
99.7898937608
 20
212.7582694428
 30
0.0
 10
99.9147698924
 20
212.847443645
 30
0.0
  0
SPLINE
  5
55F
100
AcDbEntity
  8
0
100
AcDbSpline
 62
7
  6
CONTINUOUS
 70
0
 71
3
 72
9
 73
5
 74
0
 42
0.0000001
 43
0.0000001
 44
0.0000000001
 40
0.0
 40
0.0
 40
0.0
 40
0.0
 40
0.2518122043
 40
1.0
 40
1.0
 40
1.0
 40
1.0
 10
44.4775034522
 20
243.4524209314
 30
0.0
 10
47.1943650458
 20
245.334844946
 30
0.0
 10
58.0145652776
 20
252.7655466411
 30
0.0
 10
68.9590071143
 20
260.0154799978
 30
0.0
 10
77.2164111152
 20
265.3315978544
 30
0.0
  0
SPLINE
  5
560
100
AcDbEntity
  8
0
100
AcDbSpline
 62
7
  6
CONTINUOUS
 70
0
 71
3
 72
11
 73
7
 74
0
 42
0.0000001
 43
0.0000001
 44
0.0000000001
 40
0.0
 40
0.0
 40
0.0
 40
0.0
 40
0.2817830176
 40
0.5402057112
 40
0.7773570793
 40
1.0
 40
1.0
 40
1.0
 40
1.0
 10
99.9147698924
 20
215.314022344
 30
0.0
 10
99.7595704564
 20
215.2032528875
 30
0.0
 10
99.4781931372
 20
214.9663471151
 30
0.0
 10
99.147244967
 20
214.5523280748
 30
0.0
 10
98.939026674
 20
214.1075022575
 30
0.0
 10
98.8896458584
 20
213.7948546732
 30
0.0
 10
98.8896654835
 20
213.6441986418
 30
0.0
  0
SPLINE
  5
561
100
AcDbEntity
  8
0
100
AcDbSpline
 62
7
  6
CONTINUOUS
 70
0
 71
3
 72
9
 73
5
 74
0
 42
0.0000001
 43
0.0000001
 44
0.0000000001
 40
0.0
 40
0.0
 40
0.0
 40
0.0
 40
0.2484709847
 40
1.0
 40
1.0
 40
1.0
 40
1.0
 10
107.9037950506
 20
241.4636775107
 30
0.0
 10
105.58607584
 20
239.9541550106
 30
0.0
 10
96.2803272845
 20
233.8449139531
 30
0.0
 10
87.0631492849
 20
227.6008359962
 30
0.0
 10
80.1865445721
 20
222.8362628281
 30
0.0
  0
SPLINE
  5
562
100
AcDbEntity
  8
0
100
AcDbSpline
 62
7
  6
CONTINUOUS
 70
0
 71
3
 72
15
 73
11
 74
0
 42
0.0000001
 43
0.0000001
 44
0.0000000001
 40
0.0
 40
0.0
 40
0.0
 40
0.0
 40
0.0869258731
 40
0.1863900355
 40
0.3037775758
 40
0.4375856292
 40
0.582082136
 40
0.7293904368
 40
0.8711742898
 40
1.0
 40
1.0
 40
1.0
 40
1.0
 10
182.7345320493
 20
233.5234097633
 30
0.0
 10
182.734533889
 20
233.6243370126
 30
0.0
 10
182.6736366138
 20
233.8427397075
 30
0.0
 10
182.4355727938
 20
234.113451514
 30
0.0
 10
182.0841980921
 20
234.3275733752
 30
0.0
 10
181.6455141524
 20
234.4741657499
 30
0.0
 10
181.1537493911
 20
234.5432249814
 30
0.0
 10
180.6480876657
 20
234.5293096393
 30
0.0
 10
180.1700495779
 20
234.4336220385
 30
0.0
 10
179.8766988039
 20
234.3126187929
 30
0.0
 10
179.7471619929
 20
234.2378311267
 30
0.0
  0
SPLINE
  5
563
100
AcDbEntity
  8
0
100
AcDbSpline
 62
7
  6
CONTINUOUS
 70
0
 71
3
 72
11
 73
7
 74
0
 42
0.0000001
 43
0.0000001
 44
0.0000000001
 40
0.0
 40
0.0
 40
0.0
 40
0.0
 40
0.2177648073
 40
0.4508950352
 40
0.7103684932
 40
1.0
 40
1.0
 40
1.0
 40
1.0
 10
186.1579532674
 20
235.8504086629
 30
0.0
 10
186.1579252807
 20
235.7799517114
 30
0.0
 10
186.1319983942
 20
235.6330787673
 30
0.0
 10
186.0205963475
 20
235.4284286605
 30
0.0
 10
185.8445566753
 20
235.243483562
 30
0.0
 10
185.6972996625
 20
235.1420175066
 30
0.0
 10
185.6161450383
 20
235.0951631422
 30
0.0
  0
SPLINE
  5
564
100
AcDbEntity
  8
0
100
AcDbSpline
 62
7
  6
CONTINUOUS
 70
0
 71
3
 72
9
 73
5
 74
0
 42
0.0000001
 43
0.0000001
 44
0.0000000001
 40
0.0
 40
0.0
 40
0.0
 40
0.0
 40
0.4833843925
 40
1.0
 40
1.0
 40
1.0
 40
1.0
 10
201.0397898332
 20
264.3505823522
 30
0.0
 10
200.9684000902
 20
264.7123330686
 30
0.0
 10
200.7209280783
 20
265.4432858887
 30
0.0
 10
200.3128672216
 20
266.095281991
 30
0.0
 10
200.0733500887
 20
266.4082162886
 30
0.0
  0
SPLINE
  5
565
100
AcDbEntity
  8
0
100
AcDbSpline
 62
7
  6
CONTINUOUS
 70
0
 71
3
 72
12
 73
8
 74
0
 42
0.0000001
 43
0.0000001
 44
0.0000000001
 40
0.0
 40
0.0
 40
0.0
 40
0.0
 40
0.1081594453
 40
0.2183582921
 40
0.451362939
 40
0.7104102874
 40
1.0
 40
1.0
 40
1.0
 40
1.0
 10
201.118585097
 20
265.1826397159
 30
0.0
 10
201.1186067051
 20
264.9507388794
 30
0.0
 10
201.0782459782
 20
264.4815954853
 30
0.0
 10
200.8346088547
 20
263.5410291637
 30
0.0
 10
200.2089374276
 20
262.387785486
 30
0.0
 10
199.043773026
 20
261.1638571706
 30
0.0
 10
198.0684285479
 20
260.4921387275
 30
0.0
 10
197.5307133945
 20
260.181690592
 30
0.0
  0
SPLINE
  5
566
100
AcDbEntity
  8
0
100
AcDbSpline
 62
7
  6
CONTINUOUS
 70
0
 71
3
 72
9
 73
5
 74
0
 42
0.0000001
 43
0.0000001
 44
0.0000000001
 40
0.0
 40
0.0
 40
0.0
 40
0.0
 40
0.5180549464
 40
1.0
 40
1.0
 40
1.0
 40
1.0
 10
177.7787189979
 20
266.5538475356
 30
0.0
 10
177.5154933057
 20
266.2299612084
 30
0.0
 10
177.0655687116
 20
265.5531520884
 30
0.0
 10
176.7889931465
 20
264.7856558628
 30
0.0
 10
176.7087393038
 20
264.4057708114
 30
0.0
  0
SPLINE
  5
567
100
AcDbEntity
  8
0
100
AcDbSpline
 62
7
  6
CONTINUOUS
 70
0
 71
3
 72
9
 73
5
 74
0
 42
0.0000001
 43
0.0000001
 44
0.0000000001
 40
0.0
 40
0.0
 40
0.0
 40
0.0
 40
0.280476285
 40
1.0
 40
1.0
 40
1.0
 40
1.0
 10
167.019292923
 20
226.889436357
 30
0.0
 10
166.9655211633
 20
226.8583914023
 30
0.0
 10
166.7808929699
 20
226.7377501426
 30
0.0
 10
166.6216634231
 20
226.565359292
 30
0.0
 10
166.5585799845
 20
226.4190997725
 30
0.0
  0
SPLINE
  5
568
100
AcDbEntity
  8
0
100
AcDbSpline
 62
7
  6
CONTINUOUS
 70
0
 71
3
 72
8
 73
4
 74
0
 42
0.0000001
 43
0.0000001
 44
0.0000000001
 40
0.0
 40
0.0
 40
0.0
 40
0.0
 40
1.0
 40
1.0
 40
1.0
 40
1.0
 10
166.5274077369
 20
226.329817175
 30
0.0
 10
166.5139204797
 20
226.2795391391
 30
0.0
 10
166.5068078536
 20
226.2270706941
 30
0.0
 10
166.5068069047
 20
226.1750150796
 30
0.0
  0
SPLINE
  5
569
100
AcDbEntity
  8
0
100
AcDbSpline
 62
7
  6
CONTINUOUS
 70
0
 71
3
 72
18
 73
14
 74
0
 42
0.0000001
 43
0.0000001
 44
0.0000000001
 40
0.0
 40
0.0
 40
0.0
 40
0.0
 40
0.1286500362
 40
0.2702017967
 40
0.4173181886
 40
0.561628469
 40
0.6952653945
 40
0.7562717241
 40
0.8127630802
 40
0.864713517
 40
0.9125344943
 40
0.9571518467
 40
1.0
 40
1.0
 40
1.0
 40
1.0
 10
197.5307133945
 20
260.181690592
 30
0.0
 10
196.6239515916
 20
259.658174546
 30
0.0
 10
194.5708248383
 20
258.8111032332
 30
0.0
 10
191.2248443105
 20
258.1414742038
 30
0.0
 10
187.6850411477
 20
258.0437126951
 30
0.0
 10
184.2435873397
 20
258.5269001545
 30
0.0
 10
181.6061303957
 20
259.4077752621
 30
0.0
 10
179.8061888858
 20
260.3862867143
 30
0.0
 10
178.688866167
 20
261.2028297406
 30
0.0
 10
177.7871717334
 20
262.1082869531
 30
0.0
 10
177.1218807297
 20
263.0868091127
 30
0.0
 10
176.7118417033
 20
264.1190271892
 30
0.0
 10
176.6186859195
 20
264.8339141114
 30
0.0
 10
176.6186534258
 20
265.1826399539
 30
0.0
  0
SPLINE
  5
56A
100
AcDbEntity
  8
0
100
AcDbSpline
 62
7
  6
CONTINUOUS
 70
0
 71
3
 72
15
 73
11
 74
0
 42
0.0000001
 43
0.0000001
 44
0.0000000001
 40
0.0
 40
0.0
 40
0.0
 40
0.0
 40
0.1288281168
 40
0.2705730231
 40
0.4178855965
 40
0.5623847015
 40
0.6962026063
 40
0.8135940147
 40
0.9130657345
 40
1.0
 40
1.0
 40
1.0
 40
1.0
 10
169.5648879336
 20
225.8280208493
 30
0.0
 10
169.4279448491
 20
225.7489571946
 30
0.0
 10
169.117879118
 20
225.6210265635
 30
0.0
 10
168.612551281
 20
225.5199168026
 30
0.0
 10
168.0780313667
 20
225.5051350345
 30
0.0
 10
167.5581374665
 20
225.5781549405
 30
0.0
 10
167.094356364
 20
225.7330994897
 30
0.0
 10
166.7228538039
 20
225.9594592192
 30
0.0
 10
166.4711979
 20
226.2456594298
 30
0.0
 10
166.406731336
 20
226.476560051
 30
0.0
 10
166.4067737214
 20
226.5832661203
 30
0.0
  0
SPLINE
  5
56B
100
AcDbEntity
  8
0
100
AcDbSpline
 62
7
  6
CONTINUOUS
 70
0
 71
3
 72
10
 73
6
 74
0
 42
0.0000001
 43
0.0000001
 44
0.0000000001
 40
0.0
 40
0.0
 40
0.0
 40
0.0
 40
0.5199462949
 40
0.7627947221
 40
1.0
 40
1.0
 40
1.0
 40
1.0
 10
199.9391666812
 20
268.2104830435
 30
0.0
 10
200.3026140054
 20
267.7675054689
 30
0.0
 10
200.7556070123
 20
267.0367861482
 30
0.0
 10
201.0670745293
 20
265.9745332497
 30
0.0
 10
201.1185607396
 20
265.4440463294
 30
0.0
 10
201.118585097
 20
265.1826397159
 30
0.0
  0
SPLINE
  5
56C
100
AcDbEntity
  8
0
100
AcDbSpline
 62
7
  6
CONTINUOUS
 70
0
 71
3
 72
10
 73
6
 74
0
 42
0.0000001
 43
0.0000001
 44
0.0000000001
 40
0.0
 40
0.0
 40
0.0
 40
0.0
 40
0.2363160146
 40
0.4786942256
 40
1.0
 40
1.0
 40
1.0
 40
1.0
 10
176.6186534258
 20
265.1826399539
 30
0.0
 10
176.6186281018
 20
265.454420142
 30
0.0
 10
176.6744965468
 20
266.0065664936
 30
0.0
 10
177.0118077319
 20
267.1118855266
 30
0.0
 10
177.5009415081
 20
267.8666386505
 30
0.0
 10
177.891318715
 20
268.3216685588
 30
0.0
  0
SPLINE
  5
56D
100
AcDbEntity
  8
0
100
AcDbSpline
 62
7
  6
CONTINUOUS
 70
0
 71
3
 72
11
 73
7
 74
0
 42
0.0000001
 43
0.0000001
 44
0.0000000001
 40
0.0
 40
0.0
 40
0.0
 40
0.0
 40
0.2452616914
 40
0.5080159621
 40
0.7664479743
 40
1.0
 40
1.0
 40
1.0
 40
1.0
 10
185.4232192997
 20
235.0695872127
 30
0.0
 10
185.2360447442
 20
235.1512331093
 30
0.0
 10
184.8238976197
 20
235.2658403821
 30
0.0
 10
184.182901844
 20
235.3047522301
 30
0.0
 10
183.5565491482
 20
235.2173182923
 30
0.0
 10
183.1682441152
 20
235.0698772259
 30
0.0
 10
182.9998390553
 20
234.9726490996
 30
0.0
  0
SPLINE
  5
56E
100
AcDbEntity
  8
0
100
AcDbSpline
 62
7
  6
CONTINUOUS
 70
0
 71
3
 72
15
 73
11
 74
0
 42
0.0000001
 43
0.0000001
 44
0.0000000001
 40
0.0
 40
0.0
 40
0.0
 40
0.0
 40
0.1288281168
 40
0.2705730231
 40
0.4178855965
 40
0.5623847015
 40
0.6962026063
 40
0.8135940147
 40
0.9130657345
 40
1.0
 40
1.0
 40
1.0
 40
1.0
 10
182.9998390553
 20
236.6056539339
 30
0.0
 10
183.1367821397
 20
236.6847175886
 30
0.0
 10
183.4468478708
 20
236.8126482196
 30
0.0
 10
183.9521757078
 20
236.9137579806
 30
0.0
 10
184.4866956221
 20
236.9285397487
 30
0.0
 10
185.0065895223
 20
236.8555198426
 30
0.0
 10
185.4703706249
 20
236.7005752934
 30
0.0
 10
185.8418731849
 20
236.4742155639
 30
0.0
 10
186.0935290889
 20
236.1880153533
 30
0.0
 10
186.1579956529
 20
235.9571147321
 30
0.0
 10
186.1579532674
 20
235.8504086629
 30
0.0
  0
SPLINE
  5
56F
100
AcDbEntity
  8
0
100
AcDbSpline
 62
7
  6
CONTINUOUS
 70
0
 71
3
 72
10
 73
6
 74
0
 42
0.0000001
 43
0.0000001
 44
0.0000000001
 40
0.0
 40
0.0
 40
0.0
 40
0.0
 40
0.2271243056
 40
0.4647818616
 40
1.0
 40
1.0
 40
1.0
 40
1.0
 10
166.4067737214
 20
226.5832661203
 30
0.0
 10
166.4067960483
 20
226.6394743997
 30
0.0
 10
166.4229042727
 20
226.75507159
 30
0.0
 10
166.520636112
 20
226.984820706
 30
0.0
 10
166.6565444991
 20
227.128769263
 30
0.0
 10
166.7602578196
 20
227.2111574166
 30
0.0
  0
SPLINE
  5
570
100
AcDbEntity
  8
0
100
AcDbSpline
 62
7
  6
CONTINUOUS
 70
0
 71
3
 72
9
 73
5
 74
0
 42
0.0000001
 43
0.0000001
 44
0.0000000001
 40
0.0
 40
0.0
 40
0.0
 40
0.0
 40
0.2425673463
 40
1.0
 40
1.0
 40
1.0
 40
1.0
 10
166.7602578196
 20
227.2111574166
 30
0.0
 10
166.7746586001
 20
227.2225971594
 30
0.0
 10
166.8349768028
 20
227.2685566181
 30
0.0
 10
166.8988469652
 20
227.3097973053
 30
0.0
 10
166.9485819505
 20
227.338511641
 30
0.0
  0
SPLINE
  5
571
100
AcDbEntity
  8
0
100
AcDbSpline
 62
7
  6
CONTINUOUS
 70
0
 71
3
 72
9
 73
5
 74
0
 42
0.0000001
 43
0.0000001
 44
0.0000000001
 40
0.0
 40
0.0
 40
0.0
 40
0.0
 40
0.2545826899
 40
1.0
 40
1.0
 40
1.0
 40
1.0
 10
158.8169181454
 20
196.090125414
 30
0.0
 10
165.4424963078
 20
200.7090254619
 30
0.0
 10
191.6498174526
 20
218.5887538961
 30
0.0
 10
218.59301408
 20
235.3955436978
 30
0.0
 10
239.0732036692
 20
247.2197160894
 30
0.0
  0
SPLINE
  5
572
100
AcDbEntity
  8
0
100
AcDbSpline
 62
7
  6
CONTINUOUS
 70
0
 71
3
 72
9
 73
5
 74
0
 42
0.0000001
 43
0.0000001
 44
0.0000000001
 40
0.0
 40
0.0
 40
0.0
 40
0.0
 40
0.2475166108
 40
1.0
 40
1.0
 40
1.0
 40
1.0
 10
77.9825724378
 20
149.097309991
 30
0.0
 10
78.1757383043
 20
149.2088376612
 30
0.0
 10
78.9751022175
 20
149.6261511391
 30
0.0
 10
79.8459161835
 20
149.9034686667
 30
0.0
 10
80.5117695638
 20
150.0317756793
 30
0.0
  0
SPLINE
  5
573
100
AcDbEntity
  8
0
100
AcDbSpline
 62
7
  6
CONTINUOUS
 70
0
 71
3
 72
11
 73
7
 74
0
 42
0.0000001
 43
0.0000001
 44
0.0000000001
 40
0.0
 40
0.0
 40
0.0
 40
0.0
 40
0.2211561319
 40
0.4558061014
 40
0.7137990282
 40
1.0
 40
1.0
 40
1.0
 40
1.0
 10
81.4825605289
 20
143.03511669
 30
0.0
 10
81.9841794615
 20
143.3247557118
 30
0.0
 10
83.1217899207
 20
143.7562751958
 30
0.0
 10
85.010477443
 20
143.8730903423
 30
0.0
 10
87.0308802793
 20
143.4874463255
 30
0.0
 10
88.3569019769
 20
142.9405256192
 30
0.0
 10
89.0254161364
 20
142.601437677
 30
0.0
  0
SPLINE
  5
574
100
AcDbEntity
  8
0
100
AcDbSpline
 62
7
  6
CONTINUOUS
 70
0
 71
3
 72
16
 73
12
 74
0
 42
0.0000001
 43
0.0000001
 44
0.0000000001
 40
0.0
 40
0.0
 40
0.0
 40
0.0
 40
0.0428757442
 40
0.087521923
 40
0.1869262484
 40
0.3042380343
 40
0.4379641723
 40
0.5823700573
 40
0.7295935095
 40
0.87125452
 40
1.0
 40
1.0
 40
1.0
 40
1.0
 10
110.5424452994
 20
153.9351210478
 30
0.0
 10
110.5425013332
 20
154.074602671
 30
0.0
 10
110.5051545461
 20
154.3605412158
 30
0.0
 10
110.2787827991
 20
154.9306360808
 30
0.0
 10
109.7054626055
 20
155.5890076641
 30
0.0
 10
108.7213368174
 20
156.1863009459
 30
0.0
 10
107.4930356975
 20
156.5974482973
 30
0.0
 10
106.1159941226
 20
156.7906539546
 30
0.0
 10
104.7001902314
 20
156.7515882093
 30
0.0
 10
103.3616984049
 20
156.4837630453
 30
0.0
 10
102.5404128942
 20
156.1449144411
 30
0.0
 10
102.1776952957
 20
155.935500588
 30
0.0
  0
SPLINE
  5
575
100
AcDbEntity
  8
0
100
AcDbSpline
 62
7
  6
CONTINUOUS
 70
0
 71
3
 72
16
 73
12
 74
0
 42
0.0000001
 43
0.0000001
 44
0.0000000001
 40
0.0
 40
0.0
 40
0.0
 40
0.0
 40
0.0428757442
 40
0.087521923
 40
0.1869262484
 40
0.3042380343
 40
0.4379641723
 40
0.5823700573
 40
0.7295935095
 40
0.87125452
 40
1.0
 40
1.0
 40
1.0
 40
1.0
 10
53.9736672877
 20
186.5943814094
 30
0.0
 10
53.9737233214
 20
186.7338630326
 30
0.0
 10
53.9363765343
 20
187.0198015774
 30
0.0
 10
53.7100047874
 20
187.5898964424
 30
0.0
 10
53.1366845938
 20
188.2482680257
 30
0.0
 10
52.1525588056
 20
188.8455613075
 30
0.0
 10
50.9242576857
 20
189.2567086589
 30
0.0
 10
49.5472161109
 20
189.4499143163
 30
0.0
 10
48.1314122197
 20
189.4108485709
 30
0.0
 10
46.7929203932
 20
189.1430234069
 30
0.0
 10
45.9716348825
 20
188.8041748027
 30
0.0
 10
45.608917284
 20
188.5947609496
 30
0.0
  0
SPLINE
  5
576
100
AcDbEntity
  8
0
100
AcDbSpline
 62
7
  6
CONTINUOUS
 70
0
 71
3
 72
16
 73
12
 74
0
 42
0.0000001
 43
0.0000001
 44
0.0000000001
 40
0.0
 40
0.0
 40
0.0
 40
0.0
 40
0.0428757442
 40
0.087521923
 40
0.1869262484
 40
0.3042380343
 40
0.4379641723
 40
0.5823700573
 40
0.7295935095
 40
0.87125452
 40
1.0
 40
1.0
 40
1.0
 40
1.0
 10
82.2580562935
 20
170.2647512286
 30
0.0
 10
82.2581123273
 20
170.4042328518
 30
0.0
 10
82.2207655402
 20
170.6901713966
 30
0.0
 10
81.9943937933
 20
171.2602662616
 30
0.0
 10
81.4210735996
 20
171.9186378449
 30
0.0
 10
80.4369478115
 20
172.5159311267
 30
0.0
 10
79.2086466916
 20
172.9270784781
 30
0.0
 10
77.8316051167
 20
173.1202841355
 30
0.0
 10
76.4158012255
 20
173.0812183901
 30
0.0
 10
75.077309399
 20
172.8133932261
 30
0.0
 10
74.2560238883
 20
172.4745446219
 30
0.0
 10
73.8933062898
 20
172.2651307688
 30
0.0
  0
SPLINE
  5
577
100
AcDbEntity
  8
0
100
AcDbSpline
 62
7
  6
CONTINUOUS
 70
0
 71
3
 72
11
 73
7
 74
0
 42
0.0000001
 43
0.0000001
 44
0.0000000001
 40
0.0
 40
0.0
 40
0.0
 40
0.0
 40
0.2177227832
 40
0.4508712161
 40
0.7104668615
 40
1.0
 40
1.0
 40
1.0
 40
1.0
 10
133.5982972778
 20
90.5746818728
 30
0.0
 10
133.5983009534
 20
90.4794893456
 30
0.0
 10
133.5632944093
 20
90.2810154076
 30
0.0
 10
133.4127555304
 20
90.0044037307
 30
0.0
 10
133.174759271
 20
89.7545590167
 30
0.0
 10
132.9758106027
 20
89.6173745717
 30
0.0
 10
132.866180824
 20
89.5540801673
 30
0.0
  0
SPLINE
  5
578
100
AcDbEntity
  8
0
100
AcDbSpline
 62
7
  6
CONTINUOUS
 70
0
 71
3
 72
11
 73
7
 74
0
 42
0.0000001
 43
0.0000001
 44
0.0000000001
 40
0.0
 40
0.0
 40
0.0
 40
0.0
 40
0.2177227832
 40
0.4508712161
 40
0.7104668615
 40
1.0
 40
1.0
 40
1.0
 40
1.0
 10
244.6135997203
 20
154.6690140306
 30
0.0
 10
244.613603396
 20
154.5738215035
 30
0.0
 10
244.5785968519
 20
154.3753475654
 30
0.0
 10
244.428057973
 20
154.0987358885
 30
0.0
 10
244.1900617136
 20
153.8488911746
 30
0.0
 10
243.9911130452
 20
153.7117067295
 30
0.0
 10
243.8814832665
 20
153.6484123251
 30
0.0
  0
LINE
  5
579
100
AcDbEntity
  8
0
100
AcDbLine
 62
7
  6
CONTINUOUS
 10
242.4673020878
 20
260.9564807501
 11
239.0732036679
 21
263.1233557437
  0
SPLINE
  5
57A
100
AcDbEntity
  8
0
100
AcDbSpline
 62
7
  6
CONTINUOUS
 70
0
 71
3
 72
9
 73
5
 74
0
 42
0.0000001
 43
0.0000001
 44
0.0000000001
 40
0.0
 40
0.0
 40
0.0
 40
0.0
 40
0.507999764
 40
1.0
 40
1.0
 40
1.0
 40
1.0
 10
41.6489880084
 20
256.6979976541
 30
0.0
 10
58.3132313156
 20
268.0136648983
 30
0.0
 10
91.6950516831
 20
289.4512511748
 30
0.0
 10
126.2163972232
 20
309.0089633867
 30
0.0
 10
143.4719405672
 20
318.110186383
 30
0.0
  0
SPLINE
  5
57B
100
AcDbEntity
  8
0
100
AcDbSpline
 62
7
  6
CONTINUOUS
 70
0
 71
3
 72
11
 73
7
 74
0
 42
0.0000001
 43
0.0000001
 44
0.0000000001
 40
0.0
 40
0.0
 40
0.0
 40
0.0
 40
0.2896428702
 40
0.5491125874
 40
0.7822368
 40
1.0
 40
1.0
 40
1.0
 40
1.0
 10
102.1776952957
 20
155.935500588
 30
0.0
 10
101.9627364706
 20
155.8113947932
 30
0.0
 10
101.5726983979
 20
155.5426434785
 30
0.0
 10
101.1064293589
 20
155.0527841151
 30
0.0
 10
100.8113868414
 20
154.5107398318
 30
0.0
 10
100.7426955669
 20
154.1217353314
 30
0.0
 10
100.7426205985
 20
153.9351207339
 30
0.0
  0
SPLINE
  5
57C
100
AcDbEntity
  8
0
100
AcDbSpline
 62
7
  6
CONTINUOUS
 70
0
 71
3
 72
11
 73
7
 74
0
 42
0.0000001
 43
0.0000001
 44
0.0000000001
 40
0.0
 40
0.0
 40
0.0
 40
0.0
 40
0.2896428702
 40
0.5491125874
 40
0.7822368
 40
1.0
 40
1.0
 40
1.0
 40
1.0
 10
45.608917284
 20
188.5947609496
 30
0.0
 10
45.3939584589
 20
188.4706551549
 30
0.0
 10
45.0039203861
 20
188.2019038402
 30
0.0
 10
44.5376513471
 20
187.7120444768
 30
0.0
 10
44.2426088297
 20
187.1700001934
 30
0.0
 10
44.1739175551
 20
186.780995693
 30
0.0
 10
44.1738425867
 20
186.5943810955
 30
0.0
  0
SPLINE
  5
57D
100
AcDbEntity
  8
0
100
AcDbSpline
 62
7
  6
CONTINUOUS
 70
0
 71
3
 72
11
 73
7
 74
0
 42
0.0000001
 43
0.0000001
 44
0.0000000001
 40
0.0
 40
0.0
 40
0.0
 40
0.0
 40
0.2896428702
 40
0.5491125874
 40
0.7822368
 40
1.0
 40
1.0
 40
1.0
 40
1.0
 10
73.8933062898
 20
172.2651307688
 30
0.0
 10
73.6783474647
 20
172.1410249741
 30
0.0
 10
73.288309392
 20
171.8722736593
 30
0.0
 10
72.822040353
 20
171.3824142959
 30
0.0
 10
72.5269978356
 20
170.8403700126
 30
0.0
 10
72.458306561
 20
170.4513655122
 30
0.0
 10
72.4582315926
 20
170.2647509147
 30
0.0
  0
SPLINE
  5
57E
100
AcDbEntity
  8
0
100
AcDbSpline
 62
7
  6
CONTINUOUS
 70
0
 71
3
 72
11
 73
7
 74
0
 42
0.0000001
 43
0.0000001
 44
0.0000000001
 40
0.0
 40
0.0
 40
0.0
 40
0.0
 40
0.2812940492
 40
0.5391657543
 40
0.7763265418
 40
1.0
 40
1.0
 40
1.0
 40
1.0
 10
47.5853615607
 20
248.6447013441
 30
0.0
 10
47.7809578677
 20
248.7922497127
 30
0.0
 10
48.1348471466
 20
249.1051984796
 30
0.0
 10
48.5493741728
 20
249.6456757804
 30
0.0
 10
48.8087710782
 20
250.2223440613
 30
0.0
 10
48.8696206001
 20
250.6256273726
 30
0.0
 10
48.8696234654
 20
250.8204468721
 30
0.0
  0
SPLINE
  5
57F
100
AcDbEntity
  8
0
100
AcDbSpline
 62
7
  6
CONTINUOUS
 70
0
 71
3
 72
11
 73
7
 74
0
 42
0.0000001
 43
0.0000001
 44
0.0000000001
 40
0.0
 40
0.0
 40
0.0
 40
0.0
 40
0.2402903826
 40
0.5027736884
 40
0.7637494172
 40
1.0
 40
1.0
 40
1.0
 40
1.0
 10
150.0649146169
 20
314.6660424595
 30
0.0
 10
150.5536081304
 20
314.4107751499
 30
0.0
 10
151.6575109573
 20
314.0305093362
 30
0.0
 10
153.4067255108
 20
313.8138452113
 30
0.0
 10
155.1560966503
 20
313.9361415258
 30
0.0
 10
156.2651040538
 20
314.260058197
 30
0.0
 10
156.7562206804
 20
314.4895182524
 30
0.0
  0
SPLINE
  5
580
100
AcDbEntity
  8
0
100
AcDbSpline
 62
7
  6
CONTINUOUS
 70
0
 71
3
 72
9
 73
5
 74
0
 42
0.0000001
 43
0.0000001
 44
0.0000000001
 40
0.0
 40
0.0
 40
0.0
 40
0.0
 40
0.2302935206
 40
1.0
 40
1.0
 40
1.0
 40
1.0
 10
243.8814832665
 20
153.6484123251
 30
0.0
 10
243.7832629901
 20
153.5917051605
 30
0.0
 10
243.3389785448
 20
153.3765720614
 30
0.0
 10
242.8463430585
 20
153.271501743
 30
0.0
 10
242.4685659364
 20
153.2402853773
 30
0.0
  0
SPLINE
  5
581
100
AcDbEntity
  8
0
100
AcDbSpline
 62
7
  6
CONTINUOUS
 70
0
 71
3
 72
9
 73
5
 74
0
 42
0.0000001
 43
0.0000001
 44
0.0000000001
 40
0.0
 40
0.0
 40
0.0
 40
0.0
 40
0.2599108865
 40
1.0
 40
1.0
 40
1.0
 40
1.0
 10
110.2387078908
 20
109.4608330093
 30
0.0
 10
110.1401121691
 20
109.1557052038
 30
0.0
 10
109.7283995288
 20
107.9927271337
 30
0.0
 10
109.1803133713
 20
106.8758210247
 30
0.0
 10
108.6929393357
 20
106.1036976046
 30
0.0
  0
SPLINE
  5
582
100
AcDbEntity
  8
0
100
AcDbSpline
 62
7
  6
CONTINUOUS
 70
0
 71
3
 72
9
 73
5
 74
0
 42
0.0000001
 43
0.0000001
 44
0.0000000001
 40
0.0
 40
0.0
 40
0.0
 40
0.0
 40
0.2543863936
 40
1.0
 40
1.0
 40
1.0
 40
1.0
 10
108.6922055924
 20
129.4965521672
 30
0.0
 10
108.8484862557
 20
129.0685697617
 30
0.0
 10
109.438955576
 20
127.377584885
 30
0.0
 10
109.932798399
 20
125.6524830443
 30
0.0
 10
110.2387078908
 20
124.3525478276
 30
0.0
  0
SPLINE
  5
583
100
AcDbEntity
  8
0
100
AcDbSpline
 62
7
  6
CONTINUOUS
 70
0
 71
3
 72
9
 73
5
 74
0
 42
0.0000001
 43
0.0000001
 44
0.0000000001
 40
0.0
 40
0.0
 40
0.0
 40
0.0
 40
0.2760102068
 40
1.0
 40
1.0
 40
1.0
 40
1.0
 10
101.3998363265
 20
122.00969985
 30
0.0
 10
101.3998363265
 20
121.50565036
 30
0.0
 10
101.3128091066
 20
119.685281449
 30
0.0
 10
100.8320947246
 20
117.8491153845
 30
0.0
 10
100.1723903174
 20
116.7033105511
 30
0.0
  0
SPLINE
  5
584
100
AcDbEntity
  8
0
100
AcDbSpline
 62
7
  6
CONTINUOUS
 70
0
 71
3
 72
9
 73
5
 74
0
 42
0.0000001
 43
0.0000001
 44
0.0000000001
 40
0.0
 40
0.0
 40
0.0
 40
0.0
 40
0.5211151339
 40
1.0
 40
1.0
 40
1.0
 40
1.0
 10
100.1716940913
 20
128.7354025352
 30
0.0
 10
100.5612651164
 20
127.6092515267
 30
0.0
 10
101.1616834159
 20
125.3935161831
 30
0.0
 10
101.3998363265
 20
123.1047620728
 30
0.0
 10
101.3998363265
 20
122.00969985
 30
0.0
  0
SPLINE
  5
585
100
AcDbEntity
  8
0
100
AcDbSpline
 62
7
  6
CONTINUOUS
 70
0
 71
3
 72
9
 73
5
 74
0
 42
0.0000001
 43
0.0000001
 44
0.0000000001
 40
0.0
 40
0.0
 40
0.0
 40
0.0
 40
0.2771440507
 40
1.0
 40
1.0
 40
1.0
 40
1.0
 10
106.3496044025
 20
119.1520145684
 30
0.0
 10
106.3496044025
 20
118.406955172
 30
0.0
 10
106.2171423132
 20
115.7282839835
 30
0.0
 10
105.4782653331
 20
113.0217556889
 30
0.0
 10
104.4645784019
 20
111.3638034029
 30
0.0
  0
SPLINE
  5
586
100
AcDbEntity
  8
0
100
AcDbSpline
 62
7
  6
CONTINUOUS
 70
0
 71
3
 72
9
 73
5
 74
0
 42
0.0000001
 43
0.0000001
 44
0.0000000001
 40
0.0
 40
0.0
 40
0.0
 40
0.0
 40
0.5215940905
 40
1.0
 40
1.0
 40
1.0
 40
1.0
 10
104.4638577187
 20
129.1188277281
 30
0.0
 10
105.061111639
 20
127.4526474927
 30
0.0
 10
105.9821146506
 20
124.171989353
 30
0.0
 10
106.3496044025
 20
120.7754498441
 30
0.0
 10
106.3496044025
 20
119.1520145684
 30
0.0
  0
SPLINE
  5
587
100
AcDbEntity
  8
0
100
AcDbSpline
 62
7
  6
CONTINUOUS
 70
0
 71
3
 72
11
 73
7
 74
0
 42
0.0000001
 43
0.0000001
 44
0.0000000001
 40
0.0
 40
0.0
 40
0.0
 40
0.0
 40
0.2866010682
 40
0.5447290623
 40
0.779214347
 40
1.0
 40
1.0
 40
1.0
 40
1.0
 10
90.4396355867
 20
113.2542206042
 30
0.0
 10
91.1960515234
 20
112.8647954483
 30
0.0
 10
92.6967892183
 20
112.2354205601
 30
0.0
 10
94.9855901927
 20
111.785951067
 30
0.0
 10
97.1258798004
 20
111.909761855
 30
0.0
 10
98.4149040937
 20
112.3964534515
 30
0.0
 10
98.982487936
 20
112.7241724253
 30
0.0
  0
SPLINE
  5
588
100
AcDbEntity
  8
0
100
AcDbSpline
 62
7
  6
CONTINUOUS
 70
0
 71
3
 72
11
 73
7
 74
0
 42
0.0000001
 43
0.0000001
 44
0.0000000001
 40
0.0
 40
0.0
 40
0.0
 40
0.0
 40
0.2606678077
 40
0.5202097975
 40
0.7693431802
 40
1.0
 40
1.0
 40
1.0
 40
1.0
 10
78.7737062798
 20
126.8238892948
 30
0.0
 10
79.3379965826
 20
125.4985149562
 30
0.0
 10
80.6504086718
 20
122.9291219672
 30
0.0
 10
83.079091342
 20
119.4240922029
 30
0.0
 10
85.8588867876
 20
116.4115725374
 30
0.0
 10
87.9517362445
 20
114.757690851
 30
0.0
 10
89.0254161364
 20
114.0707021132
 30
0.0
  0
SPLINE
  5
589
100
AcDbEntity
  8
0
100
AcDbSpline
 62
7
  6
CONTINUOUS
 70
0
 71
3
 72
9
 73
5
 74
0
 42
0.0000001
 43
0.0000001
 44
0.0000000001
 40
0.0
 40
0.0
 40
0.0
 40
0.0
 40
0.2266292945
 40
1.0
 40
1.0
 40
1.0
 40
1.0
 10
78.0665965546
 20
142.3153409902
 30
0.0
 10
77.8280307271
 20
141.9101205144
 30
0.0
 10
76.9329225387
 20
140.0284138937
 30
0.0
 10
76.6509959464
 20
137.9027862335
 30
0.0
 10
76.6509959464
 20
136.2981262582
 30
0.0
  0
SPLINE
  5
58A
100
AcDbEntity
  8
0
100
AcDbSpline
 62
7
  6
CONTINUOUS
 70
0
 71
3
 72
9
 73
5
 74
0
 42
0.0000001
 43
0.0000001
 44
0.0000000001
 40
0.0
 40
0.0
 40
0.0
 40
0.0
 40
0.4787078524
 40
1.0
 40
1.0
 40
1.0
 40
1.0
 10
76.6509959464
 20
136.2981262582
 30
0.0
 10
76.6509959464
 20
135.0521123943
 30
0.0
 10
76.9259966583
 20
132.446880031
 30
0.0
 10
77.6178132171
 20
129.9268417419
 30
0.0
 10
78.0665965546
 20
128.6463537203
 30
0.0
  0
SPLINE
  5
58B
100
AcDbEntity
  8
0
100
AcDbSpline
 62
7
  6
CONTINUOUS
 70
0
 71
3
 72
9
 73
5
 74
0
 42
0.0000001
 43
0.0000001
 44
0.0000000001
 40
0.0
 40
0.0
 40
0.0
 40
0.0
 40
0.2495853083
 40
1.0
 40
1.0
 40
1.0
 40
1.0
 10
98.9532821594
 20
139.3848042846
 30
0.0
 10
99.4355935456
 20
138.7349523873
 30
0.0
 10
101.2866293868
 20
136.0718690298
 30
0.0
 10
102.818944032
 20
133.1865215257
 30
0.0
 10
103.7567479935
 20
130.9412921535
 30
0.0
  0
SPLINE
  5
58C
100
AcDbEntity
  8
0
100
AcDbSpline
 62
7
  6
CONTINUOUS
 70
0
 71
3
 72
11
 73
7
 74
0
 42
0.0000001
 43
0.0000001
 44
0.0000000001
 40
0.0
 40
0.0
 40
0.0
 40
0.0
 40
0.2845045255
 40
0.5420269443
 40
0.7772939692
 40
1.0
 40
1.0
 40
1.0
 40
1.0
 10
90.4396355867
 20
118.983221216
 30
0.0
 10
90.888130503
 20
118.7694925867
 30
0.0
 10
91.7771519842
 20
118.4278164335
 30
0.0
 10
93.1263899006
 20
118.2002440465
 30
0.0
 10
94.386362621
 20
118.2985892281
 30
0.0
 10
95.1457130508
 20
118.5918944792
 30
0.0
 10
95.4824563744
 20
118.7864410017
 30
0.0
  0
SPLINE
  5
58D
100
AcDbEntity
  8
0
100
AcDbSpline
 62
7
  6
CONTINUOUS
 70
0
 71
3
 72
10
 73
6
 74
0
 42
0.0000001
 43
0.0000001
 44
0.0000000001
 40
0.0
 40
0.0
 40
0.0
 40
0.0
 40
0.5183274795
 40
0.767519058
 40
1.0
 40
1.0
 40
1.0
 40
1.0
 10
83.0704439152
 20
127.2077230905
 30
0.0
 10
83.7500191408
 20
125.6942224156
 30
0.0
 10
85.0457668514
 20
123.5653578699
 30
0.0
 10
87.209721036
 20
121.1985447837
 30
0.0
 10
88.4095418542
 20
120.2173443419
 30
0.0
 10
89.0254161364
 20
119.7997027251
 30
0.0
  0
SPLINE
  5
58E
100
AcDbEntity
  8
0
100
AcDbSpline
 62
7
  6
CONTINUOUS
 70
0
 71
3
 72
9
 73
5
 74
0
 42
0.0000001
 43
0.0000001
 44
0.0000000001
 40
0.0
 40
0.0
 40
0.0
 40
0.0
 40
0.2280557047
 40
1.0
 40
1.0
 40
1.0
 40
1.0
 10
82.3633341901
 20
136.970174174
 30
0.0
 10
82.234615286
 20
136.7259118858
 30
0.0
 10
81.754918352
 20
135.6098750907
 30
0.0
 10
81.6007640224
 20
134.3750187529
 30
0.0
 10
81.6007640224
 20
133.4404409766
 30
0.0
  0
SPLINE
  5
58F
100
AcDbEntity
  8
0
100
AcDbSpline
 62
7
  6
CONTINUOUS
 70
0
 71
3
 72
9
 73
5
 74
0
 42
0.0000001
 43
0.0000001
 44
0.0000000001
 40
0.0
 40
0.0
 40
0.0
 40
0.0
 40
0.4796336156
 40
1.0
 40
1.0
 40
1.0
 40
1.0
 10
81.6007640224
 20
133.4404409766
 30
0.0
 10
81.6007640224
 20
132.7226806631
 30
0.0
 10
81.7475488596
 20
131.2249009966
 30
0.0
 10
82.1208909227
 20
129.7702008733
 30
0.0
 10
82.3633341901
 20
129.0301875159
 30
0.0
  0
SPLINE
  5
590
100
AcDbEntity
  8
0
100
AcDbSpline
 62
7
  6
CONTINUOUS
 70
0
 71
3
 72
11
 73
7
 74
0
 42
0.0000001
 43
0.0000001
 44
0.0000000001
 40
0.0
 40
0.0
 40
0.0
 40
0.0
 40
0.2309759051
 40
0.4800646604
 40
0.7394119308
 40
1.0
 40
1.0
 40
1.0
 40
1.0
 10
90.4396355867
 20
141.784956168
 30
0.0
 10
91.3825161261
 20
141.1744899088
 30
0.0
 10
93.2200233111
 20
139.7124145336
 30
0.0
 10
95.663927569
 20
137.0591465131
 30
0.0
 10
97.8031407219
 20
133.9783272167
 30
0.0
 10
98.9636200051
 20
131.7219007672
 30
0.0
 10
99.4645843661
 20
130.5578669607
 30
0.0
  0
SPLINE
  5
591
100
AcDbEntity
  8
0
100
AcDbSpline
 62
7
  6
CONTINUOUS
 70
0
 71
3
 72
11
 73
7
 74
0
 42
0.0000001
 43
0.0000001
 44
0.0000000001
 40
0.0
 40
0.0
 40
0.0
 40
0.0
 40
0.2875103873
 40
0.5459271187
 40
0.7800511189
 40
1.0
 40
1.0
 40
1.0
 40
1.0
 10
90.4396355867
 20
107.5326359196
 30
0.0
 10
91.5036183203
 20
106.9665759966
 30
0.0
 10
93.6156282896
 20
106.047759502
 30
0.0
 10
96.8437963624
 20
105.3739698166
 30
0.0
 10
99.8648278796
 20
105.5212924335
 30
0.0
 10
101.6839896627
 20
106.2010284253
 30
0.0
 10
102.482465539
 20
106.6619972348
 30
0.0
  0
SPLINE
  5
592
100
AcDbEntity
  8
0
100
AcDbSpline
 62
7
  6
CONTINUOUS
 70
0
 71
3
 72
11
 73
7
 74
0
 42
0.0000001
 43
0.0000001
 44
0.0000000001
 40
0.0
 40
0.0
 40
0.0
 40
0.0
 40
0.2608358777
 40
0.5208309712
 40
0.7700735542
 40
1.0
 40
1.0
 40
1.0
 40
1.0
 10
74.4825305732
 20
126.4405523544
 30
0.0
 10
75.2675561282
 20
124.5505159053
 30
0.0
 10
77.1106794693
 20
120.8855543484
 30
0.0
 10
80.5516117608
 20
115.895561895
 30
0.0
 10
84.5071932044
 20
111.6265754312
 30
0.0
 10
87.4939640485
 20
109.3026830803
 30
0.0
 10
89.0254161364
 20
108.3491174286
 30
0.0
  0
SPLINE
  5
593
100
AcDbEntity
  8
0
100
AcDbSpline
 62
7
  6
CONTINUOUS
 70
0
 71
3
 72
10
 73
6
 74
0
 42
0.0000001
 43
0.0000001
 44
0.0000000001
 40
0.0
 40
0.0
 40
0.0
 40
0.0
 40
0.2252176234
 40
0.5927452419
 40
1.0
 40
1.0
 40
1.0
 40
1.0
 10
73.775420848
 20
147.6535887344
 30
0.0
 10
73.426190514
 20
147.0888278035
 30
0.0
 10
72.6433057084
 20
145.5157796718
 30
0.0
 10
71.8705363039
 20
142.6470442395
 30
0.0
 10
71.7012278703
 20
140.3565324873
 30
0.0
 10
71.7012278703
 20
139.1558115399
 30
0.0
  0
SPLINE
  5
594
100
AcDbEntity
  8
0
100
AcDbSpline
 62
7
  6
CONTINUOUS
 70
0
 71
3
 72
9
 73
5
 74
0
 42
0.0000001
 43
0.0000001
 44
0.0000000001
 40
0.0
 40
0.0
 40
0.0
 40
0.0
 40
0.478320374
 40
1.0
 40
1.0
 40
1.0
 40
1.0
 10
71.7012278703
 20
139.1558115399
 30
0.0
 10
71.7012278703
 20
137.3813961824
 30
0.0
 10
72.105809124
 20
133.6683045459
 30
0.0
 10
73.1186650902
 20
130.0834342475
 30
0.0
 10
73.775420848
 20
128.2630167798
 30
0.0
  0
SPLINE
  5
595
100
AcDbEntity
  8
0
100
AcDbSpline
 62
7
  6
CONTINUOUS
 70
0
 71
3
 72
9
 73
5
 74
0
 42
0.0000001
 43
0.0000001
 44
0.0000000001
 40
0.0
 40
0.0
 40
0.0
 40
0.0
 40
0.251499971
 40
1.0
 40
1.0
 40
1.0
 40
1.0
 10
106.0406316899
 20
135.5015046901
 30
0.0
 10
106.2191200353
 20
135.1584109647
 30
0.0
 10
106.9136580135
 20
133.786398693
 30
0.0
 10
107.5476130299
 20
132.3836418912
 30
0.0
 10
107.9850958672
 20
131.3190165927
 30
0.0
  0
SPLINE
  5
596
100
AcDbEntity
  8
0
100
AcDbSpline
 62
7
  6
CONTINUOUS
 70
0
 71
3
 72
11
 73
7
 74
0
 42
0.0000001
 43
0.0000001
 44
0.0000000001
 40
0.0
 40
0.0
 40
0.0
 40
0.0
 40
0.2388698261
 40
0.500000442
 40
0.7611308168
 40
1.0
 40
1.0
 40
1.0
 40
1.0
 10
134.0513754795
 20
179.4489574212
 30
0.0
 10
133.5638688926
 20
179.7023812527
 30
0.0
 10
132.4588964856
 20
180.0729976616
 30
0.0
 10
130.7057178763
 20
180.2517241476
 30
0.0
 10
128.952541567
 20
180.0729897117
 30
0.0
 10
127.8475729539
 20
179.7023678277
 30
0.0
 10
127.3600694158
 20
179.4489413373
 30
0.0
  0
SPLINE
  5
597
100
AcDbEntity
  8
0
100
AcDbSpline
 62
7
  6
CONTINUOUS
 70
0
 71
3
 72
11
 73
7
 74
0
 42
0.0000001
 43
0.0000001
 44
0.0000000001
 40
0.0
 40
0.0
 40
0.0
 40
0.0
 40
0.2388698261
 40
0.500000442
 40
0.7611308168
 40
1.0
 40
1.0
 40
1.0
 40
1.0
 10
134.0513754795
 20
174.7132434018
 30
0.0
 10
133.5638688926
 20
174.9666672334
 30
0.0
 10
132.4588964856
 20
175.3372836422
 30
0.0
 10
130.7057178763
 20
175.5160101282
 30
0.0
 10
128.952541567
 20
175.3372756923
 30
0.0
 10
127.8475729539
 20
174.9666538083
 30
0.0
 10
127.3600694158
 20
174.713227318
 30
0.0
  0
SPLINE
  5
598
100
AcDbEntity
  8
0
100
AcDbSpline
 62
7
  6
CONTINUOUS
 70
0
 71
3
 72
11
 73
7
 74
0
 42
0.0000001
 43
0.0000001
 44
0.0000000001
 40
0.0
 40
0.0
 40
0.0
 40
0.0
 40
0.2388698261
 40
0.500000442
 40
0.7611308168
 40
1.0
 40
1.0
 40
1.0
 40
1.0
 10
134.0513754795
 20
169.9775293825
 30
0.0
 10
133.5638688926
 20
170.230953214
 30
0.0
 10
132.4588964856
 20
170.6015696229
 30
0.0
 10
130.7057178763
 20
170.7802961089
 30
0.0
 10
128.952541567
 20
170.601561673
 30
0.0
 10
127.8475729539
 20
170.230939789
 30
0.0
 10
127.3600694158
 20
169.9775132986
 30
0.0
  0
SPLINE
  5
599
100
AcDbEntity
  8
0
100
AcDbSpline
 62
7
  6
CONTINUOUS
 70
0
 71
3
 72
11
 73
7
 74
0
 42
0.0000001
 43
0.0000001
 44
0.0000000001
 40
0.0
 40
0.0
 40
0.0
 40
0.0
 40
0.2388698261
 40
0.500000442
 40
0.7611308168
 40
1.0
 40
1.0
 40
1.0
 40
1.0
 10
134.0513754795
 20
184.1846714405
 30
0.0
 10
133.5638688926
 20
184.4380952721
 30
0.0
 10
132.4588964856
 20
184.8087116809
 30
0.0
 10
130.7057178763
 20
184.9874381669
 30
0.0
 10
128.952541567
 20
184.808703731
 30
0.0
 10
127.8475729539
 20
184.438081847
 30
0.0
 10
127.3600694158
 20
184.1846553567
 30
0.0
  0
SPLINE
  5
59A
100
AcDbEntity
  8
0
100
AcDbSpline
 62
7
  6
CONTINUOUS
 70
0
 71
3
 72
16
 73
12
 74
0
 42
0.0000001
 43
0.0000001
 44
0.0000000001
 40
0.0
 40
0.0
 40
0.0
 40
0.0
 40
0.0428757442
 40
0.087521923
 40
0.1869262484
 40
0.3042380343
 40
0.4379641723
 40
0.5823700573
 40
0.7295935095
 40
0.87125452
 40
1.0
 40
1.0
 40
1.0
 40
1.0
 10
44.1738425867
 20
186.5943810955
 30
0.0
 10
44.173786553
 20
186.4548994723
 30
0.0
 10
44.2111333401
 20
186.1689609275
 30
0.0
 10
44.437505087
 20
185.5988660625
 30
0.0
 10
45.0108252806
 20
184.9404944792
 30
0.0
 10
45.9949510687
 20
184.3432011974
 30
0.0
 10
47.2232521887
 20
183.932053846
 30
0.0
 10
48.6002937635
 20
183.7388481886
 30
0.0
 10
50.0160976547
 20
183.777913934
 30
0.0
 10
51.3545894812
 20
184.045739098
 30
0.0
 10
52.1758749919
 20
184.3845877022
 30
0.0
 10
52.5385925904
 20
184.5940015553
 30
0.0
  0
SPLINE
  5
59B
100
AcDbEntity
  8
0
100
AcDbSpline
 62
7
  6
CONTINUOUS
 70
0
 71
3
 72
11
 73
7
 74
0
 42
0.0000001
 43
0.0000001
 44
0.0000000001
 40
0.0
 40
0.0
 40
0.0
 40
0.0
 40
0.2177648073
 40
0.4508950352
 40
0.7103684932
 40
1.0
 40
1.0
 40
1.0
 40
1.0
 10
82.2580412301
 20
166.100589075
 30
0.0
 10
82.2579671032
 20
165.9139733657
 30
0.0
 10
82.1892958901
 20
165.5249585407
 30
0.0
 10
81.8942310098
 20
164.9829123119
 30
0.0
 10
81.42796377
 20
164.4930577266
 30
0.0
 10
81.0379316818
 20
164.2243097961
 30
0.0
 10
80.8229815963
 20
164.1002090471
 30
0.0
  0
SPLINE
  5
59C
100
AcDbEntity
  8
0
100
AcDbSpline
 62
7
  6
CONTINUOUS
 70
0
 71
3
 72
16
 73
12
 74
0
 42
0.0000001
 43
0.0000001
 44
0.0000000001
 40
0.0
 40
0.0
 40
0.0
 40
0.0
 40
0.0428757442
 40
0.087521923
 40
0.1869262484
 40
0.3042380343
 40
0.4379641723
 40
0.5823700573
 40
0.7295935095
 40
0.87125452
 40
1.0
 40
1.0
 40
1.0
 40
1.0
 10
72.4582315926
 20
170.2647509147
 30
0.0
 10
72.4581755589
 20
170.1252692915
 30
0.0
 10
72.495522346
 20
169.8393307467
 30
0.0
 10
72.7218940929
 20
169.2692358817
 30
0.0
 10
73.2952142865
 20
168.6108642984
 30
0.0
 10
74.2793400746
 20
168.0135710165
 30
0.0
 10
75.5076411946
 20
167.6024236652
 30
0.0
 10
76.8846827694
 20
167.4092180078
 30
0.0
 10
78.3004866606
 20
167.4482837532
 30
0.0
 10
79.6389784871
 20
167.7161089172
 30
0.0
 10
80.4602639978
 20
168.0549575214
 30
0.0
 10
80.8229815963
 20
168.2643713745
 30
0.0
  0
SPLINE
  5
59D
100
AcDbEntity
  8
0
100
AcDbSpline
 62
7
  6
CONTINUOUS
 70
0
 71
3
 72
11
 73
7
 74
0
 42
0.0000001
 43
0.0000001
 44
0.0000000001
 40
0.0
 40
0.0
 40
0.0
 40
0.0
 40
0.2290964285
 40
0.4663867456
 40
0.7215930248
 40
1.0
 40
1.0
 40
1.0
 40
1.0
 10
48.8696234654
 20
250.8204468721
 30
0.0
 10
48.8696262817
 20
251.0119383797
 30
0.0
 10
48.81132925
 20
251.4041163143
 30
0.0
 10
48.5521916146
 20
251.9568857102
 30
0.0
 10
48.1356527235
 20
252.456215605
 30
0.0
 10
47.7807270615
 20
252.7317673509
 30
0.0
 10
47.585333702
 20
252.858157413
 30
0.0
  0
SPLINE
  5
59E
100
AcDbEntity
  8
0
100
AcDbSpline
 62
7
  6
CONTINUOUS
 70
0
 71
3
 72
9
 73
5
 74
0
 42
0.0000001
 43
0.0000001
 44
0.0000000001
 40
0.0
 40
0.0
 40
0.0
 40
0.0
 40
0.2773537889
 40
1.0
 40
1.0
 40
1.0
 40
1.0
 10
109.5315834459
 20
119.356143444
 30
0.0
 10
109.5315834459
 20
118.5422354374
 30
0.0
 10
109.3861271528
 20
115.6184803063
 30
0.0
 10
108.5732090646
 20
112.6633353666
 30
0.0
 10
107.458115666
 20
110.8595391764
 30
0.0
  0
SPLINE
  5
59F
100
AcDbEntity
  8
0
100
AcDbSpline
 62
7
  6
CONTINUOUS
 70
0
 71
3
 72
9
 73
5
 74
0
 42
0.0000001
 43
0.0000001
 44
0.0000000001
 40
0.0
 40
0.0
 40
0.0
 40
0.0
 40
0.5207303864
 40
1.0
 40
1.0
 40
1.0
 40
1.0
 10
107.7501194439
 20
129.4082963593
 30
0.0
 10
108.3158496842
 20
127.7230216892
 30
0.0
 10
109.1876291303
 20
124.4091899492
 30
0.0
 10
109.5315834459
 20
120.9922981123
 30
0.0
 10
109.5315834459
 20
119.356143444
 30
0.0
  0
SPLINE
  5
5A0
100
AcDbEntity
  8
0
100
AcDbSpline
 62
7
  6
CONTINUOUS
 70
0
 71
3
 72
9
 73
5
 74
0
 42
0.0000001
 43
0.0000001
 44
0.0000000001
 40
0.0
 40
0.0
 40
0.0
 40
0.0
 40
0.2743581719
 40
1.0
 40
1.0
 40
1.0
 40
1.0
 10
99.6320472938
 20
125.0715140073
 30
0.0
 10
99.6320472938
 20
124.7397054325
 30
0.0
 10
99.577359597
 20
123.5335164355
 30
0.0
 10
99.2790605467
 20
122.3195312427
 30
0.0
 10
98.8701375018
 20
121.5430343758
 30
0.0
  0
SPLINE
  5
5A1
100
AcDbEntity
  8
0
100
AcDbSpline
 62
7
  6
CONTINUOUS
 70
0
 71
3
 72
9
 73
5
 74
0
 42
0.0000001
 43
0.0000001
 44
0.0000000001
 40
0.0
 40
0.0
 40
0.0
 40
0.0
 40
0.2631404051
 40
1.0
 40
1.0
 40
1.0
 40
1.0
 10
99.1225642065
 20
128.6369556396
 30
0.0
 10
99.2054506181
 20
128.3315954208
 30
0.0
 10
99.4870326651
 20
127.1628129016
 30
0.0
 10
99.6320472938
 20
125.9575407378
 30
0.0
 10
99.6320472938
 20
125.0715140073
 30
0.0
  0
SPLINE
  5
5A2
100
AcDbEntity
  8
0
100
AcDbSpline
 62
7
  6
CONTINUOUS
 70
0
 71
3
 72
9
 73
5
 74
0
 42
0.0000001
 43
0.0000001
 44
0.0000000001
 40
0.0
 40
0.0
 40
0.0
 40
0.0
 40
0.2764215707
 40
1.0
 40
1.0
 40
1.0
 40
1.0
 10
104.5818153698
 20
122.2138287256
 30
0.0
 10
104.5818153698
 20
121.6409103378
 30
0.0
 10
104.4818172113
 20
119.5751998833
 30
0.0
 10
103.9275538294
 20
117.4903123208
 30
0.0
 10
103.166919872
 20
116.1978119093
 30
0.0
  0
SPLINE
  5
5A3
100
AcDbEntity
  8
0
100
AcDbSpline
 62
7
  6
CONTINUOUS
 70
0
 71
3
 72
9
 73
5
 74
0
 42
0.0000001
 43
0.0000001
 44
0.0000000001
 40
0.0
 40
0.0
 40
0.0
 40
0.0
 40
0.5198834794
 40
1.0
 40
1.0
 40
1.0
 40
1.0
 10
103.446873209
 20
129.0231668494
 30
0.0
 10
103.8082037599
 20
127.8791390431
 30
0.0
 10
104.3644637201
 20
125.6314529666
 30
0.0
 10
104.5818153698
 20
123.3217917212
 30
0.0
 10
104.5818153698
 20
122.2138287256
 30
0.0
  0
SPLINE
  5
5A4
100
AcDbEntity
  8
0
100
AcDbSpline
 62
7
  6
CONTINUOUS
 70
0
 71
3
 72
11
 73
7
 74
0
 42
0.0000001
 43
0.0000001
 44
0.0000000001
 40
0.0
 40
0.0
 40
0.0
 40
0.0
 40
0.2814924253
 40
0.5402905811
 40
0.7782096502
 40
1.0
 40
1.0
 40
1.0
 40
1.0
 10
92.2073951798
 20
110.1876153905
 30
0.0
 10
92.9971610009
 20
109.7704955805
 30
0.0
 10
94.5674010185
 20
109.0657271209
 30
0.0
 10
96.9619908784
 20
108.4161185536
 30
0.0
 10
99.2496021656
 20
108.2376088416
 30
0.0
 10
100.7091844971
 20
108.4481630797
 30
0.0
 10
101.3872928054
 20
108.6362940185
 30
0.0
  0
SPLINE
  5
5A5
100
AcDbEntity
  8
0
100
AcDbSpline
 62
7
  6
CONTINUOUS
 70
0
 71
3
 72
10
 73
6
 74
0
 42
0.0000001
 43
0.0000001
 44
0.0000000001
 40
0.0
 40
0.0
 40
0.0
 40
0.0
 40
0.5150357417
 40
0.7644568429
 40
1.0
 40
1.0
 40
1.0
 40
1.0
 10
77.979089991
 20
126.4189571894
 30
0.0
 10
79.2677050591
 20
123.592644739
 30
0.0
 10
81.6753171822
 20
119.5958759443
 30
0.0
 10
85.6514656923
 20
115.048612474
 30
0.0
 10
87.8533235521
 20
113.1051272683
 30
0.0
 10
88.9876295563
 20
112.249915358
 30
0.0
  0
SPLINE
  5
5A6
100
AcDbEntity
  8
0
100
AcDbSpline
 62
7
  6
CONTINUOUS
 70
0
 71
3
 72
9
 73
5
 74
0
 42
0.0000001
 43
0.0000001
 44
0.0000000001
 40
0.0
 40
0.0
 40
0.0
 40
0.0
 40
0.4784059095
 40
1.0
 40
1.0
 40
1.0
 40
1.0
 10
74.8832069137
 20
139.3599404155
 30
0.0
 10
74.8832069137
 20
137.7365051397
 30
0.0
 10
75.2506966656
 20
134.3399656309
 30
0.0
 10
76.1716996772
 20
131.0593074911
 30
0.0
 10
76.7689535975
 20
129.3931272558
 30
0.0
  0
SPLINE
  5
5A7
100
AcDbEntity
  8
0
100
AcDbSpline
 62
7
  6
CONTINUOUS
 70
0
 71
3
 72
9
 73
5
 74
0
 42
0.0000001
 43
0.0000001
 44
0.0000000001
 40
0.0
 40
0.0
 40
0.0
 40
0.0
 40
0.2329717327
 40
1.0
 40
1.0
 40
1.0
 40
1.0
 10
75.8037508034
 20
145.126144808
 30
0.0
 10
75.6480769896
 20
144.6988141762
 30
0.0
 10
75.0787348548
 20
142.8285328899
 30
0.0
 10
74.8832069137
 20
140.8573185896
 30
0.0
 10
74.8832069137
 20
139.3599404155
 30
0.0
  0
SPLINE
  5
5A8
100
AcDbEntity
  8
0
100
AcDbSpline
 62
7
  6
CONTINUOUS
 70
0
 71
3
 72
9
 73
5
 74
0
 42
0.0000001
 43
0.0000001
 44
0.0000000001
 40
0.0
 40
0.0
 40
0.0
 40
0.0
 40
0.4952331725
 40
1.0
 40
1.0
 40
1.0
 40
1.0
 10
96.4617560157
 20
140.8785350639
 30
0.0
 10
97.715598748
 20
139.5611907576
 30
0.0
 10
99.9896048139
 20
136.6488219798
 30
0.0
 10
101.732963231
 20
133.3935880242
 30
0.0
 10
102.4591050364
 20
131.688065689
 30
0.0
  0
SPLINE
  5
5A9
100
AcDbEntity
  8
0
100
AcDbSpline
 62
7
  6
CONTINUOUS
 70
0
 71
3
 72
10
 73
6
 74
0
 42
0.0000001
 43
0.0000001
 44
0.0000000001
 40
0.0
 40
0.0
 40
0.0
 40
0.0
 40
0.278689314
 40
0.5374180553
 40
1.0
 40
1.0
 40
1.0
 40
1.0
 10
92.2073951798
 20
115.9105173068
 30
0.0
 10
92.6998293792
 20
115.6607417457
 30
0.0
 10
93.6800923663
 20
115.2338493054
 30
0.0
 10
95.5896175838
 20
114.698938673
 30
0.0
 10
97.0615234909
 20
114.6467404694
 30
0.0
 10
97.9618244633
 20
114.8182916091
 30
0.0
  0
SPLINE
  5
5AA
100
AcDbEntity
  8
0
100
AcDbSpline
 62
7
  6
CONTINUOUS
 70
0
 71
3
 72
9
 73
5
 74
0
 42
0.0000001
 43
0.0000001
 44
0.0000000001
 40
0.0
 40
0.0
 40
0.0
 40
0.0
 40
0.5128155624
 40
1.0
 40
1.0
 40
1.0
 40
1.0
 10
82.2982173543
 20
126.7967419424
 30
0.0
 10
83.1240858278
 20
125.0966317145
 30
0.0
 10
85.0665900178
 20
121.9343265431
 30
0.0
 10
87.6032775062
 20
119.2130114476
 30
0.0
 10
88.9834115166
 20
118.0643256162
 30
0.0
  0
SPLINE
  5
5AB
100
AcDbEntity
  8
0
100
AcDbSpline
 62
7
  6
CONTINUOUS
 70
0
 71
3
 72
9
 73
5
 74
0
 42
0.0000001
 43
0.0000001
 44
0.0000000001
 40
0.0
 40
0.0
 40
0.0
 40
0.0
 40
0.4788848661
 40
1.0
 40
1.0
 40
1.0
 40
1.0
 10
79.8329749897
 20
136.5022551338
 30
0.0
 10
79.8329749897
 20
135.4071929111
 30
0.0
 10
80.0711279003
 20
133.1184388007
 30
0.0
 10
80.6715461998
 20
130.9027034572
 30
0.0
 10
81.0611172249
 20
129.7765524487
 30
0.0
  0
SPLINE
  5
5AC
100
AcDbEntity
  8
0
100
AcDbSpline
 62
7
  6
CONTINUOUS
 70
0
 71
3
 72
9
 73
5
 74
0
 42
0.0000001
 43
0.0000001
 44
0.0000000001
 40
0.0
 40
0.0
 40
0.0
 40
0.0
 40
0.2372039184
 40
1.0
 40
1.0
 40
1.0
 40
1.0
 10
80.2013292121
 20
139.648167907
 30
0.0
 10
80.1391550483
 20
139.4051770073
 30
0.0
 10
79.9145855721
 20
138.3712308612
 30
0.0
 10
79.8329749897
 20
137.308834562
 30
0.0
 10
79.8329749897
 20
136.5022551338
 30
0.0
  0
SPLINE
  5
5AD
100
AcDbEntity
  8
0
100
AcDbSpline
 62
7
  6
CONTINUOUS
 70
0
 71
3
 72
10
 73
6
 74
0
 42
0.0000001
 43
0.0000001
 44
0.0000000001
 40
0.0
 40
0.0
 40
0.0
 40
0.0
 40
0.232480942
 40
0.4816725205
 40
1.0
 40
1.0
 40
1.0
 40
1.0
 10
92.2073951798
 20
138.7122522588
 30
0.0
 10
92.823269462
 20
138.2946106419
 30
0.0
 10
94.0230902802
 20
137.3134102002
 30
0.0
 10
96.1870444648
 20
134.946597114
 30
0.0
 10
97.4827921753
 20
132.8177325682
 30
0.0
 10
98.1623674009
 20
131.3042318934
 30
0.0
  0
SPLINE
  5
5AE
100
AcDbEntity
  8
0
100
AcDbSpline
 62
7
  6
CONTINUOUS
 70
0
 71
3
 72
9
 73
5
 74
0
 42
0.0000001
 43
0.0000001
 44
0.0000000001
 40
0.0
 40
0.0
 40
0.0
 40
0.0
 40
0.5211473196
 40
1.0
 40
1.0
 40
1.0
 40
1.0
 10
97.9491261479
 20
102.364759625
 30
0.0
 10
99.1010181118
 20
102.1180248217
 30
0.0
 10
101.3705785632
 20
101.8668623039
 30
0.0
 10
103.6391532562
 20
102.2174864364
 30
0.0
 10
104.6707197904
 20
102.5453521551
 30
0.0
  0
SPLINE
  5
5AF
100
AcDbEntity
  8
0
100
AcDbSpline
 62
7
  6
CONTINUOUS
 70
0
 71
3
 72
9
 73
5
 74
0
 42
0.0000001
 43
0.0000001
 44
0.0000000001
 40
0.0
 40
0.0
 40
0.0
 40
0.0
 40
0.5081698162
 40
1.0
 40
1.0
 40
1.0
 40
1.0
 10
73.7250218808
 20
126.0704615896
 30
0.0
 10
75.0823072793
 20
122.9826856234
 30
0.0
 10
78.3539359921
 20
117.1570286369
 30
0.0
 10
82.6734274968
 20
112.0475363259
 30
0.0
 10
85.0514447613
 20
109.8110709874
 30
0.0
  0
SPLINE
  5
5B0
100
AcDbEntity
  8
0
100
AcDbSpline
 62
7
  6
CONTINUOUS
 70
0
 71
3
 72
9
 73
5
 74
0
 42
0.0000001
 43
0.0000001
 44
0.0000000001
 40
0.0
 40
0.0
 40
0.0
 40
0.0
 40
0.2453955432
 40
1.0
 40
1.0
 40
1.0
 40
1.0
 10
70.9941034253
 20
134.1594071562
 30
0.0
 10
71.0947848261
 20
133.7315704857
 30
0.0
 10
71.5325535629
 20
131.9946546964
 30
0.0
 10
72.0770155913
 20
130.284967559
 30
0.0
 10
72.5406057238
 20
129.0154028166
 30
0.0
  0
SPLINE
  5
5B1
100
AcDbEntity
  8
0
100
AcDbSpline
 62
7
  6
CONTINUOUS
 70
0
 71
3
 72
9
 73
5
 74
0
 42
0.0000001
 43
0.0000001
 44
0.0000000001
 40
0.0
 40
0.0
 40
0.0
 40
0.0
 40
0.2461808901
 40
1.0
 40
1.0
 40
1.0
 40
1.0
 10
71.5201827162
 20
150.4579385476
 30
0.0
 10
71.4716008563
 20
150.3446385106
 30
0.0
 10
71.2798387567
 20
149.8820282898
 30
0.0
 10
71.1101690802
 20
149.4103146244
 30
0.0
 10
70.9941034253
 20
149.0511219745
 30
0.0
  0
SPLINE
  5
5B2
100
AcDbEntity
  8
0
100
AcDbSpline
 62
7
  6
CONTINUOUS
 70
0
 71
3
 72
11
 73
7
 74
0
 42
0.0000001
 43
0.0000001
 44
0.0000000001
 40
0.0
 40
0.0
 40
0.0
 40
0.0
 40
0.2896428702
 40
0.5491125874
 40
0.7822368
 40
1.0
 40
1.0
 40
1.0
 40
1.0
 10
109.1073706022
 20
151.9347411937
 30
0.0
 10
109.3223294273
 20
152.0588469884
 30
0.0
 10
109.7123675
 20
152.3275983031
 30
0.0
 10
110.178636539
 20
152.8174576665
 30
0.0
 10
110.4736790564
 20
153.3595019498
 30
0.0
 10
110.542370331
 20
153.7485064503
 30
0.0
 10
110.5424452994
 20
153.9351210478
 30
0.0
  0
SPLINE
  5
5B3
100
AcDbEntity
  8
0
100
AcDbSpline
 62
7
  6
CONTINUOUS
 70
0
 71
3
 72
11
 73
7
 74
0
 42
0.0000001
 43
0.0000001
 44
0.0000000001
 40
0.0
 40
0.0
 40
0.0
 40
0.0
 40
0.2896428702
 40
0.5491125874
 40
0.7822368
 40
1.0
 40
1.0
 40
1.0
 40
1.0
 10
52.5385925904
 20
184.5940015553
 30
0.0
 10
52.7535514155
 20
184.71810735
 30
0.0
 10
53.1435894883
 20
184.9868586647
 30
0.0
 10
53.6098585273
 20
185.4767180281
 30
0.0
 10
53.9049010447
 20
186.0187623115
 30
0.0
 10
53.9735923193
 20
186.4077668119
 30
0.0
 10
53.9736672877
 20
186.5943814094
 30
0.0
  0
SPLINE
  5
5B4
100
AcDbEntity
  8
0
100
AcDbSpline
 62
7
  6
CONTINUOUS
 70
0
 71
3
 72
11
 73
7
 74
0
 42
0.0000001
 43
0.0000001
 44
0.0000000001
 40
0.0
 40
0.0
 40
0.0
 40
0.0
 40
0.2896428702
 40
0.5491125874
 40
0.7822368
 40
1.0
 40
1.0
 40
1.0
 40
1.0
 10
80.8229815963
 20
168.2643713745
 30
0.0
 10
81.0379404214
 20
168.3884771692
 30
0.0
 10
81.4279784942
 20
168.6572284839
 30
0.0
 10
81.8942475332
 20
169.1470878473
 30
0.0
 10
82.1892900506
 20
169.6891321306
 30
0.0
 10
82.2579813251
 20
170.0781366311
 30
0.0
 10
82.2580562935
 20
170.2647512286
 30
0.0
  0
SPLINE
  5
5B5
100
AcDbEntity
  8
0
100
AcDbSpline
 62
7
  6
CONTINUOUS
 70
0
 71
3
 72
16
 73
12
 74
0
 42
0.0000001
 43
0.0000001
 44
0.0000000001
 40
0.0
 40
0.0
 40
0.0
 40
0.0
 40
0.1287443602
 40
0.2703971121
 40
0.4176139114
 40
0.5620190713
 40
0.6957499754
 40
0.8130650626
 40
0.9124721117
 40
0.9571211941
 40
1.0
 40
1.0
 40
1.0
 40
1.0
 10
109.1073706022
 20
147.7705788663
 30
0.0
 10
108.7446564867
 20
147.5611670241
 30
0.0
 10
107.9234015875
 20
147.2223269629
 30
0.0
 10
106.5849643078
 20
146.9545067564
 30
0.0
 10
105.1692142068
 20
146.9154166302
 30
0.0
 10
103.7921787078
 20
147.1085993398
 30
0.0
 10
102.5638492114
 20
147.5197264976
 30
0.0
 10
101.5796732562
 20
148.1170144798
 30
0.0
 10
101.0063394248
 20
148.7754001366
 30
0.0
 10
100.7799068317
 20
149.3455047035
 30
0.0
 10
100.7425802536
 20
149.6314667753
 30
0.0
 10
100.7426356619
 20
149.7709582328
 30
0.0
  0
SPLINE
  5
5B6
100
AcDbEntity
  8
0
100
AcDbSpline
 62
7
  6
CONTINUOUS
 70
0
 71
3
 72
16
 73
12
 74
0
 42
0.0000001
 43
0.0000001
 44
0.0000000001
 40
0.0
 40
0.0
 40
0.0
 40
0.0
 40
0.1287443602
 40
0.2703971121
 40
0.4176139114
 40
0.5620190713
 40
0.6957499754
 40
0.8130650626
 40
0.9124721117
 40
0.9571211941
 40
1.0
 40
1.0
 40
1.0
 40
1.0
 10
52.5385925904
 20
180.4298392279
 30
0.0
 10
52.1758784749
 20
180.2204273857
 30
0.0
 10
51.3546235758
 20
179.8815873245
 30
0.0
 10
50.0161862961
 20
179.613767118
 30
0.0
 10
48.6004361951
 20
179.5746769919
 30
0.0
 10
47.2234006961
 20
179.7678597015
 30
0.0
 10
45.9950711997
 20
180.1789868593
 30
0.0
 10
45.0108952445
 20
180.7762748414
 30
0.0
 10
44.4375614131
 20
181.4346604983
 30
0.0
 10
44.21112882
 20
182.0047650652
 30
0.0
 10
44.1738022418
 20
182.290727137
 30
0.0
 10
44.1738576502
 20
182.4302185944
 30
0.0
  0
SPLINE
  5
5B7
100
AcDbEntity
  8
0
100
AcDbSpline
 62
7
  6
CONTINUOUS
 70
0
 71
3
 72
16
 73
12
 74
0
 42
0.0000001
 43
0.0000001
 44
0.0000000001
 40
0.0
 40
0.0
 40
0.0
 40
0.0
 40
0.1287443602
 40
0.2703971121
 40
0.4176139114
 40
0.5620190713
 40
0.6957499754
 40
0.8130650626
 40
0.9124721117
 40
0.9571211941
 40
1.0
 40
1.0
 40
1.0
 40
1.0
 10
80.8229815963
 20
164.1002090471
 30
0.0
 10
80.4602674808
 20
163.8907972049
 30
0.0
 10
79.6390125816
 20
163.5519571437
 30
0.0
 10
78.300575302
 20
163.2841369372
 30
0.0
 10
76.884825201
 20
163.2450468111
 30
0.0
 10
75.507789702
 20
163.4382295207
 30
0.0
 10
74.2794602056
 20
163.8493566785
 30
0.0
 10
73.2952842503
 20
164.4466446606
 30
0.0
 10
72.7219504189
 20
165.1050303174
 30
0.0
 10
72.4955178258
 20
165.6751348844
 30
0.0
 10
72.4581912477
 20
165.9610969561
 30
0.0
 10
72.458246656
 20
166.1005884136
 30
0.0
  0
SPLINE
  5
5B8
100
AcDbEntity
  8
0
100
AcDbSpline
 62
7
  6
CONTINUOUS
 70
0
 71
3
 72
13
 73
9
 74
0
 42
0.0000001
 43
0.0000001
 44
0.0000000001
 40
0.0
 40
0.0
 40
0.0
 40
0.0
 40
0.3074844291
 40
0.5806538309
 40
0.7003191385
 40
0.8083787573
 40
0.9069290354
 40
1.0
 40
1.0
 40
1.0
 40
1.0
 10
242.4850749575
 20
156.0963429884
 30
0.0
 10
242.7683253359
 20
156.0717968515
 30
0.0
 10
243.3002027938
 20
155.9724015604
 30
0.0
 10
243.9008172909
 20
155.7062799412
 30
0.0
 10
244.2663251047
 20
155.4178608615
 30
0.0
 10
244.4624493809
 20
155.1852921828
 30
0.0
 10
244.5853941961
 20
154.9333139651
 30
0.0
 10
244.6135963974
 20
154.7550710329
 30
0.0
 10
244.6135997203
 20
154.6690140306
 30
0.0
  0
SPLINE
  5
5B9
100
AcDbEntity
  8
0
100
AcDbSpline
 62
7
  6
CONTINUOUS
 70
0
 71
3
 72
10
 73
6
 74
0
 42
0.0000001
 43
0.0000001
 44
0.0000000001
 40
0.0
 40
0.0
 40
0.0
 40
0.0
 40
0.2252214393
 40
0.5927509732
 40
1.0
 40
1.0
 40
1.0
 40
1.0
 10
105.690356073
 20
109.8389287917
 30
0.0
 10
106.0394663369
 20
110.4036561633
 30
0.0
 10
106.8220734377
 20
111.9765516444
 30
0.0
 10
107.5945703197
 20
114.8448723496
 30
0.0
 10
107.7638238528
 20
117.1350151428
 30
0.0
 10
107.7638238528
 20
118.3355330593
 30
0.0
  0
SPLINE
  5
5BA
100
AcDbEntity
  8
0
100
AcDbSpline
 62
7
  6
CONTINUOUS
 70
0
 71
3
 72
9
 73
5
 74
0
 42
0.0000001
 43
0.0000001
 44
0.0000000001
 40
0.0
 40
0.0
 40
0.0
 40
0.0
 40
0.478320374
 40
1.0
 40
1.0
 40
1.0
 40
1.0
 10
107.7638238528
 20
118.3355330593
 30
0.0
 10
107.7638238528
 20
120.1099484168
 30
0.0
 10
107.3592425991
 20
123.8230400532
 30
0.0
 10
106.3463866329
 20
127.4079103517
 30
0.0
 10
105.6896308751
 20
129.2283278193
 30
0.0
  0
SPLINE
  5
5BB
100
AcDbEntity
  8
0
100
AcDbSpline
 62
7
  6
CONTINUOUS
 70
0
 71
3
 72
9
 73
5
 74
0
 42
0.0000001
 43
0.0000001
 44
0.0000000001
 40
0.0
 40
0.0
 40
0.0
 40
0.0
 40
0.2280642839
 40
1.0
 40
1.0
 40
1.0
 40
1.0
 10
97.1023779088
 20
120.5224239911
 30
0.0
 10
97.2309863121
 20
120.7666362543
 30
0.0
 10
97.7102531243
 20
121.882343262
 30
0.0
 10
97.8642877008
 20
123.1166955157
 30
0.0
 10
97.8642877008
 20
124.0509036226
 30
0.0
  0
SPLINE
  5
5BC
100
AcDbEntity
  8
0
100
AcDbSpline
 62
7
  6
CONTINUOUS
 70
0
 71
3
 72
9
 73
5
 74
0
 42
0.0000001
 43
0.0000001
 44
0.0000000001
 40
0.0
 40
0.0
 40
0.0
 40
0.0
 40
0.4796336156
 40
1.0
 40
1.0
 40
1.0
 40
1.0
 10
97.8642877008
 20
124.0509036226
 30
0.0
 10
97.8642877008
 20
124.7686639361
 30
0.0
 10
97.7175028636
 20
126.2664436026
 30
0.0
 10
97.3441608004
 20
127.7211437259
 30
0.0
 10
97.1017175331
 20
128.4611570832
 30
0.0
  0
SPLINE
  5
5BD
100
AcDbEntity
  8
0
100
AcDbSpline
 62
7
  6
CONTINUOUS
 70
0
 71
3
 72
9
 73
5
 74
0
 42
0.0000001
 43
0.0000001
 44
0.0000000001
 40
0.0
 40
0.0
 40
0.0
 40
0.0
 40
0.2266342695
 40
1.0
 40
1.0
 40
1.0
 40
1.0
 10
101.399160279
 20
115.1772015246
 30
0.0
 10
101.6376089281
 20
115.5823832471
 30
0.0
 10
102.5322548628
 20
117.4637953931
 30
0.0
 10
102.8140557768
 20
119.5889207113
 30
0.0
 10
102.8140557768
 20
121.193218341
 30
0.0
  0
SPLINE
  5
5BE
100
AcDbEntity
  8
0
100
AcDbSpline
 62
7
  6
CONTINUOUS
 70
0
 71
3
 72
9
 73
5
 74
0
 42
0.0000001
 43
0.0000001
 44
0.0000000001
 40
0.0
 40
0.0
 40
0.0
 40
0.0
 40
0.4787078524
 40
1.0
 40
1.0
 40
1.0
 40
1.0
 10
102.8140557768
 20
121.193218341
 30
0.0
 10
102.8140557768
 20
122.4392322049
 30
0.0
 10
102.5390550649
 20
125.0444645681
 30
0.0
 10
101.847238506
 20
127.5645028573
 30
0.0
 10
101.3984551685
 20
128.8449908788
 30
0.0
  0
SPLINE
  5
5BF
100
AcDbEntity
  8
0
100
AcDbSpline
 62
7
  6
CONTINUOUS
 70
0
 71
3
 72
11
 73
7
 74
0
 42
0.0000001
 43
0.0000001
 44
0.0000000001
 40
0.0
 40
0.0
 40
0.0
 40
0.0
 40
0.2201371893
 40
0.4543365809
 40
0.7127034006
 40
1.0
 40
1.0
 40
1.0
 40
1.0
 10
101.4824792752
 20
108.3940346251
 30
0.0
 10
100.7499831926
 20
107.9711150735
 30
0.0
 10
99.0823017624
 20
107.346595321
 30
0.0
 10
96.3129011266
 20
107.2057835997
 30
0.0
 10
93.353133277
 20
107.81549135
 30
0.0
 10
91.4157222616
 20
108.6514786593
 30
0.0
 10
90.4396355867
 20
109.1670050059
 30
0.0
  0
SPLINE
  5
5C0
100
AcDbEntity
  8
0
100
AcDbSpline
 62
7
  6
CONTINUOUS
 70
0
 71
3
 72
9
 73
5
 74
0
 42
0.0000001
 43
0.0000001
 44
0.0000000001
 40
0.0
 40
0.0
 40
0.0
 40
0.0
 40
0.4826310403
 40
1.0
 40
1.0
 40
1.0
 40
1.0
 10
82.2503233612
 20
145.787782591
 30
0.0
 10
82.86634023
 20
146.1434662008
 30
0.0
 10
84.2832149875
 20
146.6554684634
 30
0.0
 10
85.7803810253
 20
146.6863171911
 30
0.0
 10
86.5388148935
 20
146.6074181874
 30
0.0
  0
SPLINE
  5
5C1
100
AcDbEntity
  8
0
100
AcDbSpline
 62
7
  6
CONTINUOUS
 70
0
 71
3
 72
11
 73
7
 74
0
 42
0.0000001
 43
0.0000001
 44
0.0000000001
 40
0.0
 40
0.0
 40
0.0
 40
0.0
 40
0.2300942148
 40
0.4793096077
 40
0.7391974144
 40
1.0
 40
1.0
 40
1.0
 40
1.0
 10
89.0254161364
 20
109.9834865149
 30
0.0
 10
87.6247374907
 20
110.8610370328
 30
0.0
 10
84.8933611771
 20
112.9936166033
 30
0.0
 10
81.2738897666
 20
116.9038169402
 30
0.0
 10
78.1219371798
 20
121.469382521
 30
0.0
 10
76.4303714245
 20
124.8213248397
 30
0.0
 10
75.7083037296
 20
126.5500524456
 30
0.0
  0
SPLINE
  5
5C2
100
AcDbEntity
  8
0
100
AcDbSpline
 62
7
  6
CONTINUOUS
 70
0
 71
3
 72
9
 73
5
 74
0
 42
0.0000001
 43
0.0000001
 44
0.0000000001
 40
0.0
 40
0.0
 40
0.0
 40
0.0
 40
0.2771499231
 40
1.0
 40
1.0
 40
1.0
 40
1.0
 10
73.1154473206
 20
138.3393300308
 30
0.0
 10
73.1154473206
 20
139.084529827
 30
0.0
 10
73.2479537687
 20
141.763643137
 30
0.0
 10
73.987117555
 20
144.4706431889
 30
0.0
 10
75.0011940045
 20
146.1287197393
 30
0.0
  0
SPLINE
  5
5C3
100
AcDbEntity
  8
0
100
AcDbSpline
 62
7
  6
CONTINUOUS
 70
0
 71
3
 72
9
 73
5
 74
0
 42
0.0000001
 43
0.0000001
 44
0.0000000001
 40
0.0
 40
0.0
 40
0.0
 40
0.0
 40
0.5215940905
 40
1.0
 40
1.0
 40
1.0
 40
1.0
 10
75.0011940045
 20
128.3725168711
 30
0.0
 10
74.4039400842
 20
130.0386971064
 30
0.0
 10
73.4829370725
 20
133.3193552462
 30
0.0
 10
73.1154473206
 20
136.715894755
 30
0.0
 10
73.1154473206
 20
138.3393300308
 30
0.0
  0
SPLINE
  5
5C4
100
AcDbEntity
  8
0
100
AcDbSpline
 62
7
  6
CONTINUOUS
 70
0
 71
3
 72
11
 73
7
 74
0
 42
0.0000001
 43
0.0000001
 44
0.0000000001
 40
0.0
 40
0.0
 40
0.0
 40
0.0
 40
0.2866010606
 40
0.5447290874
 40
0.7792143716
 40
1.0
 40
1.0
 40
1.0
 40
1.0
 10
89.0254161364
 20
144.237123995
 30
0.0
 10
88.2690002227
 20
144.626549139
 30
0.0
 10
86.7682624418
 20
145.2559239644
 30
0.0
 10
84.4794614245
 20
145.7053936508
 30
0.0
 10
82.3391717859
 20
145.5815825388
 30
0.0
 10
81.0501476479
 20
145.0948909644
 30
0.0
 10
80.4825637681
 20
144.7671722064
 30
0.0
  0
SPLINE
  5
5C5
100
AcDbEntity
  8
0
100
AcDbSpline
 62
7
  6
CONTINUOUS
 70
0
 71
3
 72
11
 73
7
 74
0
 42
0.0000001
 43
0.0000001
 44
0.0000000001
 40
0.0
 40
0.0
 40
0.0
 40
0.0
 40
0.2606678077
 40
0.5202097975
 40
0.7693431802
 40
1.0
 40
1.0
 40
1.0
 40
1.0
 10
100.6913454434
 20
130.6674553043
 30
0.0
 10
100.1270551405
 20
131.992829643
 30
0.0
 10
98.8146430513
 20
134.562222632
 30
0.0
 10
96.3859603811
 20
138.0672523963
 30
0.0
 10
93.6061649356
 20
141.0797720618
 30
0.0
 10
91.5133154786
 20
142.7336537482
 30
0.0
 10
90.4396355867
 20
143.4206424859
 30
0.0
  0
SPLINE
  5
5C6
100
AcDbEntity
  8
0
100
AcDbSpline
 62
7
  6
CONTINUOUS
 70
0
 71
3
 72
11
 73
7
 74
0
 42
0.0000001
 43
0.0000001
 44
0.0000000001
 40
0.0
 40
0.0
 40
0.0
 40
0.0
 40
0.2309759051
 40
0.4800646604
 40
0.7394119308
 40
1.0
 40
1.0
 40
1.0
 40
1.0
 10
89.0254161364
 20
115.7063884312
 30
0.0
 10
88.0825355971
 20
116.3168546904
 30
0.0
 10
86.245028412
 20
117.7789300656
 30
0.0
 10
83.8011241541
 20
120.4321980861
 30
0.0
 10
81.6619110012
 20
123.5130173825
 30
0.0
 10
80.501431718
 20
125.769443832
 30
0.0
 10
80.000467357
 20
126.9334776385
 30
0.0
  0
SPLINE
  5
5C7
100
AcDbEntity
  8
0
100
AcDbSpline
 62
7
  6
CONTINUOUS
 70
0
 71
3
 72
9
 73
5
 74
0
 42
0.0000001
 43
0.0000001
 44
0.0000000001
 40
0.0
 40
0.0
 40
0.0
 40
0.0
 40
0.2760185613
 40
1.0
 40
1.0
 40
1.0
 40
1.0
 10
78.0652153966
 20
135.4816447492
 30
0.0
 10
78.0652153966
 20
135.9858351439
 30
0.0
 10
78.152286388
 20
137.8066525472
 30
0.0
 10
78.6332755147
 20
139.6432929959
 30
0.0
 10
79.2933576319
 20
140.7892430159
 30
0.0
  0
SPLINE
  5
5C8
100
AcDbEntity
  8
0
100
AcDbSpline
 62
7
  6
CONTINUOUS
 70
0
 71
3
 72
9
 73
5
 74
0
 42
0.0000001
 43
0.0000001
 44
0.0000000001
 40
0.0
 40
0.0
 40
0.0
 40
0.0
 40
0.5456190489
 40
1.0
 40
1.0
 40
1.0
 40
1.0
 10
236.5309285356
 20
268.4330274586
 30
0.0
 10
236.2190763477
 20
268.2512914335
 30
0.0
 10
235.6804878247
 20
267.8454275761
 30
0.0
 10
235.3439913625
 20
267.2400373002
 30
0.0
 10
235.2809060375
 20
266.9461456122
 30
0.0
  0
SPLINE
  5
5C9
100
AcDbEntity
  8
0
100
AcDbSpline
 62
7
  6
CONTINUOUS
 70
0
 71
3
 72
9
 73
5
 74
0
 42
0.0000001
 43
0.0000001
 44
0.0000000001
 40
0.0
 40
0.0
 40
0.0
 40
0.0
 40
0.5211151339
 40
1.0
 40
1.0
 40
1.0
 40
1.0
 10
79.2933576319
 20
128.755942064
 30
0.0
 10
78.9037866068
 20
129.8820930725
 30
0.0
 10
78.3033683072
 20
132.0978284161
 30
0.0
 10
78.0652153966
 20
134.3865825264
 30
0.0
 10
78.0652153966
 20
135.4816447492
 30
0.0
  0
SPLINE
  5
5CA
100
AcDbEntity
  8
0
100
AcDbSpline
 62
7
  6
CONTINUOUS
 70
0
 71
3
 72
11
 73
7
 74
0
 42
0.0000001
 43
0.0000001
 44
0.0000000001
 40
0.0
 40
0.0
 40
0.0
 40
0.0
 40
0.2845044769
 40
0.5420270319
 40
0.7772940553
 40
1.0
 40
1.0
 40
1.0
 40
1.0
 10
89.0254161364
 20
138.5081233831
 30
0.0
 10
88.5769212981
 20
138.7218519753
 30
0.0
 10
87.6878996269
 20
139.063527978
 30
0.0
 10
86.3386615564
 20
139.2911006481
 30
0.0
 10
85.0786888624
 20
139.1927550379
 30
0.0
 10
84.3193383498
 20
138.8994503753
 30
0.0
 10
83.9825952406
 20
138.7049037844
 30
0.0
  0
SPLINE
  5
5CB
100
AcDbEntity
  8
0
100
AcDbSpline
 62
7
  6
CONTINUOUS
 70
0
 71
3
 72
10
 73
6
 74
0
 42
0.0000001
 43
0.0000001
 44
0.0000000001
 40
0.0
 40
0.0
 40
0.0
 40
0.0
 40
0.5183274795
 40
0.767519058
 40
1.0
 40
1.0
 40
1.0
 40
1.0
 10
96.3946078079
 20
130.2836215087
 30
0.0
 10
95.7150325823
 20
131.7971221836
 30
0.0
 10
94.4192848718
 20
133.9259867293
 30
0.0
 10
92.2553306872
 20
136.2927998155
 30
0.0
 10
91.0555098689
 20
137.2740002573
 30
0.0
 10
90.4396355867
 20
137.6916418741
 30
0.0
  0
SPLINE
  5
5CC
100
AcDbEntity
  8
0
100
AcDbSpline
 62
7
  6
CONTINUOUS
 70
0
 71
3
 72
10
 73
6
 74
0
 42
0.0000001
 43
0.0000001
 44
0.0000000001
 40
0.0
 40
0.0
 40
0.0
 40
0.0
 40
0.2420490692
 40
0.4929291263
 40
1.0
 40
1.0
 40
1.0
 40
1.0
 10
83.2836851682
 20
108.7904606028
 30
0.0
 10
82.0411412909
 20
109.9590418215
 30
0.0
 10
79.6533121602
 20
112.4950832406
 30
0.0
 10
75.3987213513
 20
118.1222923533
 30
0.0
 10
72.8381351305
 20
122.8671651696
 30
0.0
 10
71.4799558559
 20
126.1723280065
 30
0.0
  0
SPLINE
  5
5CD
100
AcDbEntity
  8
0
100
AcDbSpline
 62
7
  6
CONTINUOUS
 70
0
 71
3
 72
11
 73
7
 74
0
 42
0.0000001
 43
0.0000001
 44
0.0000000001
 40
0.0
 40
0.0
 40
0.0
 40
0.0
 40
0.2211561615
 40
0.45580613
 40
0.7137990209
 40
1.0
 40
1.0
 40
1.0
 40
1.0
 10
97.9824911697
 20
114.4562279513
 30
0.0
 10
97.4808722785
 20
114.166588699
 30
0.0
 10
96.3432616531
 20
113.7350692167
 30
0.0
 10
94.4545741641
 20
113.6182543714
 30
0.0
 10
92.4341713767
 20
114.0038982066
 30
0.0
 10
91.1081497656
 20
114.5508189701
 30
0.0
 10
90.4396355867
 20
114.8899069221
 30
0.0
  0
SPLINE
  5
5CE
100
AcDbEntity
  8
0
100
AcDbSpline
 62
7
  6
CONTINUOUS
 70
0
 71
3
 72
9
 73
5
 74
0
 42
0.0000001
 43
0.0000001
 44
0.0000000001
 40
0.0
 40
0.0
 40
0.0
 40
0.0
 40
0.2599146235
 40
1.0
 40
1.0
 40
1.0
 40
1.0
 10
69.2263438323
 20
148.0305115898
 30
0.0
 10
69.3249774434
 20
148.3357566529
 30
0.0
 10
69.7368545707
 20
149.4991604502
 30
0.0
 10
70.2852113603
 20
150.6164564997
 30
0.0
 10
70.7728461308
 20
151.3888092908
 30
0.0
  0
SPLINE
  5
5CF
100
AcDbEntity
  8
0
100
AcDbSpline
 62
7
  6
CONTINUOUS
 70
0
 71
3
 72
9
 73
5
 74
0
 42
0.0000001
 43
0.0000001
 44
0.0000000001
 40
0.0
 40
0.0
 40
0.0
 40
0.0
 40
0.2543863936
 40
1.0
 40
1.0
 40
1.0
 40
1.0
 10
70.7728461308
 20
127.9947924319
 30
0.0
 10
70.6165654675
 20
128.4227748374
 30
0.0
 10
70.0260961471
 20
130.1137597141
 30
0.0
 10
69.5322533242
 20
131.8388615548
 30
0.0
 10
69.2263438323
 20
133.1387967715
 30
0.0
  0
SPLINE
  5
5D0
100
AcDbEntity
  8
0
100
AcDbSpline
 62
7
  6
CONTINUOUS
 70
0
 71
3
 72
9
 73
5
 74
0
 42
0.0000001
 43
0.0000001
 44
0.0000000001
 40
0.0
 40
0.0
 40
0.0
 40
0.0
 40
0.2482487117
 40
1.0
 40
1.0
 40
1.0
 40
1.0
 10
104.98252115
 20
131.0507922448
 30
0.0
 10
104.7188803562
 20
131.6855368165
 30
0.0
 10
103.5940716493
 20
134.2159092977
 30
0.0
 10
102.2280207803
 20
136.6388490682
 30
0.0
 10
101.0800875568
 20
138.3750152046
 30
0.0
  0
SPLINE
  5
5D1
100
AcDbEntity
  8
0
100
AcDbSpline
 62
7
  6
CONTINUOUS
 70
0
 71
3
 72
9
 73
5
 74
0
 42
0.0000001
 43
0.0000001
 44
0.0000000001
 40
0.0
 40
0.0
 40
0.0
 40
0.0
 40
0.2542769123
 40
1.0
 40
1.0
 40
1.0
 40
1.0
 10
71.4799558559
 20
152.3947922073
 30
0.0
 10
71.6161063598
 20
152.5689083203
 30
0.0
 10
72.1707588055
 20
153.238339608
 30
0.0
 10
72.8039034581
 20
153.8433508069
 30
0.0
 10
73.3126503651
 20
154.2450436377
 30
0.0
  0
SPLINE
  5
5D2
100
AcDbEntity
  8
0
100
AcDbSpline
 62
7
  6
CONTINUOUS
 70
0
 71
3
 72
9
 73
5
 74
0
 42
0.0000001
 43
0.0000001
 44
0.0000000001
 40
0.0
 40
0.0
 40
0.0
 40
0.0
 40
0.2485849466
 40
1.0
 40
1.0
 40
1.0
 40
1.0
 10
190.3741299012
 20
217.3413435009
 30
0.0
 10
188.2424618272
 20
215.9562159916
 30
0.0
 10
179.6859803075
 20
210.3553907222
 30
0.0
 10
171.2043065738
 20
204.6403352991
 30
0.0
 10
164.8735619444
 20
200.2847395468
 30
0.0
  0
SPLINE
  5
5D3
100
AcDbEntity
  8
0
100
AcDbSpline
 62
7
  6
CONTINUOUS
 70
0
 71
3
 72
11
 73
7
 74
0
 42
0.0000001
 43
0.0000001
 44
0.0000000001
 40
0.0
 40
0.0
 40
0.0
 40
0.0
 40
0.2388691039
 40
0.4999994542
 40
0.7611300947
 40
1.0
 40
1.0
 40
1.0
 40
1.0
 10
127.3600694158
 20
177.1627345693
 30
0.0
 10
127.8475727921
 20
177.4161609756
 30
0.0
 10
128.9525411481
 20
177.7867828368
 30
0.0
 10
130.7057172642
 20
177.9655173796
 30
0.0
 10
132.4588960667
 20
177.7867910005
 30
0.0
 10
133.5638687309
 20
177.4161745688
 30
0.0
 10
134.0513754795
 20
177.1627506532
 30
0.0
  0
SPLINE
  5
5D4
100
AcDbEntity
  8
0
100
AcDbSpline
 62
7
  6
CONTINUOUS
 70
0
 71
3
 72
9
 73
5
 74
0
 42
0.0000001
 43
0.0000001
 44
0.0000000001
 40
0.0
 40
0.0
 40
0.0
 40
0.0
 40
0.476865391
 40
1.0
 40
1.0
 40
1.0
 40
1.0
 10
85.7503548336
 20
139.7255141691
 30
0.0
 10
86.2042450923
 20
139.9877401807
 30
0.0
 10
87.2824032
 20
140.3357132053
 30
0.0
 10
88.4014051631
 20
140.2636507675
 30
0.0
 10
88.9654486153
 20
140.1516547601
 30
0.0
  0
SPLINE
  5
5D5
100
AcDbEntity
  8
0
100
AcDbSpline
 62
7
  6
CONTINUOUS
 70
0
 71
3
 72
11
 73
7
 74
0
 42
0.0000001
 43
0.0000001
 44
0.0000000001
 40
0.0
 40
0.0
 40
0.0
 40
0.0
 40
0.2388691039
 40
0.4999994542
 40
0.7611300947
 40
1.0
 40
1.0
 40
1.0
 40
1.0
 10
127.3600694158
 20
172.42702055
 30
0.0
 10
127.8475727921
 20
172.6804469562
 30
0.0
 10
128.9525411481
 20
173.0510688175
 30
0.0
 10
130.7057172642
 20
173.2298033603
 30
0.0
 10
132.4588960667
 20
173.0510769811
 30
0.0
 10
133.5638687309
 20
172.6804605495
 30
0.0
 10
134.0513754795
 20
172.4270366338
 30
0.0
  0
SPLINE
  5
5D6
100
AcDbEntity
  8
0
100
AcDbSpline
 62
7
  6
CONTINUOUS
 70
0
 71
3
 72
11
 73
7
 74
0
 42
0.0000001
 43
0.0000001
 44
0.0000000001
 40
0.0
 40
0.0
 40
0.0
 40
0.0
 40
0.2388691039
 40
0.4999994542
 40
0.7611300947
 40
1.0
 40
1.0
 40
1.0
 40
1.0
 10
127.3600694158
 20
167.6913065306
 30
0.0
 10
127.8475727921
 20
167.9447329369
 30
0.0
 10
128.9525411481
 20
168.3153547981
 30
0.0
 10
130.7057172642
 20
168.4940893409
 30
0.0
 10
132.4588960667
 20
168.3153629618
 30
0.0
 10
133.5638687309
 20
167.9447465301
 30
0.0
 10
134.0513754795
 20
167.6913226145
 30
0.0
  0
SPLINE
  5
5D7
100
AcDbEntity
  8
0
100
AcDbSpline
 62
7
  6
CONTINUOUS
 70
0
 71
3
 72
15
 73
11
 74
0
 42
0.0000001
 43
0.0000001
 44
0.0000000001
 40
0.0
 40
0.0
 40
0.0
 40
0.0
 40
0.1288244605
 40
0.2705976782
 40
0.4178986235
 40
0.5623949216
 40
0.69620836
 40
0.8136001012
 40
0.9130679301
 40
1.0
 40
1.0
 40
1.0
 40
1.0
 10
129.3306321982
 20
91.5952839399
 30
0.0
 10
129.5156830309
 20
91.7021224502
 30
0.0
 10
129.934736139
 20
91.8749795547
 30
0.0
 10
130.6176149047
 20
92.0116735849
 30
0.0
 10
131.3399578617
 20
92.0315725204
 30
0.0
 10
132.0424772115
 20
91.9329290941
 30
0.0
 10
132.6691893018
 20
91.7235220295
 30
0.0
 10
133.1711777768
 20
91.417635236
 30
0.0
 10
133.5113027541
 20
91.0308956395
 30
0.0
 10
133.5982917101
 20
90.7188739677
 30
0.0
 10
133.5982972778
 20
90.5746818728
 30
0.0
  0
SPLINE
  5
5D8
100
AcDbEntity
  8
0
100
AcDbSpline
 62
7
  6
CONTINUOUS
 70
0
 71
3
 72
11
 73
7
 74
0
 42
0.0000001
 43
0.0000001
 44
0.0000000001
 40
0.0
 40
0.0
 40
0.0
 40
0.0
 40
0.2388698261
 40
0.500000442
 40
0.7611308168
 40
1.0
 40
1.0
 40
1.0
 40
1.0
 10
134.0513754796
 20
93.7978538642
 30
0.0
 10
133.5638688928
 20
94.0512776958
 30
0.0
 10
132.4588964857
 20
94.4218941047
 30
0.0
 10
130.7057178764
 20
94.6006205907
 30
0.0
 10
128.9525415671
 20
94.4218861548
 30
0.0
 10
127.8475729539
 20
94.0512642708
 30
0.0
 10
127.3600694158
 20
93.7978377805
 30
0.0
  0
SPLINE
  5
5D9
100
AcDbEntity
  8
0
100
AcDbSpline
 62
7
  6
CONTINUOUS
 70
0
 71
3
 72
11
 73
7
 74
0
 42
0.0000001
 43
0.0000001
 44
0.0000000001
 40
0.0
 40
0.0
 40
0.0
 40
0.0
 40
0.2388691039
 40
0.4999994542
 40
0.7611300947
 40
1.0
 40
1.0
 40
1.0
 40
1.0
 10
127.3600694158
 20
181.8984485887
 30
0.0
 10
127.8475727921
 20
182.1518749949
 30
0.0
 10
128.9525411481
 20
182.5224968562
 30
0.0
 10
130.7057172642
 20
182.701231399
 30
0.0
 10
132.4588960667
 20
182.5225050198
 30
0.0
 10
133.5638687309
 20
182.1518885882
 30
0.0
 10
134.0513754795
 20
181.8984646726
 30
0.0
  0
SPLINE
  5
5DA
100
AcDbEntity
  8
0
100
AcDbSpline
 62
7
  6
CONTINUOUS
 70
0
 71
3
 72
11
 73
7
 74
0
 42
0.0000001
 43
0.0000001
 44
0.0000000001
 40
0.0
 40
0.0
 40
0.0
 40
0.0
 40
0.2352045087
 40
0.492826148
 40
0.7541943796
 40
1.0
 40
1.0
 40
1.0
 40
1.0
 10
134.0513754793
 20
186.5505345194
 30
0.0
 10
133.5647347305
 20
186.7999263613
 30
0.0
 10
132.4492201698
 20
187.1397173041
 30
0.0
 10
130.6819047776
 20
187.2069340636
 30
0.0
 10
128.9216545344
 20
186.8655302111
 30
0.0
 10
127.8358974508
 20
186.3639784686
 30
0.0
 10
127.3600694158
 20
186.0474898887
 30
0.0
  0
SPLINE
  5
5DB
100
AcDbEntity
  8
0
100
AcDbSpline
 62
7
  6
CONTINUOUS
 70
0
 71
3
 72
9
 73
5
 74
0
 42
0.0000001
 43
0.0000001
 44
0.0000000001
 40
0.0
 40
0.0
 40
0.0
 40
0.0
 40
0.247697019
 40
1.0
 40
1.0
 40
1.0
 40
1.0
 10
82.4791196148
 20
143.5179984178
 30
0.0
 10
82.415612478
 20
143.4652506557
 30
0.0
 10
82.1638826376
 20
143.2467333191
 30
0.0
 10
81.9312242537
 20
143.0063657634
 30
0.0
 10
81.7682269501
 20
142.8158363171
 30
0.0
  0
SPLINE
  5
5DC
100
AcDbEntity
  8
0
100
AcDbSpline
 62
7
  6
CONTINUOUS
 70
0
 71
3
 72
10
 73
6
 74
0
 42
0.0000001
 43
0.0000001
 44
0.0000000001
 40
0.0
 40
0.0
 40
0.0
 40
0.0
 40
0.2352266517
 40
0.4770195814
 40
1.0
 40
1.0
 40
1.0
 40
1.0
 10
104.9324441136
 20
102.4184846599
 30
0.0
 10
104.3217466626
 20
102.065947445
 30
0.0
 10
103.0035666936
 20
101.4800686348
 30
0.0
 10
100.0587480087
 20
100.839687559
 30
0.0
 10
97.7143519482
 20
101.015784375
 30
0.0
 10
96.1813665549
 20
101.3441492403
 30
0.0
  0
SPLINE
  5
5DD
100
AcDbEntity
  8
0
100
AcDbSpline
 62
7
  6
CONTINUOUS
 70
0
 71
3
 72
9
 73
5
 74
0
 42
0.0000001
 43
0.0000001
 44
0.0000000001
 40
0.0
 40
0.0
 40
0.0
 40
0.0
 40
0.2514784795
 40
1.0
 40
1.0
 40
1.0
 40
1.0
 10
104.9256403581
 20
135.9143629697
 30
0.0
 10
105.0941575818
 20
135.5999932988
 30
0.0
 10
105.7490156648
 20
134.3418044951
 30
0.0
 10
106.3430445449
 20
133.0518691289
 30
0.0
 10
106.750280743
 20
132.0714026295
 30
0.0
  0
SPLINE
  5
5DE
100
AcDbEntity
  8
0
100
AcDbSpline
 62
7
  6
CONTINUOUS
 70
0
 71
3
 72
11
 73
7
 74
0
 42
0.0000001
 43
0.0000001
 44
0.0000000001
 40
0.0
 40
0.0
 40
0.0
 40
0.0
 40
0.2177648073
 40
0.4508950352
 40
0.7103684932
 40
1.0
 40
1.0
 40
1.0
 40
1.0
 10
110.542430236
 20
149.7709588942
 30
0.0
 10
110.542356109
 20
149.5843431848
 30
0.0
 10
110.473684896
 20
149.1953283599
 30
0.0
 10
110.1786200157
 20
148.6532821311
 30
0.0
 10
109.7123527759
 20
148.1634275458
 30
0.0
 10
109.3223206877
 20
147.8946796153
 30
0.0
 10
109.1073706022
 20
147.7705788663
 30
0.0
  0
SPLINE
  5
5DF
100
AcDbEntity
  8
0
100
AcDbSpline
 62
7
  6
CONTINUOUS
 70
0
 71
3
 72
9
 73
5
 74
0
 42
0.0000001
 43
0.0000001
 44
0.0000000001
 40
0.0
 40
0.0
 40
0.0
 40
0.0
 40
0.4754087072
 40
1.0
 40
1.0
 40
1.0
 40
1.0
 10
40.2348068297
 20
143.0336190094
 30
0.0
 10
40.5368579076
 20
143.2080072396
 30
0.0
 10
41.2492567381
 20
143.4404451732
 30
0.0
 10
41.9905239105
 20
143.4735728964
 30
0.0
 10
42.3739471464
 20
143.4403459002
 30
0.0
  0
SPLINE
  5
5E0
100
AcDbEntity
  8
0
100
AcDbSpline
 62
7
  6
CONTINUOUS
 70
0
 71
3
 72
16
 73
12
 74
0
 42
0.0000001
 43
0.0000001
 44
0.0000000001
 40
0.0
 40
0.0
 40
0.0
 40
0.0
 40
0.0428757442
 40
0.087521923
 40
0.1869262484
 40
0.3042380343
 40
0.4379641723
 40
0.5823700573
 40
0.7295935095
 40
0.87125452
 40
1.0
 40
1.0
 40
1.0
 40
1.0
 10
100.7426205985
 20
153.9351207339
 30
0.0
 10
100.7425645647
 20
153.7956391106
 30
0.0
 10
100.7799113518
 20
153.5097005659
 30
0.0
 10
101.0062830987
 20
152.9396057009
 30
0.0
 10
101.5796032924
 20
152.2812341175
 30
0.0
 10
102.5637290805
 20
151.6839408357
 30
0.0
 10
103.7920302004
 20
151.2727934844
 30
0.0
 10
105.1690717753
 20
151.079587827
 30
0.0
 10
106.5848756665
 20
151.1186535724
 30
0.0
 10
107.923367493
 20
151.3864787363
 30
0.0
 10
108.7446530037
 20
151.7253273406
 30
0.0
 10
109.1073706022
 20
151.9347411937
 30
0.0
  0
SPLINE
  5
5E1
100
AcDbEntity
  8
0
100
AcDbSpline
 62
7
  6
CONTINUOUS
 70
0
 71
3
 72
9
 73
5
 74
0
 42
0.0000001
 43
0.0000001
 44
0.0000000001
 40
0.0
 40
0.0
 40
0.0
 40
0.0
 40
0.248185911
 40
1.0
 40
1.0
 40
1.0
 40
1.0
 10
77.097886238
 20
265.5143284134
 30
0.0
 10
74.3582404333
 20
263.7509266509
 30
0.0
 10
63.3504013854
 20
256.5979363123
 30
0.0
 10
52.4657174614
 20
249.2555708648
 30
0.0
 10
44.3526568811
 20
243.6353652549
 30
0.0
  0
SPLINE
  5
5E2
100
AcDbEntity
  8
0
100
AcDbSpline
 62
7
  6
CONTINUOUS
 70
0
 71
3
 72
11
 73
7
 74
0
 42
0.0000001
 43
0.0000001
 44
0.0000000001
 40
0.0
 40
0.0
 40
0.0
 40
0.0
 40
0.2177648073
 40
0.4508950352
 40
0.7103684932
 40
1.0
 40
1.0
 40
1.0
 40
1.0
 10
53.9736522242
 20
182.4302192558
 30
0.0
 10
53.9735780973
 20
182.2436035465
 30
0.0
 10
53.9049068842
 20
181.8545887215
 30
0.0
 10
53.6098420039
 20
181.3125424928
 30
0.0
 10
53.1435747641
 20
180.8226879074
 30
0.0
 10
52.753542676
 20
180.5539399769
 30
0.0
 10
52.5385925904
 20
180.4298392279
 30
0.0
  0
ELLIPSE
  5
5E3
100
AcDbEntity
  8
0
100
AcDbEllipse
 62
7
  6
CONTINUOUS
 10
117.5420324022
 20
-603.0172737321
 30
0.0
 11
595.3939976285
 21
925.8836761443
 31
0.0
 40
0.606730174
 41
0.7594269634
 42
0.7665311373
  0
ELLIPSE
  5
5E4
100
AcDbEntity
  8
0
100
AcDbEllipse
 62
7
  6
CONTINUOUS
 10
115.7261879324
 20
-601.9689191556
 30
0.0
 11
508.735405577
 21
976.0985390755
 31
0.0
 40
0.546380517
 41
0.8543918991
 42
0.8615195826
  0
ELLIPSE
  5
5E5
100
AcDbEntity
  8
0
100
AcDbEllipse
 62
7
  6
CONTINUOUS
 10
234.8139027887
 20
-648.4738898744
 30
0.0
 11
595.3939976285
 21
925.8836761443
 31
0.0
 40
0.606730174
 41
0.9461035652
 42
0.9532636977
  0
ELLIPSE
  5
5E6
100
AcDbEntity
  8
0
100
AcDbEllipse
 62
7
  6
CONTINUOUS
 10
201.2223457176
 20
-651.3290321926
 30
0.0
 11
508.735405577
 21
976.0985390755
 31
0.0
 40
0.546380517
 41
0.7067812193
 42
0.7138853932
  0
ENDSEC
  0
SECTION
  2
OBJECTS
  0
DICTIONARY
  5
C
100
AcDbDictionary
280
0
281
1
  3
ACAD_GROUP
350
D
  3
ACAD_MLINESTYLE
350
17
  3
ACAD_LAYOUT
350
1A
  3
ACAD_PLOTSETTINGS
350
19
  3
ACAD_PLOTSTYLENAME
350
E
  0
DICTIONARY
  5
D
102
{ACAD_REACTORS
330
C
102
}
100
AcDbDictionary
280
0
281
1
  0
ACDBDICTIONARYWDFLT
  5
E
102
{ACAD_REACTORS
330
C
102
}
100
AcDbDictionary
281
1
  3
Normal
350
F
100
AcDbDictionaryWithDefault
340
F
  0
DICTIONARY
  5
17
102
{ACAD_REACTORS
330
C
102
}
100
AcDbDictionary
280
0
281
1
  3
Standard
350
18
  0
DICTIONARY
  5
19
102
{ACAD_REACTORS
330
C
102
}
100
AcDbDictionary
281
1
  0
DICTIONARY
  5
1A
102
{ACAD_REACTORS
330
C
102
}
100
AcDbDictionary
281
1
  3
Model
350
5E7
  3
Layout1
350
5E8
  0
ACDBPLACEHOLDER
  5
F
102
{ACAD_REACTORS
330
E
102
}
  0
MLINESTYLE
  5
18
102
{ACAD_REACTORS
330
17
102
}
100
AcDbMlineStyle
  2
STANDARD
 70
0
  3

 62
256
 51
90.0
 52
90.0
 71
2
 49
0.5
 62
256
  6
BYLAYER
 49
-0.5
 62
256
  6
BYLAYER
  0
LAYOUT
  5
5E7
102
{ACAD_REACTORS
330
1A
102
}
100
AcDbPlotSettings
  1

  2
none_device
  4

  6

 40
0.0
 41
0.0
 42
0.0
 43
0.0
 44
210.0
 45
297.0
 46
0.0
 47
0.0
 48
0.0
 49
0.0
140
0.0
141
0.0
142
1.0
143
1.0
 70
1024
 72
1
 73
0
 74
0
  7

 75
0
147
1.0
148
0.0
149
0.0
100
AcDbLayout
  1
Model
 70
0
 71
0
 10
0.0
 20
0.0
 11
210.0
 21
297.0
 12
0.0
 22
0.0
 32
0.0
 14
0.0
 24
0.0
 34
0.0
 15
0.0
 25
0.0
 35
0.0
146
0.0
 13
0.0
 23
0.0
 33
0.0
 16
1.0
 26
0.0
 36
0.0
 17
0.0
 27
1.0
 37
0.0
 76
0
330
210
345
0
346
0
  0
LAYOUT
  5
5E8
102
{ACAD_REACTORS
330
1A
102
}
100
AcDbPlotSettings
  1

  2
none_device
  4

  6

 40
0.0
 41
0.0
 42
0.0
 43
0.0
 44
210.0
 45
297.0
 46
0.0
 47
0.0
 48
0.0
 49
0.0
140
0.0
141
0.0
142
1.0
143
1.0
 70
0
 72
1
 73
0
 74
0
  7

 75
0
147
1.0
148
0.0
149
0.0
100
AcDbLayout
  1
Layout1
 70
0
 71
1
 10
0.0
 20
0.0
 11
210.0
 21
297.0
 12
0.0
 22
0.0
 32
0.0
 14
0.0
 24
0.0
 34
0.0
 15
0.0
 25
0.0
 35
0.0
146
0.0
 13
0.0
 23
0.0
 33
0.0
 16
1.0
 26
0.0
 36
0.0
 17
0.0
 27
1.0
 37
0.0
 76
0
330
211
345
0
346
0
  0
ENDSEC
  0
EOF
