999
DXF file: C:\Users\sesa63760\Dev\_Creo\CAD\MCADID0004645_3D-CAD\drw0001_1.dxf
999
Pro/ENGINEER 2019471 by Parametric Technology Corporation
  0
SECTION
  2
HEADER
  9
$ACADVER
  1
AC1024
  9
$DWGCODEPAGE
  3
ANSI_1252
  9
$EXTMAX
 10
58.2104393942
 20
82.3261928575
 30
0.0
  9
$EXTMIN
 10
0.0
 20
0.0
 30
0.0
  9
$LIMMIN
 10
0.0
 20
0.0
  9
$LIMMAX
 10
58.2104393942
 20
82.3261928575
  9
$VIEWCTR
 10
29.1052196971
 20
41.1630964287
  9
$VIEWSIZE
 40
82.3261928575
  9
$CLAYER
  8
0
  9
$LTSCALE
 40
5.366448127
  9
$CELTYPE
  6
BYLAYER
  9
$DIMSCALE
 40
1.0
  9
$DIMASZ
 40
0.6929814214
  9
$DIMEXO
 40
1.0
  9
$DIMDLI
 40
3.7077277968
  9
$DIMEXE
 40
1.0
  9
$DIMCEN
 40
0.8781460571
  9
$DIMLFAC
 40
1.0
  9
$DIMBLK
  1
_FILLED
  9
$DIMALT
 70
0
  9
$DIMALTF
 40
0.0393700787
  9
$DIMTXT
 40
0.9701739899
  9
$DIMTOL
 70
1
  9
$DIMLIM
 70
0
  9
$DIMTFAC
 40
1.0
  9
$DIMTP
 40
0.01
  9
$DIMTM
 40
0.01
  9
$DIMGAP
 40
0.625
  9
$DIMDSEP
 70
46
  9
$AUNITS
 70
0
  9
$PDMODE
 70
3
  9
$PDSIZE
 40
0.3125
  9
$HANDSEED
  5
295
  9
$TILEMODE
 70
1
  9
$MEASUREMENT
 70
1
  9
$INSUNITS
 70
4
  0
ENDSEC
  0
SECTION
  2
CLASSES
  0
CLASS
  1
ACDBDICTIONARYWDFLT
  2
AcDbDictionaryWithDefault
  3
AutoCAD 2000
 90
0
 91
1
280
0
281
0
  0
CLASS
  1
ACDBPLACEHOLDER
  2
AcDbPlaceHolder
  3
AutoCAD 2000
 90
0
 91
1
280
0
281
0
  0
CLASS
  1
LAYOUT
  2
AcDbLayout
  3
AutoCAD 2000
 90
0
 91
0
280
0
281
0
  0
ENDSEC
  0
SECTION
  2
TABLES
  0
TABLE
  2
VPORT
  5
8
100
AcDbSymbolTable
 70
2
  0
VPORT
  5
1F4
100
AcDbSymbolTableRecord
100
AcDbViewportTableRecord
  2
*ACTIVE
 70
0
 10
0.0
 20
0.0
 11
1.0
 21
1.0
 12
29.1052196971
 22
41.1630964287
 13
0.0
 23
0.0
 14
1.0
 24
1.0
 15
0.0
 25
0.0
 16
0.0
 26
0.0
 36
1.0
 17
0.0
 27
0.0
 37
0.0
 40
82.3261928575
 41
0.7070707071
 42
50.0
 43
0.0
 44
0.0
 50
0.0
 51
0.0
 71
0
 72
100
 73
1
 74
1
 75
0
 76
0
 77
0
 78
0
  0
ENDTAB
  0
TABLE
  2
LTYPE
  5
5
100
AcDbSymbolTable
 70
6
  0
LTYPE
  5
14
100
AcDbSymbolTableRecord
100
AcDbLinetypeTableRecord
  2
BYBLOCK
 70
0
  3

 72
65
 73
0
 40
0.0
  0
LTYPE
  5
15
100
AcDbSymbolTableRecord
100
AcDbLinetypeTableRecord
  2
BYLAYER
 70
0
  3

 72
65
 73
0
 40
0.0
  0
LTYPE
  5
16
100
AcDbSymbolTableRecord
100
AcDbLinetypeTableRecord
  2
CONTINUOUS
 70
64
  3
Solid line
 72
65
 73
0
 40
0.0
  0
LTYPE
  5
1F5
100
AcDbSymbolTableRecord
100
AcDbLinetypeTableRecord
  2
CENTER
 70
64
  3
____ _ ____ _ ____ _ ____ _ ____ _ ____ _ ____
 72
65
 73
4
 40
0.6
 49
0.375
 74
0
 49
-0.075
 74
0
 49
0.075
 74
0
 49
-0.075
 74
0
  0
LTYPE
  5
1F6
100
AcDbSymbolTableRecord
100
AcDbLinetypeTableRecord
  2
HIDDEN
 70
64
  3
- - - - - - - - - - - - - - - - - - - -
 72
65
 73
2
 40
0.2
 49
0.1
 74
0
 49
-0.1
 74
0
  0
LTYPE
  5
1F7
100
AcDbSymbolTableRecord
100
AcDbLinetypeTableRecord
  2
PHANTOM
 70
64
  3
_____ _ _ _____ _ _ _____ _ _ _____
 72
65
 73
6
 40
0.8
 49
0.45
 74
0
 49
-0.05
 74
0
 49
0.1
 74
0
 49
-0.05
 74
0
 49
0.1
 74
0
 49
-0.05
 74
0
  0
LTYPE
  5
1F8
100
AcDbSymbolTableRecord
100
AcDbLinetypeTableRecord
  2
DOT
 70
64
  3
. . . . . . . . . . . . . . . . . . . .
 72
65
 73
2
 40
0.2
 49
0.1
 74
0
 49
-0.1
 74
0
  0
LTYPE
  5
1F9
100
AcDbSymbolTableRecord
100
AcDbLinetypeTableRecord
  2
DASHED
 70
64
  3
- - - - - - - - - - - - - - - - - - - -
 72
65
 73
2
 40
0.2
 49
0.1
 74
0
 49
-0.1
 74
0
  0
ENDTAB
  0
TABLE
  2
LAYER
  5
2
100
AcDbSymbolTable
 70
36
  0
LAYER
  5
10
100
AcDbSymbolTableRecord
100
AcDbLayerTableRecord
  2
0
 70
0
 62
7
  6
CONTINUOUS
370
-3
390
F
  0
LAYER
  5
1FA
100
AcDbSymbolTableRecord
100
AcDbLayerTableRecord
  2
DEFAULT_1
 70
0
 62
7
  6
CENTER
370
-3
390
F
  0
LAYER
  5
1FB
100
AcDbSymbolTableRecord
100
AcDbLayerTableRecord
  2
DEFAULT_2
 70
0
 62
7
  6
HIDDEN
370
-3
390
F
  0
LAYER
  5
1FC
100
AcDbSymbolTableRecord
100
AcDbLayerTableRecord
  2
DEFAULT_3
 70
0
 62
7
  6
PHANTOM
370
-3
390
F
  0
LAYER
  5
1FD
100
AcDbSymbolTableRecord
100
AcDbLayerTableRecord
  2
00_COMPONENTS
 70
0
 62
7
  6
CONTINUOUS
370
-3
390
F
  0
LAYER
  5
1FE
100
AcDbSymbolTableRecord
100
AcDbLayerTableRecord
  2
01_1_DEFAULT_DATUMS
 70
0
 62
7
  6
CONTINUOUS
370
-3
390
F
  0
LAYER
  5
1FF
100
AcDbSymbolTableRecord
100
AcDbLayerTableRecord
  2
01_PLANES
 70
0
 62
7
  6
CONTINUOUS
370
-3
390
F
  0
LAYER
  5
200
100
AcDbSymbolTableRecord
100
AcDbLayerTableRecord
  2
02_COORD_SYS
 70
0
 62
7
  6
CONTINUOUS
370
-3
390
F
  0
LAYER
  5
201
100
AcDbSymbolTableRecord
100
AcDbLayerTableRecord
  2
03_AXES
 70
0
 62
7
  6
CONTINUOUS
370
-3
390
F
  0
LAYER
  5
202
100
AcDbSymbolTableRecord
100
AcDbLayerTableRecord
  2
04_POINTS
 70
0
 62
7
  6
CONTINUOUS
370
-3
390
F
  0
LAYER
  5
203
100
AcDbSymbolTableRecord
100
AcDbLayerTableRecord
  2
05_CURVES
 70
0
 62
7
  6
CONTINUOUS
370
-3
390
F
  0
LAYER
  5
204
100
AcDbSymbolTableRecord
100
AcDbLayerTableRecord
  2
06_SURFS
 70
0
 62
7
  6
CONTINUOUS
370
-3
390
F
  0
LAYER
  5
205
100
AcDbSymbolTableRecord
100
AcDbLayerTableRecord
  2
07_COSMETICS
 70
0
 62
7
  6
CONTINUOUS
370
-3
390
F
  0
LAYER
  5
206
100
AcDbSymbolTableRecord
100
AcDbLayerTableRecord
  2
10_NOTES
 70
0
 62
7
  6
CONTINUOUS
370
-3
390
F
  0
LAYER
  5
207
100
AcDbSymbolTableRecord
100
AcDbLayerTableRecord
  2
11_NOTES_PUB
 70
0
 62
7
  6
CONTINUOUS
370
-3
390
F
  0
LAYER
  5
208
100
AcDbSymbolTableRecord
100
AcDbLayerTableRecord
  2
13_REF_GTOL
 70
0
 62
7
  6
CONTINUOUS
370
-3
390
F
  0
LAYER
  5
209
100
AcDbSymbolTableRecord
100
AcDbLayerTableRecord
  2
16_MISC
 70
0
 62
7
  6
CONTINUOUS
370
-3
390
F
  0
LAYER
  5
20A
100
AcDbSymbolTableRecord
100
AcDbLayerTableRecord
  2
17_NO_PRINT
 70
0
 62
7
  6
CONTINUOUS
370
-3
390
F
  0
LAYER
  5
20B
100
AcDbSymbolTableRecord
100
AcDbLayerTableRecord
  2
18_DATUM_CAMS_JOINTS
 70
0
 62
7
  6
CONTINUOUS
370
-3
390
F
  0
LAYER
  5
20C
100
AcDbSymbolTableRecord
100
AcDbLayerTableRecord
  2
19_DATUM_FUNCTIONAL
 70
0
 62
7
  6
CONTINUOUS
370
-3
390
F
  0
LAYER
  5
20D
100
AcDbSymbolTableRecord
100
AcDbLayerTableRecord
  2
20_DATUM_KINEMATIC_SCHEME
 70
0
 62
7
  6
CONTINUOUS
370
-3
390
F
  0
ENDTAB
  0
TABLE
  2
STYLE
  5
3
100
AcDbSymbolTable
 70
1
  0
STYLE
  5
11
100
AcDbSymbolTableRecord
100
AcDbTextStyleTableRecord
  2
STANDARD
 70
0
 40
0.0
 41
1.0
 50
0.0
 71
0
 42
0.2
  3
ARIAL.TTF
  4

  0
STYLE
  5
20E
100
AcDbSymbolTableRecord
100
AcDbTextStyleTableRecord
  2
TEXTSTYLE_1
 70
0
 40
0.0
 41
0.8
 50
0.0
 71
0
 42
0.2
  3
gdt
  4

  0
ENDTAB
  0
TABLE
  2
VIEW
  5
6
100
AcDbSymbolTable
 70
0
  0
ENDTAB
  0
TABLE
  2
UCS
  5
7
100
AcDbSymbolTable
 70
0
  0
ENDTAB
  0
TABLE
  2
APPID
  5
9
100
AcDbSymbolTable
 70
1
  0
APPID
  5
20F
100
AcDbSymbolTableRecord
100
AcDbRegAppTableRecord
  2
ACAD
 70
0
  0
ENDTAB
  0
TABLE
  2
BLOCK_RECORD
  5
1
100
AcDbSymbolTable
 70
0
  0
BLOCK_RECORD
  5
210
100
AcDbSymbolTableRecord
100
AcDbBlockTableRecord
  2
*Model_Space
  0
BLOCK_RECORD
  5
211
100
AcDbSymbolTableRecord
100
AcDbBlockTableRecord
  2
*Paper_Space
  0
BLOCK_RECORD
  5
212
100
AcDbSymbolTableRecord
100
AcDbBlockTableRecord
  2
_FILLED
  0
ENDTAB
  0
TABLE
  2
DIMSTYLE
  5
A
100
AcDbSymbolTable
 70
1
100
AcDbDimStyleTable
 71
0
  0
DIMSTYLE
105
213
100
AcDbSymbolTableRecord
100
AcDbDimStyleTableRecord
  2
STANDARD
 70
0
  3

  4

 40
1.0
 41
0.6929814214
 42
1.0
 43
0.38
 44
1.0
 45
0.0
 46
0.0
 47
0.01
 48
0.01
140
0.9701739899
141
0.09
142
0.0
143
25.4
144
1.0
145
0.0
146
1.0
147
0.625
 71
1
 72
0
 73
0
 74
0
 75
0
 76
0
 77
1
 78
8
 79
2
170
0
171
1
172
0
173
0
174
0
175
0
176
0
177
0
178
0
270
2
179
2
271
2
272
2
273
2
274
2
275
0
280
0
281
0
282
0
283
1
284
8
285
0
286
0
287
3
288
0
340
11
278
46
341
212
342
212
343
212
344
212
  0
ENDTAB
  0
ENDSEC
  0
SECTION
  2
BLOCKS
  0
BLOCK
  5
20
100
AcDbEntity
  8
0
100
AcDbBlockBegin
  2
*Model_Space
 70
0
 10
0.0
 20
0.0
 30
0.0
  3
*Model_Space
  1

  0
ENDBLK
  5
21
100
AcDbEntity
  8
0
100
AcDbBlockEnd
  0
BLOCK
  5
1C
100
AcDbEntity
  8
0
100
AcDbBlockBegin
  2
*Paper_Space
 70
0
 10
0.0
 20
0.0
 30
0.0
  3
*Paper_Space
  1

  0
ENDBLK
  5
1D
100
AcDbEntity
  8
0
100
AcDbBlockEnd
  0
BLOCK
  5
214
100
AcDbEntity
  8
0
100
AcDbBlockBegin
  2
_FILLED
 70
64
 10
0.0
 20
0.0
  3
_FILLED
  1

  0
SOLID
  5
215
100
AcDbEntity
  8
0
  6
BYBLOCK
 62
0
100
AcDbTrace
 10
0.0
 20
0.0
 11
-1.0
 21
0.25
 12
-1.0
 22
-0.25
 13
-1.0
 23
-0.25
  0
ENDBLK
  5
216
100
AcDbEntity
  8
0
  6
BYBLOCK
 62
0
100
AcDbBlockEnd
  0
ENDSEC
  0
SECTION
  2
ENTITIES
  0
LINE
  5
217
100
AcDbEntity
  8
0
100
AcDbLine
 62
7
  6
BYLAYER
 10
7.8137364526
 20
59.2662350149
 11
24.7842285457
 21
69.0640947078
  0
LINE
  5
218
100
AcDbEntity
  8
0
100
AcDbLine
 62
7
  6
BYLAYER
 10
20.5219938482
 20
17.2278801724
 11
14.1974121962
 21
20.8792964856
  0
LINE
  5
219
100
AcDbEntity
  8
0
100
AcDbLine
 62
7
  6
BYLAYER
 10
6.7530806967
 20
37.8330571473
 11
6.7530806967
 21
57.4291151584
  0
LINE
  5
21A
100
AcDbEntity
  8
0
100
AcDbLine
 62
7
  6
BYLAYER
 10
22.2162618102
 20
16.9657841185
 11
30.8557554073
 21
18.3023215801
  0
LINE
  5
21B
100
AcDbEntity
  8
0
100
AcDbLine
 62
7
  6
BYLAYER
 10
13.0871894757
 20
33.6688217209
 11
13.0871894757
 21
24.1566614165
  0
LINE
  5
21C
100
AcDbEntity
  8
0
100
AcDbLine
 62
7
  6
BYLAYER
 10
13.7434279166
 20
21.8574663831
 11
13.7434279166
 21
18.2463621878
  0
LINE
  5
21D
100
AcDbEntity
  8
0
100
AcDbLine
 62
7
  6
BYLAYER
 10
14.1974121962
 20
17.2681922903
 11
14.1974121962
 21
20.8792964856
  0
LINE
  5
21E
100
AcDbEntity
  8
0
100
AcDbLine
 62
7
  6
BYLAYER
 10
31.7697120084
 20
21.1506653103
 11
29.6483828329
 21
22.3753875738
  0
LINE
  5
21F
100
AcDbEntity
  8
0
100
AcDbLine
 62
7
  6
BYLAYER
 10
31.1483750462
 20
22.5240237537
 11
29.0270458708
 21
23.7487460173
  0
LINE
  5
220
100
AcDbEntity
  8
0
100
AcDbLine
 62
7
  6
BYLAYER
 10
29.0270458708
 20
24.4661495327
 11
7.0637491778
 21
37.1463779256
  0
LINE
  5
221
100
AcDbEntity
  8
0
100
AcDbLine
 62
7
  6
BYLAYER
 10
33.2696865578
 20
22.5240025897
 11
32.5625768327
 21
22.9322433442
  0
LINE
  5
222
100
AcDbEntity
  8
0
100
AcDbLine
 62
7
  6
BYLAYER
 10
29.0270458708
 20
24.9734682809
 11
6.7530806967
 21
37.8330571473
  0
LINE
  5
223
100
AcDbEntity
  8
0
100
AcDbLine
 62
7
  6
BYLAYER
 10
20.5219938482
 20
17.2278801724
 11
20.5219938482
 21
13.6167759771
  0
LINE
  5
224
100
AcDbEntity
  8
0
100
AcDbLine
 62
7
  6
BYLAYER
 10
22.2162618102
 20
13.3546799231
 11
22.2162618102
 21
16.9657841185
  0
LINE
  5
225
100
AcDbEntity
  8
0
100
AcDbLine
 62
7
  6
BYLAYER
 10
13.8194234975
 20
22.0212144883
 11
13.7434279166
 21
21.8574663831
  0
LINE
  5
226
100
AcDbEntity
  8
0
100
AcDbLine
 62
7
  6
BYLAYER
 10
31.1483573824
 20
47.0190437414
 11
48.1188494755
 21
56.8169034343
  0
LINE
  5
227
100
AcDbEntity
  8
0
100
AcDbLine
 62
7
  6
BYLAYER
 10
35.0374402629
 20
33.7508756797
 11
34.3303364257
 21
34.1591130349
  0
LINE
  5
228
100
AcDbEntity
  8
0
100
AcDbLine
 62
7
  6
BYLAYER
 10
29.0270458708
 20
23.7487460173
 11
29.0270458708
 21
43.3448040284
  0
LINE
  5
229
100
AcDbEntity
  8
0
100
AcDbLine
 62
7
  6
BYLAYER
 10
50.240178651
 20
55.5921811708
 11
33.2696865578
 21
45.7943214779
  0
LINE
  5
22A
100
AcDbEntity
  8
0
100
AcDbLine
 62
7
  6
BYLAYER
 10
50.240178651
 20
54.3674275451
 11
33.2696865578
 21
44.5695678522
  0
LINE
  5
22B
100
AcDbEntity
  8
0
100
AcDbLine
 62
7
  6
BYLAYER
 10
41.7549086093
 20
32.321918976
 11
42.4620305537
 21
31.9136711669
  0
LINE
  5
22C
100
AcDbEntity
  8
0
100
AcDbLine
 62
7
  6
BYLAYER
 10
30.8557554073
 20
18.3023215801
 11
30.8557554073
 21
14.6912173848
  0
LINE
  5
22D
100
AcDbEntity
  8
0
100
AcDbLine
 62
7
  6
BYLAYER
 10
31.1483750462
 20
42.1200817648
 11
31.1483750462
 21
22.5240237537
  0
LINE
  5
22E
100
AcDbEntity
  8
0
100
AcDbLine
 62
7
  6
BYLAYER
 10
32.0960390897
 20
15.4072912283
 11
32.0960390897
 21
19.0183954236
  0
LINE
  5
22F
100
AcDbEntity
  8
0
100
AcDbLine
 62
7
  6
BYLAYER
 10
32.209030802
 20
42.7324479957
 11
32.209030802
 21
23.1363899845
  0
LINE
  5
230
100
AcDbEntity
  8
0
100
AcDbLine
 62
7
  6
BYLAYER
 10
42.4620305537
 20
47.4272170924
 11
39.6336152048
 21
45.7942404769
  0
LINE
  5
231
100
AcDbEntity
  8
0
100
AcDbLine
 62
7
  6
BYLAYER
 10
39.6336152048
 20
44.9777380597
 11
42.4620305537
 21
46.6107146752
  0
LINE
  5
232
100
AcDbEntity
  8
0
100
AcDbLine
 62
7
  6
BYLAYER
 10
29.0270458708
 20
43.3448040284
 11
31.1483750462
 21
42.1200817648
  0
LINE
  5
233
100
AcDbEntity
  8
0
100
AcDbLine
 62
7
  6
BYLAYER
 10
41.5206934855
 20
36.8489090145
 11
39.0116451831
 21
38.2974759563
  0
LINE
  5
234
100
AcDbEntity
  8
0
100
AcDbLine
 62
7
  6
BYLAYER
 10
49.5330689258
 20
32.7301030371
 11
50.240178651
 21
32.3218622826
  0
LINE
  5
235
100
AcDbEntity
  8
0
100
AcDbLine
 62
7
  6
BYLAYER
 10
6.7530806967
 20
57.4291151584
 11
29.2541074508
 21
44.4384351934
  0
LINE
  5
236
100
AcDbEntity
  8
0
100
AcDbLine
 62
7
  6
BYLAYER
 10
34.3303364257
 20
36.6086411944
 11
34.3303364257
 21
33.3426315258
  0
LINE
  5
237
100
AcDbEntity
  8
0
100
AcDbLine
 62
7
  6
BYLAYER
 10
34.4109510349
 20
21.9581543839
 11
34.4109510349
 21
20.3952450032
  0
LINE
  5
238
100
AcDbEntity
  8
0
100
AcDbLine
 62
7
  6
BYLAYER
 10
51.3008344068
 20
34.1589821391
 11
50.5937246817
 21
34.5672228936
  0
LINE
  5
239
100
AcDbEntity
  8
0
100
AcDbLine
 62
7
  6
BYLAYER
 10
30.3147557559
 20
46.2755593514
 11
7.8137364526
 21
59.2662350149
  0
LINE
  5
23A
100
AcDbEntity
  8
0
100
AcDbLine
 62
7
  6
BYLAYER
 10
35.0374402629
 20
33.7508756797
 11
35.0374402629
 21
37.0168853482
  0
LINE
  5
23B
100
AcDbEntity
  8
0
100
AcDbLine
 62
7
  6
BYLAYER
 10
47.7653093328
 20
44.3652801179
 11
47.0582054956
 21
43.9570359641
  0
LINE
  5
23C
100
AcDbEntity
  8
0
100
AcDbLine
 62
7
  6
BYLAYER
 10
35.0374402629
 20
37.0168853482
 11
34.3303364257
 21
36.6086411944
  0
LINE
  5
23D
100
AcDbEntity
  8
0
100
AcDbLine
 62
7
  6
BYLAYER
 10
43.0206680349
 20
39.4469999196
 11
40.5425408129
 21
40.8777149712
  0
LINE
  5
23E
100
AcDbEntity
  8
0
100
AcDbLine
 62
7
  6
BYLAYER
 10
33.2696865578
 20
45.7943214779
 11
31.1483573824
 21
47.0190437414
  0
LINE
  5
23F
100
AcDbEntity
  8
0
100
AcDbLine
 62
7
  6
BYLAYER
 10
34.3303364257
 20
33.3426315258
 11
35.0374402629
 21
33.7508756797
  0
LINE
  5
240
100
AcDbEntity
  8
0
100
AcDbLine
 62
7
  6
BYLAYER
 10
47.0582054956
 20
40.6910262955
 11
47.7653093328
 21
41.0992704494
  0
LINE
  5
241
100
AcDbEntity
  8
0
100
AcDbLine
 62
7
  6
BYLAYER
 10
47.7653093328
 20
41.0992704494
 11
47.0582054956
 21
41.5075078046
  0
LINE
  5
242
100
AcDbEntity
  8
0
100
AcDbLine
 62
7
  6
BYLAYER
 10
39.6336152048
 20
45.7942404769
 11
39.6336152048
 21
44.9777380597
  0
LINE
  5
243
100
AcDbEntity
  8
0
100
AcDbLine
 62
7
  6
BYLAYER
 10
39.6336152048
 20
31.0971969685
 11
39.6336152048
 21
30.2806945514
  0
LINE
  5
244
100
AcDbEntity
  8
0
100
AcDbLine
 62
7
  6
BYLAYER
 10
32.0960390897
 20
19.0183954236
 11
32.6734364305
 21
20.262516718
  0
LINE
  5
245
100
AcDbEntity
  8
0
100
AcDbLine
 62
7
  6
BYLAYER
 10
42.2706807602
 20
36.9232008413
 11
42.4620423296
 21
37.0336866538
  0
LINE
  5
246
100
AcDbEntity
  8
0
100
AcDbLine
 62
7
  6
BYLAYER
 10
41.7549086093
 20
47.0189624844
 11
42.4620305537
 21
46.6107146752
  0
LINE
  5
247
100
AcDbEntity
  8
0
100
AcDbLine
 62
7
  6
BYLAYER
 10
42.4620305537
 20
31.9136711669
 11
42.4620305537
 21
32.730173584
  0
LINE
  5
248
100
AcDbEntity
  8
0
100
AcDbLine
 62
7
  6
BYLAYER
 10
42.4620305537
 20
46.6107146752
 11
42.4620305537
 21
47.4272170924
  0
LINE
  5
249
100
AcDbEntity
  8
0
100
AcDbLine
 62
7
  6
BYLAYER
 10
43.3313381094
 20
38.539367828
 11
43.331336516
 21
38.7603308963
  0
LINE
  5
24A
100
AcDbEntity
  8
0
100
AcDbLine
 62
7
  6
BYLAYER
 10
42.4620305537
 20
32.730173584
 11
39.6336152048
 21
31.0971969685
  0
LINE
  5
24B
100
AcDbEntity
  8
0
100
AcDbLine
 62
7
  6
BYLAYER
 10
39.6336152048
 20
30.2806945514
 11
42.4620305537
 21
31.9136711669
  0
LINE
  5
24C
100
AcDbEntity
  8
0
100
AcDbLine
 62
7
  6
BYLAYER
 10
47.0582054956
 20
43.9570359641
 11
47.0582054956
 21
40.6910262955
  0
LINE
  5
24D
100
AcDbEntity
  8
0
100
AcDbLine
 62
7
  6
BYLAYER
 10
47.7653093328
 20
41.0992704494
 11
47.7653093328
 21
44.3652801179
  0
LINE
  5
24E
100
AcDbEntity
  8
0
100
AcDbLine
 62
7
  6
BYLAYER
 10
49.5330689258
 20
32.7301030371
 11
32.5625768327
 21
22.9322433442
  0
LINE
  5
24F
100
AcDbEntity
  8
0
100
AcDbLine
 62
7
  6
BYLAYER
 10
33.2696865578
 20
22.5240025897
 11
50.240178651
 21
32.3218622826
  0
LINE
  5
250
100
AcDbEntity
  8
0
100
AcDbLine
 62
7
  6
BYLAYER
 10
33.2696865578
 20
21.299248964
 11
50.240178651
 21
31.0971086569
  0
LINE
  5
251
100
AcDbEntity
  8
0
100
AcDbLine
 62
7
  6
BYLAYER
 10
50.5937246817
 20
54.1632809047
 11
50.5937246817
 21
34.5672228936
  0
LINE
  5
252
100
AcDbEntity
  8
0
100
AcDbLine
 62
7
  6
BYLAYER
 10
51.3008344068
 20
34.1589821391
 11
51.3008344068
 21
53.7550401502
  0
LWPOLYLINE
  5
253
100
AcDbEntity
  8
0
100
AcDbPolyline
 62
7
  6
BYLAYER
 90
6
 70
0
 10
30.4930019932
 20
19.0771494626
 10
29.4628832901
 20
18.4839720487
 10
26.5153933593
 20
17.6906410229
 10
23.2653273219
 20
17.5251754644
 10
20.1198354431
 20
18.0092653717
 10
17.4304134059
 20
19.0944127444
  0
LINE
  5
254
100
AcDbEntity
  8
0
100
AcDbLine
 62
7
  6
BYLAYER
 10
50.5937246817
 20
54.1632809047
 11
51.3008344068
 21
53.7550401502
  0
LINE
  5
255
100
AcDbEntity
  8
0
100
AcDbLine
 62
7
  6
BYLAYER
 10
24.7842285457
 20
69.0640947078
 11
47.058166559
 21
56.2045215223
  0
LINE
  5
256
100
AcDbEntity
  8
0
100
AcDbLine
 62
7
  6
BYLAYER
 10
52.3614901626
 20
34.7713483699
 11
52.3614901626
 21
54.367406381
  0
LINE
  5
257
100
AcDbEntity
  8
0
100
AcDbLine
 62
7
  6
BYLAYER
 10
47.497496603
 20
56.4581673274
 11
25.5342158204
 21
69.1383865346
  0
LINE
  5
258
100
AcDbEntity
  8
0
100
AcDbLine
 62
7
  6
BYLAYER
 10
48.1188494755
 20
56.8169034343
 11
50.240178651
 21
55.5921811708
  0
LINE
  5
259
100
AcDbEntity
  8
0
100
AcDbLine
 62
7
  6
BYLAYER
 10
51.7401532004
 20
55.7407648244
 11
49.618824025
 21
56.965487088
  0
ARC
  5
25A
100
AcDbEntity
  8
0
100
AcDbCircle
 62
7
  6
BYLAYER
 10
23.9772898406
 20
30.3456740226
 40
17.082011012
100
AcDbArc
 50
258.3298632041
 51
264.0827188469
  0
ARC
  5
25B
100
AcDbEntity
  8
0
100
AcDbCircle
 62
7
  6
BYLAYER
 10
23.939429618
 20
33.7120383172
 40
16.8346766225
100
AcDbArc
 50
258.2875665149
 51
264.1250155362
  0
ARC
  5
25C
100
AcDbEntity
  8
0
100
AcDbCircle
 62
7
  6
BYLAYER
 10
26.1972116754
 20
27.8557386539
 40
10.6287255816
100
AcDbArc
 50
295.995304591
 51
299.9394352968
  0
ARC
  5
25D
100
AcDbEntity
  8
0
100
AcDbCircle
 62
7
  6
BYLAYER
 10
26.2959247956
 20
24.0587267422
 40
10.4183629601
100
AcDbArc
 50
295.9554693753
 51
299.9792705125
  0
ARC
  5
25E
100
AcDbEntity
  8
0
100
AcDbCircle
 62
7
  6
BYLAYER
 10
26.8126060834
 20
26.7749004952
 40
9.3849898911
100
AcDbArc
 50
299.9770252486
 51
304.2611861949
  0
ARC
  5
25F
100
AcDbEntity
  8
0
100
AcDbCircle
 62
7
  6
BYLAYER
 10
26.9199389173
 20
22.9928197799
 40
9.183259574
100
AcDbArc
 50
299.9299471163
 51
304.3082643272
  0
ARC
  5
260
100
AcDbEntity
  8
0
100
AcDbCircle
 62
7
  6
BYLAYER
 10
39.2422485207
 20
40.1919998282
 40
3.9345200643
100
AcDbArc
 50
348.359901805
 51
348.803091183
  0
ARC
  5
261
100
AcDbEntity
  8
0
100
AcDbCircle
 62
7
  6
BYLAYER
 10
39.0250022704
 20
39.7046463978
 40
3.8759516879
100
AcDbArc
 50
310.7722585759
 51
311.1177638694
  0
ARC
  5
262
100
AcDbEntity
  8
0
100
AcDbCircle
 62
7
  6
BYLAYER
 10
39.3456193274
 20
40.17188513
 40
3.8292109698
100
AcDbArc
 50
348.7979909107
 51
350.0386035921
  0
ARC
  5
263
100
AcDbEntity
  8
0
100
AcDbCircle
 62
7
  6
BYLAYER
 10
42.044308927
 20
37.6567382114
 40
0.7441336164
100
AcDbArc
 50
283.2818551557
 51
286.7052705846
  0
SPLINE
  5
264
100
AcDbEntity
  8
0
100
AcDbSpline
 62
7
  6
BYLAYER
 70
0
 71
3
 72
14
 73
10
 74
0
 42
0.0000001
 43
0.0000001
 44
0.0000000001
 40
0.0
 40
0.0
 40
0.0
 40
0.0
 40
0.28924699
 40
0.4225703404
 40
0.5485174524
 40
0.6678919341
 40
0.781864477
 40
0.8919540619
 40
1.0
 40
1.0
 40
1.0
 40
1.0
 10
48.1188494755
 20
56.8169034343
 30
0.0
 10
48.2505181414
 20
56.8929219202
 30
0.0
 10
48.4527087178
 20
56.9891249019
 30
0.0
 10
48.7299637756
 20
57.0700044474
 30
0.0
 10
48.9267742422
 20
57.1030095192
 30
0.0
 10
49.1161156436
 20
57.1095815182
 30
0.0
 10
49.2962249685
 20
57.0894631713
 30
0.0
 10
49.4652109193
 20
57.042794267
 30
0.0
 10
49.5696290008
 20
56.9938637448
 30
0.0
 10
49.618812999
 20
56.96546799
 30
0.0
  0
SPLINE
  5
265
100
AcDbEntity
  8
0
100
AcDbSpline
 62
7
  6
BYLAYER
 70
0
 71
3
 72
15
 73
11
 74
0
 42
0.0000001
 43
0.0000001
 44
0.0000000001
 40
0.0
 40
0.0
 40
0.0
 40
0.0
 40
0.1141475829
 40
0.2373370756
 40
0.3669780685
 40
0.5000016033
 40
0.6330249151
 40
0.7626652568
 40
0.8858537231
 40
1.0
 40
1.0
 40
1.0
 40
1.0
 10
29.0270458708
 20
43.3448040284
 30
0.0
 10
29.0270458708
 20
43.5124801363
 30
0.0
 10
29.0577800061
 20
43.8614372251
 30
0.0
 10
29.1801906415
 20
44.3878694641
 30
0.0
 10
29.376378232
 20
44.9210917349
 30
0.0
 10
29.638863574
 20
45.4410674966
 30
0.0
 10
29.9579302112
 20
45.9283751205
 30
0.0
 10
30.3216168644
 20
46.364889073
 30
0.0
 10
30.7163111289
 20
46.7341139363
 30
0.0
 10
31.003147058
 20
46.935207022
 30
0.0
 10
31.1483573824
 20
47.0190437414
 30
0.0
  0
SPLINE
  5
266
100
AcDbEntity
  8
0
100
AcDbSpline
 62
7
  6
BYLAYER
 70
0
 71
3
 72
12
 73
8
 74
0
 42
0.0000001
 43
0.0000001
 44
0.0000000001
 40
0.0
 40
0.0
 40
0.0
 40
0.0
 40
0.1081702127
 40
0.2183727686
 40
0.4513235059
 40
0.7105143194
 40
1.0
 40
1.0
 40
1.0
 40
1.0
 10
7.0637529202
 20
37.1463844076
 30
0.0
 10
7.0391582002
 20
37.1605838574
 30
0.0
 10
6.991890444
 20
37.1936110242
 30
0.0
 10
6.9070632052
 20
37.2770139976
 30
0.0
 10
6.8230319198
 20
37.4139817592
 30
0.0
 10
6.7646403622
 20
37.6124941937
 30
0.0
 10
6.7530806967
 20
37.7570545876
 30
0.0
 10
6.7530806967
 20
37.8330571473
 30
0.0
  0
SPLINE
  5
267
100
AcDbEntity
  8
0
100
AcDbSpline
 62
7
  6
BYLAYER
 70
0
 71
3
 72
12
 73
8
 74
0
 42
0.0000001
 43
0.0000001
 44
0.0000000001
 40
0.0
 40
0.0
 40
0.0
 40
0.0
 40
0.2895786173
 40
0.548626919
 40
0.7816321041
 40
0.8918345355
 40
1.0
 40
1.0
 40
1.0
 40
1.0
 10
43.331336516
 20
38.7603308963
 30
0.0
 10
43.3313359646
 20
38.8363574503
 30
0.0
 10
43.3198104349
 20
38.9809125534
 30
0.0
 10
43.2613438338
 20
39.1793975267
 30
0.0
 10
43.1773718175
 20
39.3163702917
 30
0.0
 10
43.092531978
 20
39.3997812907
 30
0.0
 10
43.0452624923
 20
39.4328028112
 30
0.0
 10
43.0206680346
 20
39.4469999189
 30
0.0
  0
SPLINE
  5
268
100
AcDbEntity
  8
0
100
AcDbSpline
 62
7
  6
BYLAYER
 70
0
 71
3
 72
12
 73
8
 74
0
 42
0.0000001
 43
0.0000001
 44
0.0000000001
 40
0.0
 40
0.0
 40
0.0
 40
0.0
 40
0.1081706614
 40
0.2183758181
 40
0.451330108
 40
0.71051863
 40
1.0
 40
1.0
 40
1.0
 40
1.0
 10
41.5206934858
 20
36.8489090151
 30
0.0
 10
41.5452884032
 20
36.8347116421
 30
0.0
 10
41.5975245533
 20
36.8102934369
 30
0.0
 10
41.7121647217
 20
36.7785324445
 30
0.0
 10
41.8727938132
 20
36.7742451555
 30
0.0
 10
42.0738976373
 20
36.8229345398
 30
0.0
 10
42.2048637781
 20
36.8852016158
 30
0.0
 10
42.2706807602
 20
36.9232008413
 30
0.0
  0
SPLINE
  5
269
100
AcDbEntity
  8
0
100
AcDbSpline
 62
7
  6
BYLAYER
 70
0
 71
3
 72
15
 73
11
 74
0
 42
0.0000001
 43
0.0000001
 44
0.0000000001
 40
0.0
 40
0.0
 40
0.0
 40
0.0
 40
0.1141462769
 40
0.2373347432
 40
0.3669750849
 40
0.4999983967
 40
0.6330219315
 40
0.7626629244
 40
0.8858524171
 40
1.0
 40
1.0
 40
1.0
 40
1.0
 10
50.240178651
 20
31.0971086569
 30
0.0
 10
50.3853889754
 20
31.1809453763
 30
0.0
 10
50.6722249045
 20
31.382038462
 30
0.0
 10
51.066919169
 20
31.7512633253
 30
0.0
 10
51.4306058222
 20
32.1877772778
 30
0.0
 10
51.7496724594
 20
32.6750849016
 30
0.0
 10
52.0121578014
 20
33.1950606634
 30
0.0
 10
52.2083453919
 20
33.7282829342
 30
0.0
 10
52.3307560273
 20
34.2547151732
 30
0.0
 10
52.3614901626
 20
34.603672262
 30
0.0
 10
52.3614901626
 20
34.7713483699
 30
0.0
  0
SPLINE
  5
26A
100
AcDbEntity
  8
0
100
AcDbSpline
 62
7
  6
BYLAYER
 70
0
 71
3
 72
14
 73
10
 74
0
 42
0.0000001
 43
0.0000001
 44
0.0000000001
 40
0.0
 40
0.0
 40
0.0
 40
0.0
 40
0.2892484383
 40
0.422572185
 40
0.5485194239
 40
0.6678937481
 40
0.7818658678
 40
0.8919548143
 40
1.0
 40
1.0
 40
1.0
 40
1.0
 10
52.3614901626
 20
54.367406381
 30
0.0
 10
52.3614901626
 20
54.5194508305
 30
0.0
 10
52.3437088094
 20
54.7426644042
 30
0.0
 10
52.2751221752
 20
55.0232262888
 30
0.0
 10
52.2052971251
 20
55.210179231
 30
0.0
 10
52.1163139065
 20
55.3774458225
 30
0.0
 10
52.0088313447
 20
55.5233704727
 30
0.0
 10
51.88391619
 20
55.646384956
 30
0.0
 10
51.7893277826
 20
55.7123490422
 30
0.0
 10
51.7401421744
 20
55.7407457264
 30
0.0
  0
SPLINE
  5
26B
100
AcDbEntity
  8
0
100
AcDbSpline
 62
7
  6
BYLAYER
 70
0
 71
3
 72
15
 73
11
 74
0
 42
0.0000001
 43
0.0000001
 44
0.0000000001
 40
0.0
 40
0.0
 40
0.0
 40
0.0
 40
0.1141242661
 40
0.2373486253
 40
0.3669740476
 40
0.5000015346
 40
0.6330288076
 40
0.7626536034
 40
0.8858770013
 40
1.0
 40
1.0
 40
1.0
 40
1.0
 10
32.209030802
 20
42.7324479957
 30
0.0
 10
32.209030802
 20
42.8162687286
 30
0.0
 10
32.2244213274
 20
42.9907524483
 30
0.0
 10
32.2855939344
 20
43.2539719447
 30
0.0
 10
32.3837072993
 20
43.520594151
 30
0.0
 10
32.5149331549
 20
43.7805833131
 30
0.0
 10
32.6744759718
 20
44.0242232366
 30
0.0
 10
32.856319123
 20
44.2425027745
 30
0.0
 10
33.0536856065
 20
44.4270886275
 30
0.0
 10
33.1970963715
 20
44.5276581387
 30
0.0
 10
33.2696865578
 20
44.5695678522
 30
0.0
  0
SPLINE
  5
26C
100
AcDbEntity
  8
0
100
AcDbSpline
 62
7
  6
BYLAYER
 70
0
 71
3
 72
12
 73
8
 74
0
 42
0.0000001
 43
0.0000001
 44
0.0000000001
 40
0.0
 40
0.0
 40
0.0
 40
0.0
 40
0.2894842122
 40
0.5486744391
 40
0.7816258062
 40
0.8918290155
 40
1.0
 40
1.0
 40
1.0
 40
1.0
 10
50.240178651
 20
54.3674275451
 30
0.0
 10
50.305995953
 20
54.4054269553
 30
0.0
 10
50.4369631882
 20
54.4676932178
 30
0.0
 10
50.638067418
 20
54.5163787617
 30
0.0
 10
50.7986943335
 20
54.5120902922
 30
0.0
 10
50.9133333598
 20
54.4803316816
 30
0.0
 10
50.9655682631
 20
54.455911878
 30
0.0
 10
50.9901621834
 20
54.4417128899
 30
0.0
  0
SPLINE
  5
26D
100
AcDbEntity
  8
0
100
AcDbSpline
 62
7
  6
BYLAYER
 70
0
 71
3
 72
23
 73
19
 74
0
 42
0.0000001
 43
0.0000001
 44
0.0000000001
 40
0.0
 40
0.0
 40
0.0
 40
0.0
 40
0.0428122122
 40
0.0873940206
 40
0.1351774594
 40
0.1870855813
 40
0.2435328023
 40
0.3044904428
 40
0.3695869905
 40
0.4381955389
 40
0.5094930874
 40
0.5825277244
 40
0.6562695362
 40
0.7296602252
 40
0.8016486036
 40
0.8712463491
 40
0.9376273129
 40
1.0
 40
1.0
 40
1.0
 40
1.0
 10
39.547858616
 20
36.2558827332
 30
0.0
 10
39.4739002671
 20
36.2985823964
 30
0.0
 10
39.3336925174
 20
36.4058804953
 30
0.0
 10
39.1649668665
 20
36.6192290867
 30
0.0
 10
39.0389090462
 20
36.8801549072
 30
0.0
 10
38.9572450312
 20
37.1822633125
 30
0.0
 10
38.9209055611
 20
37.5192110533
 30
0.0
 10
38.9302026863
 20
37.8840552784
 30
0.0
 10
38.9847050512
 20
38.2692789324
 30
0.0
 10
39.0832610021
 20
38.66682252
 30
0.0
 10
39.2237264941
 20
39.0683004358
 30
0.0
 10
39.4030780171
 20
39.4652008399
 30
0.0
 10
39.6175503684
 20
39.8490504766
 30
0.0
 10
39.8625558109
 20
40.2116612612
 30
0.0
 10
40.1328089275
 20
40.5453256002
 30
0.0
 10
40.4226864951
 20
40.8429772331
 30
0.0
 10
40.7259604337
 20
41.0981125337
 30
0.0
 10
40.9400736662
 20
41.2412544074
 30
0.0
 10
41.0478228793
 20
41.3034630733
 30
0.0
  0
SPLINE
  5
26E
100
AcDbEntity
  8
0
100
AcDbSpline
 62
7
  6
BYLAYER
 70
0
 71
3
 72
12
 73
8
 74
0
 42
0.0000001
 43
0.0000001
 44
0.0000000001
 40
0.0
 40
0.0
 40
0.0
 40
0.0
 40
0.1081702127
 40
0.2183727686
 40
0.4513235059
 40
0.7105143194
 40
1.0
 40
1.0
 40
1.0
 40
1.0
 10
32.5197030255
 20
22.4497172449
 30
0.0
 10
32.4951083055
 20
22.4639166947
 30
0.0
 10
32.4478405493
 20
22.4969438615
 30
0.0
 10
32.3630133105
 20
22.5803468349
 30
0.0
 10
32.2789820251
 20
22.7173145965
 30
0.0
 10
32.2205904675
 20
22.9158270309
 30
0.0
 10
32.209030802
 20
23.0603874249
 30
0.0
 10
32.209030802
 20
23.1363899845
 30
0.0
  0
SPLINE
  5
26F
100
AcDbEntity
  8
0
100
AcDbSpline
 62
7
  6
BYLAYER
 70
0
 71
3
 72
14
 73
10
 74
0
 42
0.0000001
 43
0.0000001
 44
0.0000000001
 40
0.0
 40
0.0
 40
0.0
 40
0.0
 40
0.1080451857
 40
0.2181341322
 40
0.3321062519
 40
0.4514805761
 40
0.577427815
 40
0.7107515617
 40
1.0
 40
1.0
 40
1.0
 40
1.0
 10
29.648393859
 20
22.3754066719
 30
0.0
 10
29.5992082508
 20
22.4038033561
 30
0.0
 10
29.5046198434
 20
22.4697674423
 30
0.0
 10
29.3797046887
 20
22.5927819255
 30
0.0
 10
29.2722221268
 20
22.7387065758
 30
0.0
 10
29.1832389083
 20
22.9059731673
 30
0.0
 10
29.1134138582
 20
23.0929261095
 30
0.0
 10
29.044827224
 20
23.3734879941
 30
0.0
 10
29.0270458708
 20
23.5967015678
 30
0.0
 10
29.0270458708
 20
23.7487460173
 30
0.0
  0
SPLINE
  5
270
100
AcDbEntity
  8
0
100
AcDbSpline
 62
7
  6
BYLAYER
 70
0
 71
3
 72
14
 73
10
 74
0
 42
0.0000001
 43
0.0000001
 44
0.0000000001
 40
0.0
 40
0.0
 40
0.0
 40
0.0
 40
0.1080459381
 40
0.218135523
 40
0.3321080659
 40
0.4514825476
 40
0.5774296596
 40
0.71075301
 40
1.0
 40
1.0
 40
1.0
 40
1.0
 10
31.7697230344
 20
21.1506844083
 30
0.0
 10
31.8189070326
 20
21.1222886535
 30
0.0
 10
31.9233251141
 20
21.0733581313
 30
0.0
 10
32.0923110649
 20
21.026689227
 30
0.0
 10
32.2724203898
 20
21.0065708801
 30
0.0
 10
32.4617617912
 20
21.0131428791
 30
0.0
 10
32.6585722578
 20
21.0461479509
 30
0.0
 10
32.9358273156
 20
21.1270274964
 30
0.0
 10
33.138017892
 20
21.2232304781
 30
0.0
 10
33.2696865578
 20
21.299248964
 30
0.0
  0
SPLINE
  5
271
100
AcDbEntity
  8
0
100
AcDbSpline
 62
7
  6
BYLAYER
 70
0
 71
3
 72
14
 73
10
 74
0
 42
0.0000001
 43
0.0000001
 44
0.0000000001
 40
0.0
 40
0.0
 40
0.0
 40
0.0
 40
0.2892450366
 40
0.4225669035
 40
0.548514788
 40
0.66789092
 40
0.7818650171
 40
0.891954964
 40
1.0
 40
1.0
 40
1.0
 40
1.0
 10
41.0478228793
 20
41.3034630733
 30
0.0
 10
41.1794908738
 20
41.3794811716
 30
0.0
 10
41.3816791982
 20
41.4756857063
 30
0.0
 10
41.6589335408
 20
41.5565642789
 30
0.0
 10
41.855744422
 20
41.5895717662
 30
0.0
 10
42.0450882338
 20
41.5961442508
 30
0.0
 10
42.2251999151
 20
41.5760272965
 30
0.0
 10
42.3941865963
 20
41.529357177
 30
0.0
 10
42.4986036903
 20
41.4804248506
 30
0.0
 10
42.5477871425
 20
41.4520289106
 30
0.0
  0
SPLINE
  5
272
100
AcDbEntity
  8
0
100
AcDbSpline
 62
7
  6
BYLAYER
 70
0
 71
3
 72
15
 73
11
 74
0
 42
0.0000001
 43
0.0000001
 44
0.0000000001
 40
0.0
 40
0.0
 40
0.0
 40
0.0
 40
0.1141059438
 40
0.2373598933
 40
0.3669840651
 40
0.5000054492
 40
0.6330264005
 40
0.7626734499
 40
0.8858488096
 40
1.0
 40
1.0
 40
1.0
 40
1.0
 10
42.4620423296
 20
37.0336866538
 30
0.0
 10
42.5215268915
 20
37.0680298767
 30
0.0
 10
42.6390590491
 20
37.1504742372
 30
0.0
 10
42.8008396533
 20
37.3017417555
 30
0.0
 10
42.9498878207
 20
37.480650252
 30
0.0
 10
43.080614623
 20
37.6803423208
 30
0.0
 10
43.1881854448
 20
37.8934202102
 30
0.0
 10
43.2685704651
 20
38.1119253258
 30
0.0
 10
43.3187442466
 20
38.3276471056
 30
0.0
 10
43.3313164461
 20
38.4706414685
 30
0.0
 10
43.3313166688
 20
38.5393554582
 30
0.0
  0
SPLINE
  5
273
100
AcDbEntity
  8
0
100
AcDbSpline
 62
7
  6
BYLAYER
 70
0
 71
3
 72
23
 73
19
 74
0
 42
0.0000001
 43
0.0000001
 44
0.0000000001
 40
0.0
 40
0.0
 40
0.0
 40
0.0
 40
0.0465087701
 40
0.0962123958
 40
0.1493119465
 40
0.2058071841
 40
0.2655290076
 40
0.3281744755
 40
0.3933349073
 40
0.4605179057
 40
0.5291698313
 40
0.5986960835
 40
0.6684770751
 40
0.7378845591
 40
0.8063041511
 40
0.8731479444
 40
0.9378659882
 40
1.0
 40
1.0
 40
1.0
 40
1.0
 10
34.3552294785
 20
21.9100855164
 30
0.0
 10
34.1997850114
 20
21.6730248948
 30
0.0
 10
33.837060865
 20
21.2088251808
 30
0.0
 10
33.1797204661
 20
20.575913171
 30
0.0
 10
32.4011850426
 20
19.9920408697
 30
0.0
 10
31.5120083492
 20
19.4647239742
 30
0.0
 10
30.5239201357
 20
19.0004942308
 30
0.0
 10
29.4499923696
 20
18.6053382796
 30
0.0
 10
28.3044309175
 20
18.284448501
 30
0.0
 10
27.1024630785
 20
18.0420582877
 30
0.0
 10
25.860106008
 20
17.8813455598
 30
0.0
 10
24.5939285971
 20
17.8044697854
 30
0.0
 10
23.3208508631
 20
17.8124984181
 30
0.0
 10
22.0578791315
 20
17.9052625346
 30
0.0
 10
20.8218794461
 20
18.0815402422
 30
0.0
 10
19.6293391861
 20
18.3390348261
 30
0.0
 10
18.4961577645
 20
18.674228248
 30
0.0
 10
17.7737843611
 20
18.9529820556
 30
0.0
 10
17.4269958721
 20
19.1051838983
 30
0.0
  0
SPLINE
  5
274
100
AcDbEntity
  8
0
100
AcDbSpline
 62
7
  6
BYLAYER
 70
0
 71
3
 72
9
 73
5
 74
0
 42
0.0000001
 43
0.0000001
 44
0.0000000001
 40
0.0
 40
0.0
 40
0.0
 40
0.0
 40
0.2560018929
 40
1.0
 40
1.0
 40
1.0
 40
1.0
 10
17.4269958721
 20
19.1051838983
 30
0.0
 10
17.3288904101
 20
19.14824136
 30
0.0
 10
16.9478568994
 20
19.3213457399
 30
0.0
 10
16.575772206
 20
19.514376935
 30
0.0
 10
16.3061183048
 20
19.6700581654
 30
0.0
  0
SPLINE
  5
275
100
AcDbEntity
  8
0
100
AcDbSpline
 62
7
  6
BYLAYER
 70
0
 71
3
 72
9
 73
5
 74
0
 42
0.0000001
 43
0.0000001
 44
0.0000000001
 40
0.0
 40
0.0
 40
0.0
 40
0.0
 40
0.5091862552
 40
1.0
 40
1.0
 40
1.0
 40
1.0
 10
14.1974121962
 20
17.2681922903
 30
0.0
 10
14.1003978192
 20
17.4238400467
 30
0.0
 10
13.9273079263
 20
17.7408579728
 30
0.0
 10
13.7960720959
 20
18.0775933005
 30
0.0
 10
13.7434279166
 20
18.2463621878
 30
0.0
  0
SPLINE
  5
276
100
AcDbEntity
  8
0
100
AcDbSpline
 62
7
  6
BYLAYER
 70
0
 71
3
 72
10
 73
6
 74
0
 42
0.0000001
 43
0.0000001
 44
0.0000000001
 40
0.0
 40
0.0
 40
0.0
 40
0.0
 40
0.2592867156
 40
0.6375794143
 40
1.0
 40
1.0
 40
1.0
 40
1.0
 10
14.1974121962
 20
17.2681922903
 30
0.0
 10
14.4537021595
 20
17.0474540518
 30
0.0
 10
15.0927023884
 20
16.5147713831
 30
0.0
 10
16.1353254586
 20
15.7291876436
 30
0.0
 10
16.9502561942
 20
15.2074651319
 30
0.0
 10
17.3597030222
 20
14.9710762434
 30
0.0
  0
SPLINE
  5
277
100
AcDbEntity
  8
0
100
AcDbSpline
 62
7
  6
BYLAYER
 70
0
 71
3
 72
11
 73
7
 74
0
 42
0.0000001
 43
0.0000001
 44
0.0000000001
 40
0.0
 40
0.0
 40
0.0
 40
0.0
 40
0.2629702936
 40
0.5168380709
 40
0.7621672833
 40
1.0
 40
1.0
 40
1.0
 40
1.0
 10
17.3597030222
 20
14.9710762434
 30
0.0
 10
17.6214484035
 20
14.8199608957
 30
0.0
 10
18.1447550357
 20
14.5379759291
 30
0.0
 10
18.9407281321
 20
14.1709359871
 30
0.0
 10
19.7308873661
 20
13.8642652743
 30
0.0
 10
20.2597047411
 20
13.6937292984
 30
0.0
 10
20.5219938482
 20
13.6167759771
 30
0.0
  0
SPLINE
  5
278
100
AcDbEntity
  8
0
100
AcDbSpline
 62
7
  6
BYLAYER
 70
0
 71
3
 72
10
 73
6
 74
0
 42
0.0000001
 43
0.0000001
 44
0.0000000001
 40
0.0
 40
0.0
 40
0.0
 40
0.0
 40
0.4539180865
 40
0.7146525821
 40
1.0
 40
1.0
 40
1.0
 40
1.0
 10
32.0960390897
 20
15.4072912283
 30
0.0
 10
32.3033087882
 20
15.6931027676
 30
0.0
 10
32.6032157394
 20
16.162671449
 30
0.0
 10
32.9741403427
 20
16.846465153
 30
0.0
 10
33.1600631692
 20
17.2285420004
 30
0.0
 10
33.2534950623
 20
17.4298602254
 30
0.0
  0
SPLINE
  5
279
100
AcDbEntity
  8
0
100
AcDbSpline
 62
7
  6
BYLAYER
 70
0
 71
3
 72
11
 73
7
 74
0
 42
0.0000001
 43
0.0000001
 44
0.0000000001
 40
0.0
 40
0.0
 40
0.0
 40
0.0
 40
0.2270282617
 40
0.470782184
 40
0.7292319557
 40
1.0
 40
1.0
 40
1.0
 40
1.0
 10
33.2534950623
 20
17.4298602254
 30
0.0
 10
33.354949469
 20
17.6484646057
 30
0.0
 10
33.5563265426
 20
18.1059859869
 30
0.0
 10
33.8456015057
 20
18.8241180016
 30
0.0
 10
34.1325058884
 20
19.5929437674
 30
0.0
 10
34.3181234405
 20
20.1232159874
 30
0.0
 10
34.4109510349
 20
20.3952450032
 30
0.0
  0
SPLINE
  5
27A
100
AcDbEntity
  8
0
100
AcDbSpline
 62
7
  6
BYLAYER
 70
0
 71
3
 72
15
 73
11
 74
0
 42
0.0000001
 43
0.0000001
 44
0.0000000001
 40
0.0
 40
0.0
 40
0.0
 40
0.0
 40
0.1141242661
 40
0.2373486253
 40
0.3669740476
 40
0.5000015346
 40
0.6330288076
 40
0.7626536034
 40
0.8858770013
 40
1.0
 40
1.0
 40
1.0
 40
1.0
 10
6.7530806967
 20
57.4291151584
 30
0.0
 10
6.7530806967
 20
57.5129358914
 30
0.0
 10
6.7684712221
 20
57.687419611
 30
0.0
 10
6.8296438291
 20
57.9506391075
 30
0.0
 10
6.927757194
 20
58.2172613137
 30
0.0
 10
7.0589830496
 20
58.4772504758
 30
0.0
 10
7.2185258665
 20
58.7208903994
 30
0.0
 10
7.4003690177
 20
58.9391699372
 30
0.0
 10
7.5977355012
 20
59.1237557902
 30
0.0
 10
7.7411462662
 20
59.2243253014
 30
0.0
 10
7.8137364526
 20
59.2662350149
 30
0.0
  0
SPLINE
  5
27B
100
AcDbEntity
  8
0
100
AcDbSpline
 62
7
  6
BYLAYER
 70
0
 71
3
 72
11
 73
7
 74
0
 42
0.0000001
 43
0.0000001
 44
0.0000000001
 40
0.0
 40
0.0
 40
0.0
 40
0.0
 40
0.2461887807
 40
0.4948800889
 40
0.7461913737
 40
1.0
 40
1.0
 40
1.0
 40
1.0
 10
22.2162618102
 20
13.3546799231
 30
0.0
 10
22.5712260031
 20
13.3358089321
 30
0.0
 10
23.2856714452
 20
13.3127352891
 30
0.0
 10
24.363401944
 20
13.3295513626
 30
0.0
 10
25.4497603807
 20
13.4044365974
 30
0.0
 10
26.1738491011
 20
13.4955143608
 30
0.0
 10
26.5360086088
 20
13.5515407636
 30
0.0
  0
SPLINE
  5
27C
100
AcDbEntity
  8
0
100
AcDbSpline
 62
7
  6
BYLAYER
 70
0
 71
3
 72
12
 73
8
 74
0
 42
0.0000001
 43
0.0000001
 44
0.0000000001
 40
0.0
 40
0.0
 40
0.0
 40
0.0
 40
0.2894842122
 40
0.5486744391
 40
0.7816258062
 40
0.8918290155
 40
1.0
 40
1.0
 40
1.0
 40
1.0
 10
24.7842285457
 20
69.0640947078
 30
0.0
 10
24.8500458477
 20
69.102094118
 30
0.0
 10
24.9810130829
 20
69.1643603806
 30
0.0
 10
25.1821173127
 20
69.2130459244
 30
0.0
 10
25.3427442282
 20
69.2087574549
 30
0.0
 10
25.4573832545
 20
69.1769988444
 30
0.0
 10
25.5096181578
 20
69.1525790407
 30
0.0
 10
25.5342120781
 20
69.1383800526
 30
0.0
  0
SPLINE
  5
27D
100
AcDbEntity
  8
0
100
AcDbSpline
 62
7
  6
BYLAYER
 70
0
 71
3
 72
10
 73
6
 74
0
 42
0.0000001
 43
0.0000001
 44
0.0000000001
 40
0.0
 40
0.0
 40
0.0
 40
0.0
 40
0.2478989726
 40
0.4975391338
 40
1.0
 40
1.0
 40
1.0
 40
1.0
 10
26.5360086088
 20
13.5515407636
 30
0.0
 10
26.9013416486
 20
13.6080581148
 30
0.0
 10
27.6314977841
 20
13.7425021467
 30
0.0
 10
29.0817931892
 20
14.0918797292
 30
0.0
 10
30.1513319881
 20
14.4358181855
 30
0.0
 10
30.8557554073
 20
14.6912173848
 30
0.0
  0
SPLINE
  5
27E
100
AcDbEntity
  8
0
100
AcDbSpline
 62
7
  6
BYLAYER
 70
0
 71
3
 72
11
 73
7
 74
0
 42
0.0000001
 43
0.0000001
 44
0.0000000001
 40
0.0
 40
0.0
 40
0.0
 40
0.0
 40
0.272843556
 40
0.530300612
 40
0.7723205969
 40
1.0
 40
1.0
 40
1.0
 40
1.0
 10
16.3061183048
 20
19.6700581654
 30
0.0
 10
16.0359355242
 20
19.8260447376
 30
0.0
 10
15.524052922
 20
20.1531650318
 30
0.0
 10
14.8315944356
 20
20.7040368534
 30
0.0
 10
14.2443131082
 20
21.2954428665
 30
0.0
 10
13.9183281033
 20
21.7249435374
 30
0.0
 10
13.7772784444
 20
21.9437584128
 30
0.0
  0
SPLINE
  5
27F
100
AcDbEntity
  8
0
100
AcDbSpline
 62
7
  6
BYLAYER
 70
0
 71
3
 72
11
 73
7
 74
0
 42
0.0000001
 43
0.0000001
 44
0.0000000001
 40
0.0
 40
0.0
 40
0.0
 40
0.0
 40
0.2622046701
 40
0.5142024625
 40
0.7589753416
 40
1.0
 40
1.0
 40
1.0
 40
1.0
 10
13.7772784444
 20
21.9437584128
 30
0.0
 10
13.6660681249
 20
22.1162825607
 30
0.0
 10
13.4682028343
 20
22.4683423816
 30
0.0
 10
13.2492496279
 20
23.0227448091
 30
0.0
 10
13.1168134143
 20
23.5870524167
 30
0.0
 10
13.0872216438
 20
23.9679802773
 30
0.0
 10
13.08720932
 20
24.1566615177
 30
0.0
  0
SPLINE
  5
280
100
AcDbEntity
  8
0
100
AcDbSpline
 62
7
  6
BYLAYER
 70
0
 71
3
 72
19
 73
15
 74
0
 42
0.0000001
 43
0.0000001
 44
0.0000000001
 40
0.0
 40
0.0
 40
0.0
 40
0.0
 40
0.0623895177
 40
0.1288273416
 40
0.2703438926
 40
0.417434964
 40
0.5617132288
 40
0.6953223592
 40
0.7563174911
 40
0.8127987253
 40
0.8647381792
 40
0.9125517033
 40
0.9571588726
 40
1.0
 40
1.0
 40
1.0
 40
1.0
 10
42.2706807602
 20
39.3727080927
 30
0.0
 10
42.216824238
 20
39.3416142007
 30
0.0
 10
42.1097758973
 20
39.2700273805
 30
0.0
 10
41.9032512584
 20
39.0963012613
 30
0.0
 10
41.6681715048
 20
38.8287881847
 30
0.0
 10
41.4411931118
 20
38.4595604636
 30
0.0
 10
41.2817060226
 20
38.0649865864
 30
0.0
 10
41.2136605053
 20
37.7313793722
 30
0.0
 10
41.2072107967
 20
37.4805955382
 30
0.0
 10
41.2253966101
 20
37.3121145462
 30
0.0
 10
41.2662230048
 20
37.1610623964
 30
0.0
 10
41.3292402892
 20
37.030589784
 30
0.0
 10
41.4136283851
 20
36.9239373609
 30
0.0
 10
41.483710148
 20
36.8702575822
 30
0.0
 10
41.5206934858
 20
36.8489090151
 30
0.0
  0
SPLINE
  5
281
100
AcDbEntity
  8
0
100
AcDbSpline
 62
7
  6
BYLAYER
 70
0
 71
3
 72
15
 73
11
 74
0
 42
0.0000001
 43
0.0000001
 44
0.0000000001
 40
0.0
 40
0.0
 40
0.0
 40
0.0
 40
0.1141462769
 40
0.2373347432
 40
0.3669750849
 40
0.4999983967
 40
0.6330219315
 40
0.7626629244
 40
0.8858524171
 40
1.0
 40
1.0
 40
1.0
 40
1.0
 10
33.2696865578
 20
45.7943214779
 30
0.0
 10
33.1244762335
 20
45.7104847584
 30
0.0
 10
32.8376403043
 20
45.5093916728
 30
0.0
 10
32.4429460398
 20
45.1401668094
 30
0.0
 10
32.0792593866
 20
44.7036528569
 30
0.0
 10
31.7601927494
 20
44.2163452331
 30
0.0
 10
31.4977074075
 20
43.6963694713
 30
0.0
 10
31.3015198169
 20
43.1631472006
 30
0.0
 10
31.1791091815
 20
42.6367149616
 30
0.0
 10
31.1483750462
 20
42.2877578728
 30
0.0
 10
31.1483750462
 20
42.1200817648
 30
0.0
  0
SPLINE
  5
282
100
AcDbEntity
  8
0
100
AcDbSpline
 62
7
  6
BYLAYER
 70
0
 71
3
 72
22
 73
18
 74
0
 42
0.0000001
 43
0.0000001
 44
0.0000000001
 40
0.0
 40
0.0
 40
0.0
 40
0.0
 40
0.0659072545
 40
0.1367656715
 40
0.2112471213
 40
0.2879771569
 40
0.4415912599
 40
0.5154717999
 40
0.5854207609
 40
0.6503247249
 40
0.7095340557
 40
0.7630189341
 40
0.8115725218
 40
0.8569726925
 40
0.9017856667
 40
0.9487316084
 40
1.0
 40
1.0
 40
1.0
 40
1.0
 10
42.4620423296
 20
39.0412619719
 30
0.0
 10
42.4082199077
 20
39.0101877677
 30
0.0
 10
42.3016164008
 20
38.9366887321
 30
0.0
 10
42.1532226053
 20
38.803140928
 30
0.0
 10
42.0144467892
 20
38.645695794
 30
0.0
 10
41.8481841055
 20
38.4107830133
 30
0.0
 10
41.7184814878
 20
38.1521014485
 30
0.0
 10
41.6345643943
 20
37.8839825219
 30
0.0
 10
41.5980705911
 20
37.6900243873
 30
0.0
 10
41.5885003808
 20
37.5066485143
 30
0.0
 10
41.6062259034
 20
37.3392799345
 30
0.0
 10
41.6511900222
 20
37.1928195271
 30
0.0
 10
41.7230352829
 20
37.0719280276
 30
0.0
 10
41.8204542527
 20
36.9815377001
 30
0.0
 10
41.9399188308
 20
36.9265992479
 30
0.0
 10
42.0754210525
 20
36.9091518186
 30
0.0
 10
42.1682130568
 20
36.9214138234
 30
0.0
 10
42.2152673243
 20
36.9325089207
 30
0.0
  0
SPLINE
  5
283
100
AcDbEntity
  8
0
100
AcDbSpline
 62
7
  6
BYLAYER
 70
0
 71
3
 72
9
 73
5
 74
0
 42
0.0000001
 43
0.0000001
 44
0.0000000001
 40
0.0
 40
0.0
 40
0.0
 40
0.0
 40
0.2384148758
 40
1.0
 40
1.0
 40
1.0
 40
1.0
 10
42.2582091139
 20
36.9440099679
 30
0.0
 10
42.2751852703
 20
36.9490913906
 30
0.0
 10
42.3456648962
 20
36.9728075926
 30
0.0
 10
42.4130205993
 20
37.0053841136
 30
0.0
 10
42.4620423296
 20
37.0336866538
 30
0.0
  0
SPLINE
  5
284
100
AcDbEntity
  8
0
100
AcDbSpline
 62
7
  6
BYLAYER
 70
0
 71
3
 72
12
 73
8
 74
0
 42
0.0000001
 43
0.0000001
 44
0.0000000001
 40
0.0
 40
0.0
 40
0.0
 40
0.0
 40
0.2894842122
 40
0.5486744391
 40
0.7816258062
 40
0.8918290155
 40
1.0
 40
1.0
 40
1.0
 40
1.0
 10
33.2696865578
 20
22.5240025897
 30
0.0
 10
33.2038692558
 20
22.4860031794
 30
0.0
 10
33.0729020207
 20
22.4237369169
 30
0.0
 10
32.8717977909
 20
22.3750513731
 30
0.0
 10
32.7111708753
 20
22.3793398425
 30
0.0
 10
32.596531849
 20
22.4110984531
 30
0.0
 10
32.5442969457
 20
22.4355182568
 30
0.0
 10
32.5197030255
 20
22.4497172449
 30
0.0
  0
SPLINE
  5
285
100
AcDbEntity
  8
0
100
AcDbSpline
 62
7
  6
BYLAYER
 70
0
 71
3
 72
15
 73
11
 74
0
 42
0.0000001
 43
0.0000001
 44
0.0000000001
 40
0.0
 40
0.0
 40
0.0
 40
0.0
 40
0.1141242661
 40
0.2373486253
 40
0.3669740476
 40
0.5000015346
 40
0.6330288076
 40
0.7626536034
 40
0.8858770013
 40
1.0
 40
1.0
 40
1.0
 40
1.0
 10
51.3008344068
 20
34.1589821391
 30
0.0
 10
51.3008344068
 20
34.0751614061
 30
0.0
 10
51.2854438814
 20
33.9006776865
 30
0.0
 10
51.2242712745
 20
33.63745819
 30
0.0
 10
51.1261579096
 20
33.3708359837
 30
0.0
 10
50.994932054
 20
33.1108468217
 30
0.0
 10
50.835389237
 20
32.8672068981
 30
0.0
 10
50.6535460859
 20
32.6489273602
 30
0.0
 10
50.4561796023
 20
32.4643415073
 30
0.0
 10
50.3127688373
 20
32.363771996
 30
0.0
 10
50.240178651
 20
32.3218622826
 30
0.0
  0
SPLINE
  5
286
100
AcDbEntity
  8
0
100
AcDbSpline
 62
7
  6
BYLAYER
 70
0
 71
3
 72
12
 73
8
 74
0
 42
0.0000001
 43
0.0000001
 44
0.0000000001
 40
0.0
 40
0.0
 40
0.0
 40
0.0
 40
0.1081706614
 40
0.2183758181
 40
0.451330108
 40
0.71051863
 40
1.0
 40
1.0
 40
1.0
 40
1.0
 10
43.0206680346
 20
39.4469999189
 30
0.0
 10
42.9960731172
 20
39.4611972919
 30
0.0
 10
42.9438369671
 20
39.4856154971
 30
0.0
 10
42.8291967987
 20
39.5173764895
 30
0.0
 10
42.6685677072
 20
39.5216637786
 30
0.0
 10
42.4674638831
 20
39.4729743943
 30
0.0
 10
42.3364977423
 20
39.4107073183
 30
0.0
 10
42.2706807602
 20
39.3727080927
 30
0.0
  0
SPLINE
  5
287
100
AcDbEntity
  8
0
100
AcDbSpline
 62
7
  6
BYLAYER
 70
0
 71
3
 72
9
 73
5
 74
0
 42
0.0000001
 43
0.0000001
 44
0.0000000001
 40
0.0
 40
0.0
 40
0.0
 40
0.0
 40
0.2620256903
 40
1.0
 40
1.0
 40
1.0
 40
1.0
 10
43.3313166688
 20
38.5393554582
 30
0.0
 10
43.3313167303
 20
38.5583376662
 30
0.0
 10
43.3295489226
 20
38.6307535343
 30
0.0
 10
43.3203621171
 20
38.703121028
 30
0.0
 10
43.3083695052
 20
38.7552204346
 30
0.0
  0
SPLINE
  5
288
100
AcDbEntity
  8
0
100
AcDbSpline
 62
7
  6
BYLAYER
 70
0
 71
3
 72
16
 73
12
 74
0
 42
0.0000001
 43
0.0000001
 44
0.0000000001
 40
0.0
 40
0.0
 40
0.0
 40
0.0
 40
0.1314618748
 40
0.2515569015
 40
0.364193076
 40
0.4749220973
 40
0.589748828
 40
0.713752865
 40
0.7803937643
 40
0.8503636703
 40
1.0
 40
1.0
 40
1.0
 40
1.0
 10
43.3083695052
 20
38.7552204346
 30
0.0
 10
43.297812949
 20
38.8010811964
 30
0.0
 10
43.2698184262
 20
38.8874354788
 30
0.0
 10
43.202149369
 20
39.0003744711
 30
0.0
 10
43.112122714
 20
39.0865538389
 30
0.0
 10
43.0024497278
 20
39.1418861213
 30
0.0
 10
42.877821216
 20
39.1645134484
 30
0.0
 10
42.7677426193
 20
39.1563949543
 30
0.0
 10
42.6767484543
 20
39.1353251303
 30
0.0
 10
42.579464587
 20
39.1027341514
 30
0.0
 10
42.508431979
 20
39.0680448886
 30
0.0
 10
42.4620423296
 20
39.0412619719
 30
0.0
  0
SPLINE
  5
289
100
AcDbEntity
  8
0
100
AcDbSpline
 62
7
  6
BYLAYER
 70
0
 71
3
 72
15
 73
11
 74
0
 42
0.0000001
 43
0.0000001
 44
0.0000000001
 40
0.0
 40
0.0
 40
0.0
 40
0.0
 40
0.1018256002
 40
0.20677095
 40
0.3174961175
 40
0.4359559385
 40
0.5633012648
 40
0.6999612764
 40
0.8457564967
 40
1.0
 40
1.0
 40
1.0
 40
1.0
 10
42.5477871425
 20
41.4520289106
 30
0.0
 10
42.6109499165
 20
41.4155620449
 30
0.0
 10
42.7314070462
 20
41.3270342923
 30
0.0
 10
42.8828122438
 20
41.1553183842
 30
0.0
 10
43.0040779917
 20
40.947417451
 30
0.0
 10
43.0935570584
 20
40.70708814
 30
0.0
 10
43.1503850137
 20
40.4382224417
 30
0.0
 10
43.1740056026
 20
40.1449464794
 30
0.0
 10
43.1641535855
 20
39.831758604
 30
0.0
 10
43.1362106931
 20
39.6183047076
 30
0.0
 10
43.1171031293
 20
39.5094905467
 30
0.0
  0
SPLINE
  5
28A
100
AcDbEntity
  8
0
100
AcDbSpline
 62
7
  6
BYLAYER
 70
0
 71
3
 72
9
 73
5
 74
0
 42
0.0000001
 43
0.0000001
 44
0.0000000001
 40
0.0
 40
0.0
 40
0.0
 40
0.0
 40
0.513382823
 40
1.0
 40
1.0
 40
1.0
 40
1.0
 10
41.5562080479
 20
36.7693442329
 30
0.0
 10
41.4750195582
 20
36.6993334838
 30
0.0
 10
41.3111114157
 20
36.5694723384
 30
0.0
 10
41.1358254821
 20
36.4552565937
 30
0.0
 10
41.0478228793
 20
36.4044485705
 30
0.0
  0
SPLINE
  5
28B
100
AcDbEntity
  8
0
100
AcDbSpline
 62
7
  6
BYLAYER
 70
0
 71
3
 72
9
 73
5
 74
0
 42
0.0000001
 43
0.0000001
 44
0.0000000001
 40
0.0
 40
0.0
 40
0.0
 40
0.0
 40
0.2362213427
 40
1.0
 40
1.0
 40
1.0
 40
1.0
 10
32.2739946461
 20
22.8118349705
 30
0.0
 10
32.297919986
 20
22.8178399225
 30
0.0
 10
32.3981383253
 20
22.8474769633
 30
0.0
 10
32.4935046315
 20
22.8923647282
 30
0.0
 10
32.5625768327
 20
22.9322433442
 30
0.0
  0
SPLINE
  5
28C
100
AcDbEntity
  8
0
100
AcDbSpline
 62
7
  6
BYLAYER
 70
0
 71
3
 72
12
 73
8
 74
0
 42
0.0000001
 43
0.0000001
 44
0.0000000001
 40
0.0
 40
0.0
 40
0.0
 40
0.0
 40
0.1081702127
 40
0.2183727686
 40
0.4513235059
 40
0.7105143194
 40
1.0
 40
1.0
 40
1.0
 40
1.0
 10
50.9901621834
 20
54.4417128899
 30
0.0
 10
51.0147569034
 20
54.42751344
 30
0.0
 10
51.0620246595
 20
54.3944862732
 30
0.0
 10
51.1468518983
 20
54.3110832998
 30
0.0
 10
51.2308831838
 20
54.1741155383
 30
0.0
 10
51.2892747413
 20
53.9756031038
 30
0.0
 10
51.3008344068
 20
53.8310427098
 30
0.0
 10
51.3008344068
 20
53.7550401502
 30
0.0
  0
SPLINE
  5
28D
100
AcDbEntity
  8
0
100
AcDbSpline
 62
7
  6
BYLAYER
 70
0
 71
3
 72
9
 73
5
 74
0
 42
0.0000001
 43
0.0000001
 44
0.0000000001
 40
0.0
 40
0.0
 40
0.0
 40
0.0
 40
0.264143001
 40
1.0
 40
1.0
 40
1.0
 40
1.0
 10
50.5937246817
 20
54.1632809047
 30
0.0
 10
50.5937246817
 20
54.1908631436
 30
0.0
 10
50.5906336606
 20
54.2952152318
 30
0.0
 10
50.5747697649
 20
54.3995418508
 30
0.0
 10
50.5537036784
 20
54.473437113
 30
0.0
  0
SPLINE
  5
28E
100
AcDbEntity
  8
0
100
AcDbSpline
 62
7
  6
BYLAYER
 70
0
 71
3
 72
15
 73
11
 74
0
 42
0.0000001
 43
0.0000001
 44
0.0000000001
 40
0.0
 40
0.0
 40
0.0
 40
0.0
 40
0.1141229605
 40
0.2373462928
 40
0.366971064
 40
0.4999983279
 40
0.633025824
 40
0.762651271
 40
0.8858756957
 40
1.0
 40
1.0
 40
1.0
 40
1.0
 10
49.5330689258
 20
32.7301030371
 30
0.0
 10
49.6056590878
 20
32.7720127365
 30
0.0
 10
49.7490698052
 20
32.8725821821
 30
0.0
 10
49.9464362177
 20
33.0571679737
 30
0.0
 10
50.1282793468
 20
33.2754474331
 30
0.0
 10
50.2878221827
 20
33.5190873231
 30
0.0
 10
50.4190480769
 20
33.7790764854
 30
0.0
 10
50.5171614987
 20
34.0456987501
 30
0.0
 10
50.5783341232
 20
34.3089183388
 30
0.0
 10
50.5937246817
 20
34.4834021325
 30
0.0
 10
50.5937246817
 20
34.5672228936
 30
0.0
  0
SPLINE
  5
28F
100
AcDbEntity
  8
0
100
AcDbSpline
 62
7
  6
BYLAYER
 70
0
 71
3
 72
14
 73
10
 74
0
 42
0.0000001
 43
0.0000001
 44
0.0000000001
 40
0.0
 40
0.0
 40
0.0
 40
0.0
 40
0.2892450366
 40
0.4225669035
 40
0.548514788
 40
0.66789092
 40
0.7818650171
 40
0.891954964
 40
1.0
 40
1.0
 40
1.0
 40
1.0
 10
41.0478228793
 20
36.4044485705
 30
0.0
 10
40.9161548847
 20
36.3284304722
 30
0.0
 10
40.7139665604
 20
36.2322259374
 30
0.0
 10
40.4367122177
 20
36.1513473649
 30
0.0
 10
40.2399013366
 20
36.1183398776
 30
0.0
 10
40.0505575248
 20
36.111767393
 30
0.0
 10
39.8704458434
 20
36.1318843472
 30
0.0
 10
39.7014591622
 20
36.1785544668
 30
0.0
 10
39.5970420682
 20
36.2274867931
 30
0.0
 10
39.547858616
 20
36.2558827332
 30
0.0
  0
SPLINE
  5
290
100
AcDbEntity
  8
0
100
AcDbSpline
 62
7
  6
BYLAYER
 70
0
 71
3
 72
14
 73
10
 74
0
 42
0.0000001
 43
0.0000001
 44
0.0000000001
 40
0.0
 40
0.0
 40
0.0
 40
0.0
 40
0.2892484383
 40
0.422572185
 40
0.5485194239
 40
0.6678937481
 40
0.7818658678
 40
0.8919548143
 40
1.0
 40
1.0
 40
1.0
 40
1.0
 10
31.1483750462
 20
22.5240237537
 30
0.0
 10
31.1483750462
 20
22.3719793043
 30
0.0
 10
31.1661563994
 20
22.1487657305
 30
0.0
 10
31.2347430336
 20
21.868203846
 30
0.0
 10
31.3045680838
 20
21.6812509038
 30
0.0
 10
31.3935513023
 20
21.5139843123
 30
0.0
 10
31.5010338641
 20
21.368059662
 30
0.0
 10
31.6259490188
 20
21.2450451787
 30
0.0
 10
31.7205374262
 20
21.1790810926
 30
0.0
 10
31.7697230344
 20
21.1506844083
 30
0.0
  0
SPLINE
  5
291
100
AcDbEntity
  8
0
100
AcDbSpline
 62
7
  6
BYLAYER
 70
0
 71
3
 72
9
 73
5
 74
0
 42
0.0000001
 43
0.0000001
 44
0.0000000001
 40
0.0
 40
0.0
 40
0.0
 40
0.0
 40
0.4908137645
 40
1.0
 40
1.0
 40
1.0
 40
1.0
 10
13.7434279166
 20
21.8574663831
 30
0.0
 10
13.7960720976
 20
21.6886974905
 30
0.0
 10
13.9273080643
 20
21.3519622238
 30
0.0
 10
14.1003978238
 20
21.0349442347
 30
0.0
 10
14.1974121962
 20
20.8792964856
 30
0.0
  0
SPLINE
  5
292
100
AcDbEntity
  8
0
100
AcDbSpline
 62
7
  6
BYLAYER
 70
0
 71
3
 72
14
 73
10
 74
0
 42
0.0000001
 43
0.0000001
 44
0.0000000001
 40
0.0
 40
0.0
 40
0.0
 40
0.0
 40
0.1080459381
 40
0.218135523
 40
0.3321080659
 40
0.4514825476
 40
0.5774296596
 40
0.71075301
 40
1.0
 40
1.0
 40
1.0
 40
1.0
 10
51.7401421744
 20
55.7407457264
 30
0.0
 10
51.6909581763
 20
55.7691414812
 30
0.0
 10
51.5865400947
 20
55.8180720034
 30
0.0
 10
51.4175541439
 20
55.8647409077
 30
0.0
 10
51.2374448191
 20
55.8848592547
 30
0.0
 10
51.0481034177
 20
55.8782872556
 30
0.0
 10
50.8512929511
 20
55.8452821838
 30
0.0
 10
50.5740378933
 20
55.7644026384
 30
0.0
 10
50.3718473168
 20
55.6681996567
 30
0.0
 10
50.240178651
 20
55.5921811708
 30
0.0
  0
ENDSEC
  0
SECTION
  2
OBJECTS
  0
DICTIONARY
  5
C
100
AcDbDictionary
280
0
281
1
  3
ACAD_GROUP
350
D
  3
ACAD_MLINESTYLE
350
17
  3
ACAD_LAYOUT
350
1A
  3
ACAD_PLOTSETTINGS
350
19
  3
ACAD_PLOTSTYLENAME
350
E
  0
DICTIONARY
  5
D
102
{ACAD_REACTORS
330
C
102
}
100
AcDbDictionary
280
0
281
1
  0
ACDBDICTIONARYWDFLT
  5
E
102
{ACAD_REACTORS
330
C
102
}
100
AcDbDictionary
281
1
  3
Normal
350
F
100
AcDbDictionaryWithDefault
340
F
  0
DICTIONARY
  5
17
102
{ACAD_REACTORS
330
C
102
}
100
AcDbDictionary
280
0
281
1
  3
Standard
350
18
  0
DICTIONARY
  5
19
102
{ACAD_REACTORS
330
C
102
}
100
AcDbDictionary
281
1
  0
DICTIONARY
  5
1A
102
{ACAD_REACTORS
330
C
102
}
100
AcDbDictionary
281
1
  3
Model
350
293
  3
Layout1
350
294
  0
ACDBPLACEHOLDER
  5
F
102
{ACAD_REACTORS
330
E
102
}
  0
MLINESTYLE
  5
18
102
{ACAD_REACTORS
330
17
102
}
100
AcDbMlineStyle
  2
STANDARD
 70
0
  3

 62
256
 51
90.0
 52
90.0
 71
2
 49
0.5
 62
256
  6
BYLAYER
 49
-0.5
 62
256
  6
BYLAYER
  0
LAYOUT
  5
293
102
{ACAD_REACTORS
330
1A
102
}
100
AcDbPlotSettings
  1

  2
none_device
  4

  6

 40
0.0
 41
0.0
 42
0.0
 43
0.0
 44
210.0
 45
297.0
 46
0.0
 47
0.0
 48
0.0
 49
0.0
140
0.0
141
0.0
142
1.0
143
1.0
 70
1024
 72
1
 73
0
 74
0
  7

 75
0
147
1.0
148
0.0
149
0.0
100
AcDbLayout
  1
Model
 70
0
 71
0
 10
0.0
 20
0.0
 11
210.0
 21
297.0
 12
0.0
 22
0.0
 32
0.0
 14
0.0
 24
0.0
 34
0.0
 15
0.0
 25
0.0
 35
0.0
146
0.0
 13
0.0
 23
0.0
 33
0.0
 16
1.0
 26
0.0
 36
0.0
 17
0.0
 27
1.0
 37
0.0
 76
0
330
210
345
0
346
0
  0
LAYOUT
  5
294
102
{ACAD_REACTORS
330
1A
102
}
100
AcDbPlotSettings
  1

  2
none_device
  4

  6

 40
0.0
 41
0.0
 42
0.0
 43
0.0
 44
210.0
 45
297.0
 46
0.0
 47
0.0
 48
0.0
 49
0.0
140
0.0
141
0.0
142
1.0
143
1.0
 70
0
 72
1
 73
0
 74
0
  7

 75
0
147
1.0
148
0.0
149
0.0
100
AcDbLayout
  1
Layout1
 70
0
 71
1
 10
0.0
 20
0.0
 11
210.0
 21
297.0
 12
0.0
 22
0.0
 32
0.0
 14
0.0
 24
0.0
 34
0.0
 15
0.0
 25
0.0
 35
0.0
146
0.0
 13
0.0
 23
0.0
 33
0.0
 16
1.0
 26
0.0
 36
0.0
 17
0.0
 27
1.0
 37
0.0
 76
0
330
211
345
0
346
0
  0
ENDSEC
  0
EOF
