  0
SECTION
  2
HEADER
  9
$ACADVER
  1
AC1006
  9
$EXTMIN
 10
-2.013634
 20
-3.734988
  9
$EXTMAX
 10
2.012000
 20
3.737000
  9
$LTSCALE
 40
0.000394
  9
$PDMODE
 70
    35
  9
$PDSIZE
 40
0.000315
  0
ENDSEC
  0
SECTION
  2
TABLES
  0
TABLE
  2
LTYPE
 70
     9
  0
LTYPE
  2
CONTINUOUS
 70
    64
  3
Solid line
 72
    65
 73
     0
 40
0.000000
  0
LTYPE
  2
DASHED
 70
    64
  3
__ __ __ __ __ __ __ __ __ __ __ __ __ __ __
 72
    65
 73
     2
 40
0.000003
 49
0.000002
 49
-0.000001
  0
LTYPE
  2
HIDDEN
 70
    64
  3
 _ _ _ _ _ _ _ _ _ _ _ _ _ _ _ _ _ _ _ _ _ _
 72
    65
 73
     2
 40
0.000001
 49
0.000001
 49
-0.000000
  0
LTYPE
  2
CENTER
 70
    64
  3
____ _ ____ _ ____ _ ____ _ ____ _ ____ _ ____
 72
    65
 73
     4
 40
0.000008
 49
0.000005
 49
-0.000001
 49
0.000001
 49
-0.000001
  0
LTYPE
  2
PHANTOM
 70
    64
  3
_____ _ _ _____ _ _ _____ _ _ _____ _ _ ____
 72
    65
 73
     6
 40
0.000010
 49
0.000005
 49
-0.000001
 49
0.000001
 49
-0.000001
 49
0.000001
 49
-0.000001
  0
LTYPE
  2
DOT
 70
    64
  3
...............................................
 72
    65
 73
     2
 40
0.000001
 49
0.000000
 49
-0.000001
  0
LTYPE
  2
DASHDOT
 70
    64
  3
__ . __ . __ . __ . __ . __ . __ . __ . __ . __
 72
    65
 73
     4
 40
0.000004
 49
0.000002
 49
-0.000001
 49
0.000000
 49
-0.000001
  0
LTYPE
  2
BORDER
 70
    64
  3
__ __ . __ __ . __ __ . __ __ . __ __ . __ __
 72
    65
 73
     6
 40
0.000007
 49
0.000002
 49
-0.000001
 49
0.000002
 49
-0.000001
 49
0.000000
 49
-0.000001
  0
LTYPE
  2
DIVIDE
 70
    64
  3
__ . . __ . . __ . . __ . . __ . . __ . . __
 72
    65
 73
     6
 40
0.000005
 49
0.000002
 49
-0.000001
 49
0.000000
 49
-0.000001
 49
0.000000
 49
-0.000001
  0
LTYPE
  2
DOTDOT
 70
    64
  3
 . .  . .  . .  . .  . .  . . 
 72
    65
 73
     5
 40
0.000002
 49
-0.000001
 49
0.000000
 49
-0.000001
 49
0.000000
 49
-0.000001
  0
ENDTAB
  0
TABLE
  2
STYLE
 70
     0
  0
ENDTAB
  0
TABLE
  2
LAYER
 70
     3
  0
LAYER
  2
FOREGROUND
 70
    64
 62
     7
  6
CONTINUOUS
  0
LAYER
  2
BACKGROUND
 70
    65
 62
    -7
  6
CONTINUOUS
  0
LAYER
  2
PLAN_1
 70
    64
 62
     7
  6
CONTINUOUS
  0
ENDTAB
  0
ENDSEC
  0
SECTION
  2
ENTITIES
  0
POLYLINE
  8
PLAN_1
  6
CONTINUOUS
 66
     1
 40
0.003000
 41
0.003000
  0
VERTEX
  8
PLAN_1
  6
CONTINUOUS
 10
0.136063
 20
-3.700429
  0
VERTEX
  8
PLAN_1
  6
CONTINUOUS
 10
-0.020846
 20
-3.700429
  0
VERTEX
  8
PLAN_1
  6
CONTINUOUS
 10
-0.020846
 20
-3.678012
  0
VERTEX
  8
PLAN_1
  6
CONTINUOUS
 10
0.101508
 20
-3.524839
  0
VERTEX
  8
PLAN_1
  6
CONTINUOUS
 10
-0.011508
 20
-3.524839
  0
VERTEX
  8
PLAN_1
  6
CONTINUOUS
 10
-0.011508
 20
-3.501020
  0
VERTEX
  8
PLAN_1
  6
CONTINUOUS
 10
0.136063
 20
-3.501020
  0
VERTEX
  8
PLAN_1
  6
CONTINUOUS
 10
0.136063
 20
-3.524370
  0
VERTEX
  8
PLAN_1
  6
CONTINUOUS
 10
0.013244
 20
-3.676610
  0
VERTEX
  8
PLAN_1
  6
CONTINUOUS
 10
0.136063
 20
-3.676610
  0
VERTEX
  8
PLAN_1
  6
CONTINUOUS
 10
0.136063
 20
-3.700429
  0
SEQEND
  8
0
  0
POLYLINE
  8
PLAN_1
  6
CONTINUOUS
 66
     1
 40
0.003000
 41
0.003000
  0
VERTEX
  8
PLAN_1
  6
CONTINUOUS
 10
0.303248
 20
-3.560795
  0
VERTEX
  8
PLAN_1
  6
CONTINUOUS
 10
0.301850
 20
-3.554724
  0
VERTEX
  8
PLAN_1
  6
CONTINUOUS
 10
0.299516
 20
-3.549122
  0
VERTEX
  8
PLAN_1
  6
CONTINUOUS
 10
0.297177
 20
-3.543984
  0
VERTEX
  8
PLAN_1
  6
CONTINUOUS
 10
0.294378
 20
-3.539780
  0
VERTEX
  8
PLAN_1
  6
CONTINUOUS
 10
0.291106
 20
-3.536047
  0
VERTEX
  8
PLAN_1
  6
CONTINUOUS
 10
0.287370
 20
-3.532311
  0
VERTEX
  8
PLAN_1
  6
CONTINUOUS
 10
0.283638
 20
-3.529508
  0
VERTEX
  8
PLAN_1
  6
CONTINUOUS
 10
0.279902
 20
-3.527173
  0
VERTEX
  8
PLAN_1
  6
CONTINUOUS
 10
0.275697
 20
-3.525303
  0
VERTEX
  8
PLAN_1
  6
CONTINUOUS
 10
0.271492
 20
-3.523437
  0
VERTEX
  8
PLAN_1
  6
CONTINUOUS
 10
0.267760
 20
-3.522035
  0
VERTEX
  8
PLAN_1
  6
CONTINUOUS
 10
0.263555
 20
-3.521102
  0
VERTEX
  8
PLAN_1
  6
CONTINUOUS
 10
0.255150
 20
-3.520169
  0
VERTEX
  8
PLAN_1
  6
CONTINUOUS
 10
0.247677
 20
-3.519701
  0
VERTEX
  8
PLAN_1
  6
CONTINUOUS
 10
0.241138
 20
-3.519701
  0
VERTEX
  8
PLAN_1
  6
CONTINUOUS
 10
0.234602
 20
-3.520634
  0
VERTEX
  8
PLAN_1
  6
CONTINUOUS
 10
0.228063
 20
-3.522504
  0
VERTEX
  8
PLAN_1
  6
CONTINUOUS
 10
0.221992
 20
-3.524370
  0
VERTEX
  8
PLAN_1
  6
CONTINUOUS
 10
0.216390
 20
-3.527173
  0
VERTEX
  8
PLAN_1
  6
CONTINUOUS
 10
0.211252
 20
-3.530909
  0
VERTEX
  8
PLAN_1
  6
CONTINUOUS
 10
0.206114
 20
-3.534646
  0
VERTEX
  8
PLAN_1
  6
CONTINUOUS
 10
0.201445
 20
-3.539315
  0
VERTEX
  8
PLAN_1
  6
CONTINUOUS
 10
0.197240
 20
-3.544917
  0
VERTEX
  8
PLAN_1
  6
CONTINUOUS
 10
0.193504
 20
-3.550524
  0
VERTEX
  8
PLAN_1
  6
CONTINUOUS
 10
0.190236
 20
-3.557059
  0
VERTEX
  8
PLAN_1
  6
CONTINUOUS
 10
0.187433
 20
-3.564067
  0
VERTEX
  8
PLAN_1
  6
CONTINUOUS
 10
0.185098
 20
-3.572004
  0
VERTEX
  8
PLAN_1
  6
CONTINUOUS
 10
0.183697
 20
-3.580409
  0
VERTEX
  8
PLAN_1
  6
CONTINUOUS
 10
0.182764
 20
-3.589283
  0
VERTEX
  8
PLAN_1
  6
CONTINUOUS
 10
0.182295
 20
-3.598622
  0
VERTEX
  8
PLAN_1
  6
CONTINUOUS
 10
0.182764
 20
-3.607496
  0
VERTEX
  8
PLAN_1
  6
CONTINUOUS
 10
0.183232
 20
-3.615902
  0
VERTEX
  8
PLAN_1
  6
CONTINUOUS
 10
0.184165
 20
-3.623843
  0
VERTEX
  8
PLAN_1
  6
CONTINUOUS
 10
0.185567
 20
-3.631315
  0
VERTEX
  8
PLAN_1
  6
CONTINUOUS
 10
0.187902
 20
-3.638783
  0
VERTEX
  8
PLAN_1
  6
CONTINUOUS
 10
0.190236
 20
-3.645791
  0
VERTEX
  8
PLAN_1
  6
CONTINUOUS
 10
0.193504
 20
-3.651862
  0
VERTEX
  8
PLAN_1
  6
CONTINUOUS
 10
0.196776
 20
-3.657933
  0
VERTEX
  8
PLAN_1
  6
CONTINUOUS
 10
0.200976
 20
-3.663071
  0
VERTEX
  8
PLAN_1
  6
CONTINUOUS
 10
0.205646
 20
-3.667740
  0
VERTEX
  8
PLAN_1
  6
CONTINUOUS
 10
0.211252
 20
-3.671941
  0
VERTEX
  8
PLAN_1
  6
CONTINUOUS
 10
0.217323
 20
-3.675213
  0
VERTEX
  8
PLAN_1
  6
CONTINUOUS
 10
0.223858
 20
-3.678012
  0
VERTEX
  8
PLAN_1
  6
CONTINUOUS
 10
0.231331
 20
-3.679882
  0
VERTEX
  8
PLAN_1
  6
CONTINUOUS
 10
0.239736
 20
-3.681283
  0
VERTEX
  8
PLAN_1
  6
CONTINUOUS
 10
0.248610
 20
-3.681748
  0
VERTEX
  8
PLAN_1
  6
CONTINUOUS
 10
0.251882
 20
-3.681748
  0
VERTEX
  8
PLAN_1
  6
CONTINUOUS
 10
0.255614
 20
-3.681283
  0
VERTEX
  8
PLAN_1
  6
CONTINUOUS
 10
0.259350
 20
-3.680815
  0
VERTEX
  8
PLAN_1
  6
CONTINUOUS
 10
0.263555
 20
-3.679882
  0
VERTEX
  8
PLAN_1
  6
CONTINUOUS
 10
0.267760
 20
-3.678480
  0
VERTEX
  8
PLAN_1
  6
CONTINUOUS
 10
0.271961
 20
-3.676610
  0
VERTEX
  8
PLAN_1
  6
CONTINUOUS
 10
0.275697
 20
-3.674276
  0
VERTEX
  8
PLAN_1
  6
CONTINUOUS
 10
0.279902
 20
-3.671941
  0
VERTEX
  8
PLAN_1
  6
CONTINUOUS
 10
0.284102
 20
-3.668673
  0
VERTEX
  8
PLAN_1
  6
CONTINUOUS
 10
0.287839
 20
-3.664469
  0
VERTEX
  8
PLAN_1
  6
CONTINUOUS
 10
0.291575
 20
-3.660268
  0
VERTEX
  8
PLAN_1
  6
CONTINUOUS
 10
0.294843
 20
-3.655130
  0
VERTEX
  8
PLAN_1
  6
CONTINUOUS
 10
0.298114
 20
-3.649059
  0
VERTEX
  8
PLAN_1
  6
CONTINUOUS
 10
0.300913
 20
-3.642520
  0
VERTEX
  8
PLAN_1
  6
CONTINUOUS
 10
0.303248
 20
-3.635047
  0
VERTEX
  8
PLAN_1
  6
CONTINUOUS
 10
0.305587
 20
-3.627110
  0
VERTEX
  8
PLAN_1
  6
CONTINUOUS
 10
0.331272
 20
-3.627110
  0
VERTEX
  8
PLAN_1
  6
CONTINUOUS
 10
0.330335
 20
-3.633650
  0
VERTEX
  8
PLAN_1
  6
CONTINUOUS
 10
0.328933
 20
-3.640185
  0
VERTEX
  8
PLAN_1
  6
CONTINUOUS
 10
0.327067
 20
-3.646256
  0
VERTEX
  8
PLAN_1
  6
CONTINUOUS
 10
0.325201
 20
-3.651862
  0
VERTEX
  8
PLAN_1
  6
CONTINUOUS
 10
0.322862
 20
-3.657465
  0
VERTEX
  8
PLAN_1
  6
CONTINUOUS
 10
0.320528
 20
-3.662134
  0
VERTEX
  8
PLAN_1
  6
CONTINUOUS
 10
0.318193
 20
-3.666807
  0
VERTEX
  8
PLAN_1
  6
CONTINUOUS
 10
0.315394
 20
-3.671008
  0
VERTEX
  8
PLAN_1
  6
CONTINUOUS
 10
0.312591
 20
-3.674744
  0
VERTEX
  8
PLAN_1
  6
CONTINUOUS
 10
0.309323
 20
-3.678480
  0
VERTEX
  8
PLAN_1
  6
CONTINUOUS
 10
0.306051
 20
-3.681748
  0
VERTEX
  8
PLAN_1
  6
CONTINUOUS
 10
0.302783
 20
-3.685020
  0
VERTEX
  8
PLAN_1
  6
CONTINUOUS
 10
0.296244
 20
-3.690154
  0
VERTEX
  8
PLAN_1
  6
CONTINUOUS
 10
0.289240
 20
-3.694358
  0
VERTEX
  8
PLAN_1
  6
CONTINUOUS
 10
0.282236
 20
-3.698094
  0
VERTEX
  8
PLAN_1
  6
CONTINUOUS
 10
0.275697
 20
-3.700429
  0
VERTEX
  8
PLAN_1
  6
CONTINUOUS
 10
0.268693
 20
-3.702295
  0
VERTEX
  8
PLAN_1
  6
CONTINUOUS
 10
0.262622
 20
-3.703697
  0
VERTEX
  8
PLAN_1
  6
CONTINUOUS
 10
0.251882
 20
-3.705098
  0
VERTEX
  8
PLAN_1
  6
CONTINUOUS
 10
0.244409
 20
-3.705567
  0
VERTEX
  8
PLAN_1
  6
CONTINUOUS
 10
0.236004
 20
-3.705098
  0
VERTEX
  8
PLAN_1
  6
CONTINUOUS
 10
0.227594
 20
-3.704165
  0
VERTEX
  8
PLAN_1
  6
CONTINUOUS
 10
0.219189
 20
-3.702295
  0
VERTEX
  8
PLAN_1
  6
CONTINUOUS
 10
0.211252
 20
-3.699961
  0
VERTEX
  8
PLAN_1
  6
CONTINUOUS
 10
0.203311
 20
-3.696224
  0
VERTEX
  8
PLAN_1
  6
CONTINUOUS
 10
0.195839
 20
-3.692024
  0
VERTEX
  8
PLAN_1
  6
CONTINUOUS
 10
0.192571
 20
-3.689689
  0
VERTEX
  8
PLAN_1
  6
CONTINUOUS
 10
0.188835
 20
-3.687354
  0
VERTEX
  8
PLAN_1
  6
CONTINUOUS
 10
0.185567
 20
-3.684551
  0
VERTEX
  8
PLAN_1
  6
CONTINUOUS
 10
0.182295
 20
-3.681283
  0
VERTEX
  8
PLAN_1
  6
CONTINUOUS
 10
0.179496
 20
-3.678012
  0
VERTEX
  8
PLAN_1
  6
CONTINUOUS
 10
0.176693
 20
-3.674276
  0
VERTEX
  8
PLAN_1
  6
CONTINUOUS
 10
0.173890
 20
-3.670539
  0
VERTEX
  8
PLAN_1
  6
CONTINUOUS
 10
0.171091
 20
-3.666807
  0
VERTEX
  8
PLAN_1
  6
CONTINUOUS
 10
0.168756
 20
-3.662602
  0
VERTEX
  8
PLAN_1
  6
CONTINUOUS
 10
0.166417
 20
-3.657933
  0
VERTEX
  8
PLAN_1
  6
CONTINUOUS
 10
0.164083
 20
-3.653264
  0
VERTEX
  8
PLAN_1
  6
CONTINUOUS
 10
0.162217
 20
-3.648591
  0
VERTEX
  8
PLAN_1
  6
CONTINUOUS
 10
0.160346
 20
-3.643457
  0
VERTEX
  8
PLAN_1
  6
CONTINUOUS
 10
0.158949
 20
-3.637850
  0
VERTEX
  8
PLAN_1
  6
CONTINUOUS
 10
0.157547
 20
-3.632248
  0
VERTEX
  8
PLAN_1
  6
CONTINUOUS
 10
0.156614
 20
-3.626177
  0
VERTEX
  8
PLAN_1
  6
CONTINUOUS
 10
0.155677
 20
-3.619638
  0
VERTEX
  8
PLAN_1
  6
CONTINUOUS
 10
0.155213
 20
-3.613567
  0
VERTEX
  8
PLAN_1
  6
CONTINUOUS
 10
0.154744
 20
-3.606563
  0
VERTEX
  8
PLAN_1
  6
CONTINUOUS
 10
0.154744
 20
-3.599559
  0
VERTEX
  8
PLAN_1
  6
CONTINUOUS
 10
0.155213
 20
-3.588350
  0
VERTEX
  8
PLAN_1
  6
CONTINUOUS
 10
0.156146
 20
-3.577610
  0
VERTEX
  8
PLAN_1
  6
CONTINUOUS
 10
0.158480
 20
-3.567335
  0
VERTEX
  8
PLAN_1
  6
CONTINUOUS
 10
0.160815
 20
-3.557528
  0
VERTEX
  8
PLAN_1
  6
CONTINUOUS
 10
0.164551
 20
-3.548189
  0
VERTEX
  8
PLAN_1
  6
CONTINUOUS
 10
0.168756
 20
-3.539780
  0
VERTEX
  8
PLAN_1
  6
CONTINUOUS
 10
0.171091
 20
-3.535579
  0
VERTEX
  8
PLAN_1
  6
CONTINUOUS
 10
0.173890
 20
-3.531843
  0
VERTEX
  8
PLAN_1
  6
CONTINUOUS
 10
0.176693
 20
-3.528106
  0
VERTEX
  8
PLAN_1
  6
CONTINUOUS
 10
0.179496
 20
-3.524839
  0
VERTEX
  8
PLAN_1
  6
CONTINUOUS
 10
0.182295
 20
-3.521102
  0
VERTEX
  8
PLAN_1
  6
CONTINUOUS
 10
0.185567
 20
-3.518299
  0
VERTEX
  8
PLAN_1
  6
CONTINUOUS
 10
0.189303
 20
-3.515031
  0
VERTEX
  8
PLAN_1
  6
CONTINUOUS
 10
0.192571
 20
-3.512228
  0
VERTEX
  8
PLAN_1
  6
CONTINUOUS
 10
0.196307
 20
-3.509894
  0
VERTEX
  8
PLAN_1
  6
CONTINUOUS
 10
0.200512
 20
-3.507559
  0
VERTEX
  8
PLAN_1
  6
CONTINUOUS
 10
0.204248
 20
-3.505224
  0
VERTEX
  8
PLAN_1
  6
CONTINUOUS
 10
0.208449
 20
-3.503354
  0
VERTEX
  8
PLAN_1
  6
CONTINUOUS
 10
0.213118
 20
-3.501488
  0
VERTEX
  8
PLAN_1
  6
CONTINUOUS
 10
0.217323
 20
-3.500087
  0
VERTEX
  8
PLAN_1
  6
CONTINUOUS
 10
0.221992
 20
-3.498685
  0
VERTEX
  8
PLAN_1
  6
CONTINUOUS
 10
0.227130
 20
-3.497752
  0
VERTEX
  8
PLAN_1
  6
CONTINUOUS
 10
0.231799
 20
-3.496819
  0
VERTEX
  8
PLAN_1
  6
CONTINUOUS
 10
0.236937
 20
-3.496350
  0
VERTEX
  8
PLAN_1
  6
CONTINUOUS
 10
0.242075
 20
-3.495882
  0
VERTEX
  8
PLAN_1
  6
CONTINUOUS
 10
0.247677
 20
-3.495882
  0
VERTEX
  8
PLAN_1
  6
CONTINUOUS
 10
0.257016
 20
-3.495882
  0
VERTEX
  8
PLAN_1
  6
CONTINUOUS
 10
0.265890
 20
-3.497283
  0
VERTEX
  8
PLAN_1
  6
CONTINUOUS
 10
0.273831
 20
-3.498685
  0
VERTEX
  8
PLAN_1
  6
CONTINUOUS
 10
0.281768
 20
-3.501020
  0
VERTEX
  8
PLAN_1
  6
CONTINUOUS
 10
0.288772
 20
-3.504291
  0
VERTEX
  8
PLAN_1
  6
CONTINUOUS
 10
0.295311
 20
-3.507559
  0
VERTEX
  8
PLAN_1
  6
CONTINUOUS
 10
0.300913
 20
-3.511295
  0
VERTEX
  8
PLAN_1
  6
CONTINUOUS
 10
0.306520
 20
-3.515965
  0
VERTEX
  8
PLAN_1
  6
CONTINUOUS
 10
0.311189
 20
-3.520634
  0
VERTEX
  8
PLAN_1
  6
CONTINUOUS
 10
0.315394
 20
-3.525772
  0
VERTEX
  8
PLAN_1
  6
CONTINUOUS
 10
0.319126
 20
-3.530909
  0
VERTEX
  8
PLAN_1
  6
CONTINUOUS
 10
0.322398
 20
-3.536512
  0
VERTEX
  8
PLAN_1
  6
CONTINUOUS
 10
0.324732
 20
-3.542583
  0
VERTEX
  8
PLAN_1
  6
CONTINUOUS
 10
0.327067
 20
-3.548654
  0
VERTEX
  8
PLAN_1
  6
CONTINUOUS
 10
0.328469
 20
-3.554724
  0
VERTEX
  8
PLAN_1
  6
CONTINUOUS
 10
0.329402
 20
-3.560795
  0
VERTEX
  8
PLAN_1
  6
CONTINUOUS
 10
0.303248
 20
-3.560795
  0
SEQEND
  8
0
  0
POLYLINE
  8
PLAN_1
  6
CONTINUOUS
 66
     1
 40
0.003000
 41
0.003000
  0
VERTEX
  8
PLAN_1
  6
CONTINUOUS
 10
0.391047
 20
-3.700429
  0
VERTEX
  8
PLAN_1
  6
CONTINUOUS
 10
0.363961
 20
-3.700429
  0
VERTEX
  8
PLAN_1
  6
CONTINUOUS
 10
0.363961
 20
-3.501020
  0
VERTEX
  8
PLAN_1
  6
CONTINUOUS
 10
0.391047
 20
-3.501020
  0
VERTEX
  8
PLAN_1
  6
CONTINUOUS
 10
0.391047
 20
-3.597689
  0
VERTEX
  8
PLAN_1
  6
CONTINUOUS
 10
0.487717
 20
-3.501020
  0
VERTEX
  8
PLAN_1
  6
CONTINUOUS
 10
0.524606
 20
-3.501020
  0
VERTEX
  8
PLAN_1
  6
CONTINUOUS
 10
0.441949
 20
-3.581343
  0
VERTEX
  8
PLAN_1
  6
CONTINUOUS
 10
0.526941
 20
-3.700429
  0
VERTEX
  8
PLAN_1
  6
CONTINUOUS
 10
0.491917
 20
-3.700429
  0
VERTEX
  8
PLAN_1
  6
CONTINUOUS
 10
0.422335
 20
-3.600492
  0
VERTEX
  8
PLAN_1
  6
CONTINUOUS
 10
0.391047
 20
-3.630378
  0
VERTEX
  8
PLAN_1
  6
CONTINUOUS
 10
0.391047
 20
-3.700429
  0
SEQEND
  8
0
  0
POLYLINE
  8
PLAN_1
  6
CONTINUOUS
 66
     1
 40
0.003000
 41
0.003000
  0
VERTEX
  8
PLAN_1
  6
CONTINUOUS
 10
0.550760
 20
-3.501020
  0
VERTEX
  8
PLAN_1
  6
CONTINUOUS
 10
0.631551
 20
-3.501020
  0
VERTEX
  8
PLAN_1
  6
CONTINUOUS
 10
0.640890
 20
-3.501488
  0
VERTEX
  8
PLAN_1
  6
CONTINUOUS
 10
0.649764
 20
-3.502890
  0
VERTEX
  8
PLAN_1
  6
CONTINUOUS
 10
0.654433
 20
-3.503823
  0
VERTEX
  8
PLAN_1
  6
CONTINUOUS
 10
0.658638
 20
-3.505224
  0
VERTEX
  8
PLAN_1
  6
CONTINUOUS
 10
0.662374
 20
-3.506626
  0
VERTEX
  8
PLAN_1
  6
CONTINUOUS
 10
0.666575
 20
-3.508024
  0
VERTEX
  8
PLAN_1
  6
CONTINUOUS
 10
0.674047
 20
-3.511760
  0
VERTEX
  8
PLAN_1
  6
CONTINUOUS
 10
0.680587
 20
-3.516433
  0
VERTEX
  8
PLAN_1
  6
CONTINUOUS
 10
0.687122
 20
-3.522035
  0
VERTEX
  8
PLAN_1
  6
CONTINUOUS
 10
0.692728
 20
-3.528106
  0
VERTEX
  8
PLAN_1
  6
CONTINUOUS
 10
0.697866
 20
-3.534646
  0
VERTEX
  8
PLAN_1
  6
CONTINUOUS
 10
0.702535
 20
-3.542118
  0
VERTEX
  8
PLAN_1
  6
CONTINUOUS
 10
0.706272
 20
-3.550055
  0
VERTEX
  8
PLAN_1
  6
CONTINUOUS
 10
0.709539
 20
-3.558461
  0
VERTEX
  8
PLAN_1
  6
CONTINUOUS
 10
0.711874
 20
-3.567803
  0
VERTEX
  8
PLAN_1
  6
CONTINUOUS
 10
0.713744
 20
-3.577142
  0
VERTEX
  8
PLAN_1
  6
CONTINUOUS
 10
0.714677
 20
-3.587413
  0
VERTEX
  8
PLAN_1
  6
CONTINUOUS
 10
0.715142
 20
-3.597689
  0
VERTEX
  8
PLAN_1
  6
CONTINUOUS
 10
0.715142
 20
-3.606563
  0
VERTEX
  8
PLAN_1
  6
CONTINUOUS
 10
0.714209
 20
-3.614969
  0
VERTEX
  8
PLAN_1
  6
CONTINUOUS
 10
0.712807
 20
-3.623843
  0
VERTEX
  8
PLAN_1
  6
CONTINUOUS
 10
0.711406
 20
-3.632713
  0
VERTEX
  8
PLAN_1
  6
CONTINUOUS
 10
0.708606
 20
-3.641587
  0
VERTEX
  8
PLAN_1
  6
CONTINUOUS
 10
0.705803
 20
-3.649992
  0
VERTEX
  8
PLAN_1
  6
CONTINUOUS
 10
0.702067
 20
-3.657933
  0
VERTEX
  8
PLAN_1
  6
CONTINUOUS
 10
0.697398
 20
-3.665870
  0
VERTEX
  8
PLAN_1
  6
CONTINUOUS
 10
0.694594
 20
-3.669606
  0
VERTEX
  8
PLAN_1
  6
CONTINUOUS
 10
0.692260
 20
-3.672878
  0
VERTEX
  8
PLAN_1
  6
CONTINUOUS
 10
0.688992
 20
-3.676610
  0
VERTEX
  8
PLAN_1
  6
CONTINUOUS
 10
0.685720
 20
-3.679882
  0
VERTEX
  8
PLAN_1
  6
CONTINUOUS
 10
0.682453
 20
-3.682685
  0
VERTEX
  8
PLAN_1
  6
CONTINUOUS
 10
0.679185
 20
-3.685484
  0
VERTEX
  8
PLAN_1
  6
CONTINUOUS
 10
0.675449
 20
-3.688287
  0
VERTEX
  8
PLAN_1
  6
CONTINUOUS
 10
0.671244
 20
-3.690622
  0
VERTEX
  8
PLAN_1
  6
CONTINUOUS
 10
0.667043
 20
-3.692957
  0
VERTEX
  8
PLAN_1
  6
CONTINUOUS
 10
0.662374
 20
-3.694827
  0
VERTEX
  8
PLAN_1
  6
CONTINUOUS
 10
0.657701
 20
-3.696224
  0
VERTEX
  8
PLAN_1
  6
CONTINUOUS
 10
0.652567
 20
-3.697626
  0
VERTEX
  8
PLAN_1
  6
CONTINUOUS
 10
0.647429
 20
-3.699028
  0
VERTEX
  8
PLAN_1
  6
CONTINUOUS
 10
0.641823
 20
-3.699496
  0
VERTEX
  8
PLAN_1
  6
CONTINUOUS
 10
0.636220
 20
-3.699961
  0
VERTEX
  8
PLAN_1
  6
CONTINUOUS
 10
0.630150
 20
-3.700429
  0
VERTEX
  8
PLAN_1
  6
CONTINUOUS
 10
0.550760
 20
-3.700429
  0
VERTEX
  8
PLAN_1
  6
CONTINUOUS
 10
0.550760
 20
-3.501020
  0
SEQEND
  8
0
  0
POLYLINE
  8
PLAN_1
  6
CONTINUOUS
 66
     1
 40
0.003000
 41
0.003000
  0
VERTEX
  8
PLAN_1
  6
CONTINUOUS
 10
0.577378
 20
-3.677079
  0
VERTEX
  8
PLAN_1
  6
CONTINUOUS
 10
0.629681
 20
-3.677079
  0
VERTEX
  8
PLAN_1
  6
CONTINUOUS
 10
0.636220
 20
-3.677079
  0
VERTEX
  8
PLAN_1
  6
CONTINUOUS
 10
0.642291
 20
-3.676146
  0
VERTEX
  8
PLAN_1
  6
CONTINUOUS
 10
0.647894
 20
-3.674276
  0
VERTEX
  8
PLAN_1
  6
CONTINUOUS
 10
0.653500
 20
-3.672409
  0
VERTEX
  8
PLAN_1
  6
CONTINUOUS
 10
0.658638
 20
-3.669142
  0
VERTEX
  8
PLAN_1
  6
CONTINUOUS
 10
0.663307
 20
-3.665870
  0
VERTEX
  8
PLAN_1
  6
CONTINUOUS
 10
0.667976
 20
-3.661669
  0
VERTEX
  8
PLAN_1
  6
CONTINUOUS
 10
0.671713
 20
-3.657465
  0
VERTEX
  8
PLAN_1
  6
CONTINUOUS
 10
0.675449
 20
-3.651862
  0
VERTEX
  8
PLAN_1
  6
CONTINUOUS
 10
0.678252
 20
-3.646256
  0
VERTEX
  8
PLAN_1
  6
CONTINUOUS
 10
0.681051
 20
-3.639720
  0
VERTEX
  8
PLAN_1
  6
CONTINUOUS
 10
0.683386
 20
-3.632713
  0
VERTEX
  8
PLAN_1
  6
CONTINUOUS
 10
0.685256
 20
-3.625244
  0
VERTEX
  8
PLAN_1
  6
CONTINUOUS
 10
0.686657
 20
-3.617303
  0
VERTEX
  8
PLAN_1
  6
CONTINUOUS
 10
0.687122
 20
-3.608898
  0
VERTEX
  8
PLAN_1
  6
CONTINUOUS
 10
0.687591
 20
-3.599559
  0
VERTEX
  8
PLAN_1
  6
CONTINUOUS
 10
0.687122
 20
-3.590217
  0
VERTEX
  8
PLAN_1
  6
CONTINUOUS
 10
0.686189
 20
-3.581811
  0
VERTEX
  8
PLAN_1
  6
CONTINUOUS
 10
0.685256
 20
-3.573874
  0
VERTEX
  8
PLAN_1
  6
CONTINUOUS
 10
0.683386
 20
-3.566402
  0
VERTEX
  8
PLAN_1
  6
CONTINUOUS
 10
0.681051
 20
-3.559862
  0
VERTEX
  8
PLAN_1
  6
CONTINUOUS
 10
0.678252
 20
-3.553791
  0
VERTEX
  8
PLAN_1
  6
CONTINUOUS
 10
0.674980
 20
-3.548189
  0
VERTEX
  8
PLAN_1
  6
CONTINUOUS
 10
0.671244
 20
-3.543051
  0
VERTEX
  8
PLAN_1
  6
CONTINUOUS
 10
0.667508
 20
-3.538382
  0
VERTEX
  8
PLAN_1
  6
CONTINUOUS
 10
0.662839
 20
-3.534646
  0
VERTEX
  8
PLAN_1
  6
CONTINUOUS
 10
0.657701
 20
-3.531374
  0
VERTEX
  8
PLAN_1
  6
CONTINUOUS
 10
0.652567
 20
-3.528575
  0
VERTEX
  8
PLAN_1
  6
CONTINUOUS
 10
0.646961
 20
-3.526705
  0
VERTEX
  8
PLAN_1
  6
CONTINUOUS
 10
0.640890
 20
-3.525303
  0
VERTEX
  8
PLAN_1
  6
CONTINUOUS
 10
0.634354
 20
-3.524370
  0
VERTEX
  8
PLAN_1
  6
CONTINUOUS
 10
0.627815
 20
-3.523902
  0
VERTEX
  8
PLAN_1
  6
CONTINUOUS
 10
0.577378
 20
-3.523902
  0
VERTEX
  8
PLAN_1
  6
CONTINUOUS
 10
0.577378
 20
-3.677079
  0
SEQEND
  8
0
  0
POLYLINE
  8
PLAN_1
  6
CONTINUOUS
 66
     1
 40
0.003000
 41
0.003000
  0
VERTEX
  8
PLAN_1
  6
CONTINUOUS
 10
0.828157
 20
-3.700429
  0
VERTEX
  8
PLAN_1
  6
CONTINUOUS
 10
0.802004
 20
-3.700429
  0
VERTEX
  8
PLAN_1
  6
CONTINUOUS
 10
0.802004
 20
-3.561728
  0
VERTEX
  8
PLAN_1
  6
CONTINUOUS
 10
0.756705
 20
-3.561728
  0
VERTEX
  8
PLAN_1
  6
CONTINUOUS
 10
0.756705
 20
-3.542583
  0
VERTEX
  8
PLAN_1
  6
CONTINUOUS
 10
0.767913
 20
-3.541650
  0
VERTEX
  8
PLAN_1
  6
CONTINUOUS
 10
0.777256
 20
-3.540248
  0
VERTEX
  8
PLAN_1
  6
CONTINUOUS
 10
0.781457
 20
-3.539315
  0
VERTEX
  8
PLAN_1
  6
CONTINUOUS
 10
0.785193
 20
-3.537913
  0
VERTEX
  8
PLAN_1
  6
CONTINUOUS
 10
0.788461
 20
-3.536512
  0
VERTEX
  8
PLAN_1
  6
CONTINUOUS
 10
0.791732
 20
-3.535110
  0
VERTEX
  8
PLAN_1
  6
CONTINUOUS
 10
0.795000
 20
-3.532776
  0
VERTEX
  8
PLAN_1
  6
CONTINUOUS
 10
0.797335
 20
-3.530441
  0
VERTEX
  8
PLAN_1
  6
CONTINUOUS
 10
0.799669
 20
-3.527638
  0
VERTEX
  8
PLAN_1
  6
CONTINUOUS
 10
0.802004
 20
-3.524370
  0
VERTEX
  8
PLAN_1
  6
CONTINUOUS
 10
0.804339
 20
-3.520169
  0
VERTEX
  8
PLAN_1
  6
CONTINUOUS
 10
0.805740
 20
-3.515965
  0
VERTEX
  8
PLAN_1
  6
CONTINUOUS
 10
0.807610
 20
-3.510827
  0
VERTEX
  8
PLAN_1
  6
CONTINUOUS
 10
0.809012
 20
-3.505224
  0
VERTEX
  8
PLAN_1
  6
CONTINUOUS
 10
0.828157
 20
-3.505224
  0
VERTEX
  8
PLAN_1
  6
CONTINUOUS
 10
0.828157
 20
-3.700429
  0
SEQEND
  8
0
  0
SOLID
  8
PLAN_1
 10
0.883264
 20
-3.734988
 11
0.883264
 21
-3.720976
 12
1.037374
 22
-3.734988
 13
1.037374
 23
-3.720976
  0
POLYLINE
  8
PLAN_1
  6
CONTINUOUS
 66
     1
 40
0.003000
 41
0.003000
  0
VERTEX
  8
PLAN_1
  6
CONTINUOUS
 10
0.883264
 20
-3.734988
  0
VERTEX
  8
PLAN_1
  6
CONTINUOUS
 10
0.883264
 20
-3.720976
  0
VERTEX
  8
PLAN_1
  6
CONTINUOUS
 10
1.037374
 20
-3.720976
  0
VERTEX
  8
PLAN_1
  6
CONTINUOUS
 10
1.037374
 20
-3.734988
  0
VERTEX
  8
PLAN_1
  6
CONTINUOUS
 10
0.883264
 20
-3.734988
  0
SEQEND
  8
0
  0
SOLID
  8
PLAN_1
 10
1.037374
 20
-3.734988
 11
1.037374
 21
-3.720976
 12
1.191949
 22
-3.734988
 13
1.191949
 23
-3.720976
  0
POLYLINE
  8
PLAN_1
  6
CONTINUOUS
 66
     1
 40
0.003000
 41
0.003000
  0
VERTEX
  8
PLAN_1
  6
CONTINUOUS
 10
1.037374
 20
-3.734988
  0
VERTEX
  8
PLAN_1
  6
CONTINUOUS
 10
1.037374
 20
-3.720976
  0
VERTEX
  8
PLAN_1
  6
CONTINUOUS
 10
1.191949
 20
-3.720976
  0
VERTEX
  8
PLAN_1
  6
CONTINUOUS
 10
1.191949
 20
-3.734988
  0
VERTEX
  8
PLAN_1
  6
CONTINUOUS
 10
1.037374
 20
-3.734988
  0
SEQEND
  8
0
  0
POLYLINE
  8
PLAN_1
  6
CONTINUOUS
 66
     1
 40
0.003000
 41
0.003000
  0
VERTEX
  8
PLAN_1
  6
CONTINUOUS
 10
1.243319
 20
-3.700429
  0
VERTEX
  8
PLAN_1
  6
CONTINUOUS
 10
1.216232
 20
-3.700429
  0
VERTEX
  8
PLAN_1
  6
CONTINUOUS
 10
1.216232
 20
-3.501020
  0
VERTEX
  8
PLAN_1
  6
CONTINUOUS
 10
1.308232
 20
-3.501020
  0
VERTEX
  8
PLAN_1
  6
CONTINUOUS
 10
1.314303
 20
-3.501020
  0
VERTEX
  8
PLAN_1
  6
CONTINUOUS
 10
1.320374
 20
-3.501488
  0
VERTEX
  8
PLAN_1
  6
CONTINUOUS
 10
1.326445
 20
-3.502421
  0
VERTEX
  8
PLAN_1
  6
CONTINUOUS
 10
1.332516
 20
-3.503354
  0
VERTEX
  8
PLAN_1
  6
CONTINUOUS
 10
1.338122
 20
-3.504756
  0
VERTEX
  8
PLAN_1
  6
CONTINUOUS
 10
1.343724
 20
-3.506626
  0
VERTEX
  8
PLAN_1
  6
CONTINUOUS
 10
1.348394
 20
-3.508961
  0
VERTEX
  8
PLAN_1
  6
CONTINUOUS
 10
1.353531
 20
-3.511760
  0
VERTEX
  8
PLAN_1
  6
CONTINUOUS
 10
1.357732
 20
-3.515496
  0
VERTEX
  8
PLAN_1
  6
CONTINUOUS
 10
1.361937
 20
-3.519232
  0
VERTEX
  8
PLAN_1
  6
CONTINUOUS
 10
1.365205
 20
-3.523437
  0
VERTEX
  8
PLAN_1
  6
CONTINUOUS
 10
1.368476
 20
-3.528575
  0
VERTEX
  8
PLAN_1
  6
CONTINUOUS
 10
1.370811
 20
-3.534177
  0
VERTEX
  8
PLAN_1
  6
CONTINUOUS
 10
1.372213
 20
-3.540248
  0
VERTEX
  8
PLAN_1
  6
CONTINUOUS
 10
1.373610
 20
-3.547252
  0
VERTEX
  8
PLAN_1
  6
CONTINUOUS
 10
1.374079
 20
-3.554724
  0
VERTEX
  8
PLAN_1
  6
CONTINUOUS
 10
1.373610
 20
-3.559862
  0
VERTEX
  8
PLAN_1
  6
CONTINUOUS
 10
1.373146
 20
-3.565000
  0
VERTEX
  8
PLAN_1
  6
CONTINUOUS
 10
1.372213
 20
-3.569201
  0
VERTEX
  8
PLAN_1
  6
CONTINUOUS
 10
1.371276
 20
-3.573406
  0
VERTEX
  8
PLAN_1
  6
CONTINUOUS
 10
1.369878
 20
-3.577142
  0
VERTEX
  8
PLAN_1
  6
CONTINUOUS
 10
1.368476
 20
-3.580409
  0
VERTEX
  8
PLAN_1
  6
CONTINUOUS
 10
1.366606
 20
-3.583681
  0
VERTEX
  8
PLAN_1
  6
CONTINUOUS
 10
1.364740
 20
-3.586480
  0
VERTEX
  8
PLAN_1
  6
CONTINUOUS
 10
1.360535
 20
-3.591618
  0
VERTEX
  8
PLAN_1
  6
CONTINUOUS
 10
1.355866
 20
-3.595823
  0
VERTEX
  8
PLAN_1
  6
CONTINUOUS
 10
1.351197
 20
-3.599559
  0
VERTEX
  8
PLAN_1
  6
CONTINUOUS
 10
1.346059
 20
-3.602358
  0
VERTEX
  8
PLAN_1
  6
CONTINUOUS
 10
1.350264
 20
-3.604228
  0
VERTEX
  8
PLAN_1
  6
CONTINUOUS
 10
1.354465
 20
-3.606094
  0
VERTEX
  8
PLAN_1
  6
CONTINUOUS
 10
1.358201
 20
-3.608898
  0
VERTEX
  8
PLAN_1
  6
CONTINUOUS
 10
1.361937
 20
-3.612634
  0
VERTEX
  8
PLAN_1
  6
CONTINUOUS
 10
1.363339
 20
-3.614500
  0
VERTEX
  8
PLAN_1
  6
CONTINUOUS
 10
1.364740
 20
-3.616835
  0
VERTEX
  8
PLAN_1
  6
CONTINUOUS
 10
1.366142
 20
-3.619638
  0
VERTEX
  8
PLAN_1
  6
CONTINUOUS
 10
1.367539
 20
-3.622906
  0
VERTEX
  8
PLAN_1
  6
CONTINUOUS
 10
1.368476
 20
-3.626642
  0
VERTEX
  8
PLAN_1
  6
CONTINUOUS
 10
1.368941
 20
-3.630378
  0
VERTEX
  8
PLAN_1
  6
CONTINUOUS
 10
1.369878
 20
-3.635047
  0
VERTEX
  8
PLAN_1
  6
CONTINUOUS
 10
1.369878
 20
-3.639720
  0
VERTEX
  8
PLAN_1
  6
CONTINUOUS
 10
1.371744
 20
-3.675677
  0
VERTEX
  8
PLAN_1
  6
CONTINUOUS
 10
1.371744
 20
-3.679882
  0
VERTEX
  8
PLAN_1
  6
CONTINUOUS
 10
1.372213
 20
-3.683150
  0
VERTEX
  8
PLAN_1
  6
CONTINUOUS
 10
1.372677
 20
-3.685953
  0
VERTEX
  8
PLAN_1
  6
CONTINUOUS
 10
1.373610
 20
-3.688287
  0
VERTEX
  8
PLAN_1
  6
CONTINUOUS
 10
1.375012
 20
-3.690622
  0
VERTEX
  8
PLAN_1
  6
CONTINUOUS
 10
1.376413
 20
-3.692488
  0
VERTEX
  8
PLAN_1
  6
CONTINUOUS
 10
1.378748
 20
-3.693890
  0
VERTEX
  8
PLAN_1
  6
CONTINUOUS
 10
1.381551
 20
-3.695760
  0
VERTEX
  8
PLAN_1
  6
CONTINUOUS
 10
1.381551
 20
-3.700429
  0
VERTEX
  8
PLAN_1
  6
CONTINUOUS
 10
1.348394
 20
-3.700429
  0
VERTEX
  8
PLAN_1
  6
CONTINUOUS
 10
1.347461
 20
-3.694827
  0
VERTEX
  8
PLAN_1
  6
CONTINUOUS
 10
1.346059
 20
-3.688287
  0
VERTEX
  8
PLAN_1
  6
CONTINUOUS
 10
1.345591
 20
-3.681283
  0
VERTEX
  8
PLAN_1
  6
CONTINUOUS
 10
1.344657
 20
-3.673343
  0
VERTEX
  8
PLAN_1
  6
CONTINUOUS
 10
1.344193
 20
-3.666339
  0
VERTEX
  8
PLAN_1
  6
CONTINUOUS
 10
1.344193
 20
-3.659799
  0
VERTEX
  8
PLAN_1
  6
CONTINUOUS
 10
1.343724
 20
-3.654197
  0
VERTEX
  8
PLAN_1
  6
CONTINUOUS
 10
1.343724
 20
-3.650461
  0
VERTEX
  8
PLAN_1
  6
CONTINUOUS
 10
1.343724
 20
-3.643921
  0
VERTEX
  8
PLAN_1
  6
CONTINUOUS
 10
1.342791
 20
-3.637850
  0
VERTEX
  8
PLAN_1
  6
CONTINUOUS
 10
1.342323
 20
-3.635047
  0
VERTEX
  8
PLAN_1
  6
CONTINUOUS
 10
1.340921
 20
-3.631780
  0
VERTEX
  8
PLAN_1
  6
CONTINUOUS
 10
1.339988
 20
-3.628976
  0
VERTEX
  8
PLAN_1
  6
CONTINUOUS
 10
1.338122
 20
-3.626642
  0
VERTEX
  8
PLAN_1
  6
CONTINUOUS
 10
1.336252
 20
-3.623843
  0
VERTEX
  8
PLAN_1
  6
CONTINUOUS
 10
1.333917
 20
-3.621508
  0
VERTEX
  8
PLAN_1
  6
CONTINUOUS
 10
1.330650
 20
-3.619638
  0
VERTEX
  8
PLAN_1
  6
CONTINUOUS
 10
1.327378
 20
-3.618236
  0
VERTEX
  8
PLAN_1
  6
CONTINUOUS
 10
1.323642
 20
-3.616835
  0
VERTEX
  8
PLAN_1
  6
CONTINUOUS
 10
1.318972
 20
-3.615437
  0
VERTEX
  8
PLAN_1
  6
CONTINUOUS
 10
1.314303
 20
-3.614969
  0
VERTEX
  8
PLAN_1
  6
CONTINUOUS
 10
1.308232
 20
-3.614969
  0
VERTEX
  8
PLAN_1
  6
CONTINUOUS
 10
1.243319
 20
-3.614969
  0
VERTEX
  8
PLAN_1
  6
CONTINUOUS
 10
1.243319
 20
-3.700429
  0
SEQEND
  8
0
  0
POLYLINE
  8
PLAN_1
  6
CONTINUOUS
 66
     1
 40
0.003000
 41
0.003000
  0
VERTEX
  8
PLAN_1
  6
CONTINUOUS
 10
1.243319
 20
-3.591618
  0
VERTEX
  8
PLAN_1
  6
CONTINUOUS
 10
1.305429
 20
-3.591618
  0
VERTEX
  8
PLAN_1
  6
CONTINUOUS
 10
1.312902
 20
-3.591618
  0
VERTEX
  8
PLAN_1
  6
CONTINUOUS
 10
1.320374
 20
-3.590685
  0
VERTEX
  8
PLAN_1
  6
CONTINUOUS
 10
1.323642
 20
-3.589752
  0
VERTEX
  8
PLAN_1
  6
CONTINUOUS
 10
1.326913
 20
-3.588815
  0
VERTEX
  8
PLAN_1
  6
CONTINUOUS
 10
1.330181
 20
-3.587413
  0
VERTEX
  8
PLAN_1
  6
CONTINUOUS
 10
1.333449
 20
-3.585547
  0
VERTEX
  8
PLAN_1
  6
CONTINUOUS
 10
1.335783
 20
-3.583681
  0
VERTEX
  8
PLAN_1
  6
CONTINUOUS
 10
1.338587
 20
-3.581343
  0
VERTEX
  8
PLAN_1
  6
CONTINUOUS
 10
1.340457
 20
-3.578543
  0
VERTEX
  8
PLAN_1
  6
CONTINUOUS
 10
1.342791
 20
-3.575272
  0
VERTEX
  8
PLAN_1
  6
CONTINUOUS
 10
1.344193
 20
-3.571535
  0
VERTEX
  8
PLAN_1
  6
CONTINUOUS
 10
1.345126
 20
-3.567335
  0
VERTEX
  8
PLAN_1
  6
CONTINUOUS
 10
1.346059
 20
-3.562665
  0
VERTEX
  8
PLAN_1
  6
CONTINUOUS
 10
1.346059
 20
-3.557528
  0
VERTEX
  8
PLAN_1
  6
CONTINUOUS
 10
1.346059
 20
-3.551925
  0
VERTEX
  8
PLAN_1
  6
CONTINUOUS
 10
1.345126
 20
-3.547252
  0
VERTEX
  8
PLAN_1
  6
CONTINUOUS
 10
1.343724
 20
-3.543051
  0
VERTEX
  8
PLAN_1
  6
CONTINUOUS
 10
1.342323
 20
-3.539315
  0
VERTEX
  8
PLAN_1
  6
CONTINUOUS
 10
1.340457
 20
-3.536047
  0
VERTEX
  8
PLAN_1
  6
CONTINUOUS
 10
1.338122
 20
-3.533244
  0
VERTEX
  8
PLAN_1
  6
CONTINUOUS
 10
1.335783
 20
-3.530909
  0
VERTEX
  8
PLAN_1
  6
CONTINUOUS
 10
1.332984
 20
-3.529039
  0
VERTEX
  8
PLAN_1
  6
CONTINUOUS
 10
1.330181
 20
-3.527638
  0
VERTEX
  8
PLAN_1
  6
CONTINUOUS
 10
1.327378
 20
-3.526240
  0
VERTEX
  8
PLAN_1
  6
CONTINUOUS
 10
1.324579
 20
-3.525772
  0
VERTEX
  8
PLAN_1
  6
CONTINUOUS
 10
1.321307
 20
-3.524839
  0
VERTEX
  8
PLAN_1
  6
CONTINUOUS
 10
1.315705
 20
-3.524370
  0
VERTEX
  8
PLAN_1
  6
CONTINUOUS
 10
1.310098
 20
-3.523902
  0
VERTEX
  8
PLAN_1
  6
CONTINUOUS
 10
1.243319
 20
-3.523902
  0
VERTEX
  8
PLAN_1
  6
CONTINUOUS
 10
1.243319
 20
-3.591618
  0
SEQEND
  8
0
  0
SOLID
  8
PLAN_1
 10
1.445531
 20
-3.700429
 11
1.416575
 21
-3.700429
 12
1.445531
 22
-3.671008
 13
1.416575
 23
-3.671008
  0
POLYLINE
  8
PLAN_1
  6
CONTINUOUS
 66
     1
 40
0.003000
 41
0.003000
  0
VERTEX
  8
PLAN_1
  6
CONTINUOUS
 10
1.445531
 20
-3.700429
  0
VERTEX
  8
PLAN_1
  6
CONTINUOUS
 10
1.416575
 20
-3.700429
  0
VERTEX
  8
PLAN_1
  6
CONTINUOUS
 10
1.416575
 20
-3.671008
  0
VERTEX
  8
PLAN_1
  6
CONTINUOUS
 10
1.445531
 20
-3.671008
  0
VERTEX
  8
PLAN_1
  6
CONTINUOUS
 10
1.445531
 20
-3.700429
  0
SEQEND
  8
0
  0
POLYLINE
  8
PLAN_1
  6
CONTINUOUS
 66
     1
 40
0.003000
 41
0.003000
  0
VERTEX
  8
PLAN_1
  6
CONTINUOUS
 10
1.640268
 20
-3.700429
  0
VERTEX
  8
PLAN_1
  6
CONTINUOUS
 10
1.493165
 20
-3.700429
  0
VERTEX
  8
PLAN_1
  6
CONTINUOUS
 10
1.493165
 20
-3.501020
  0
VERTEX
  8
PLAN_1
  6
CONTINUOUS
 10
1.638402
 20
-3.501020
  0
VERTEX
  8
PLAN_1
  6
CONTINUOUS
 10
1.638402
 20
-3.524839
  0
VERTEX
  8
PLAN_1
  6
CONTINUOUS
 10
1.520248
 20
-3.524839
  0
VERTEX
  8
PLAN_1
  6
CONTINUOUS
 10
1.520248
 20
-3.586016
  0
VERTEX
  8
PLAN_1
  6
CONTINUOUS
 10
1.629528
 20
-3.586016
  0
VERTEX
  8
PLAN_1
  6
CONTINUOUS
 10
1.629528
 20
-3.609831
  0
VERTEX
  8
PLAN_1
  6
CONTINUOUS
 10
1.520248
 20
-3.609831
  0
VERTEX
  8
PLAN_1
  6
CONTINUOUS
 10
1.520248
 20
-3.676610
  0
VERTEX
  8
PLAN_1
  6
CONTINUOUS
 10
1.640268
 20
-3.676610
  0
VERTEX
  8
PLAN_1
  6
CONTINUOUS
 10
1.640268
 20
-3.700429
  0
SEQEND
  8
0
  0
POLYLINE
  8
PLAN_1
  6
CONTINUOUS
 66
     1
 40
0.003000
 41
0.003000
  0
VERTEX
  8
PLAN_1
  6
CONTINUOUS
 10
1.705650
 20
-3.700429
  0
VERTEX
  8
PLAN_1
  6
CONTINUOUS
 10
1.678563
 20
-3.700429
  0
VERTEX
  8
PLAN_1
  6
CONTINUOUS
 10
1.678563
 20
-3.501020
  0
VERTEX
  8
PLAN_1
  6
CONTINUOUS
 10
1.768228
 20
-3.501020
  0
VERTEX
  8
PLAN_1
  6
CONTINUOUS
 10
1.774764
 20
-3.501488
  0
VERTEX
  8
PLAN_1
  6
CONTINUOUS
 10
1.781303
 20
-3.501953
  0
VERTEX
  8
PLAN_1
  6
CONTINUOUS
 10
1.787374
 20
-3.503354
  0
VERTEX
  8
PLAN_1
  6
CONTINUOUS
 10
1.792976
 20
-3.505224
  0
VERTEX
  8
PLAN_1
  6
CONTINUOUS
 10
1.798114
 20
-3.507559
  0
VERTEX
  8
PLAN_1
  6
CONTINUOUS
 10
1.803252
 20
-3.510362
  0
VERTEX
  8
PLAN_1
  6
CONTINUOUS
 10
1.807453
 20
-3.513630
  0
VERTEX
  8
PLAN_1
  6
CONTINUOUS
 10
1.811657
 20
-3.516898
  0
VERTEX
  8
PLAN_1
  6
CONTINUOUS
 10
1.815394
 20
-3.521102
  0
VERTEX
  8
PLAN_1
  6
CONTINUOUS
 10
1.818197
 20
-3.525303
  0
VERTEX
  8
PLAN_1
  6
CONTINUOUS
 10
1.820996
 20
-3.529972
  0
VERTEX
  8
PLAN_1
  6
CONTINUOUS
 10
1.823331
 20
-3.534646
  0
VERTEX
  8
PLAN_1
  6
CONTINUOUS
 10
1.825201
 20
-3.539780
  0
VERTEX
  8
PLAN_1
  6
CONTINUOUS
 10
1.826134
 20
-3.545386
  0
VERTEX
  8
PLAN_1
  6
CONTINUOUS
 10
1.827067
 20
-3.550988
  0
VERTEX
  8
PLAN_1
  6
CONTINUOUS
 10
1.827535
 20
-3.557059
  0
VERTEX
  8
PLAN_1
  6
CONTINUOUS
 10
1.827067
 20
-3.562197
  0
VERTEX
  8
PLAN_1
  6
CONTINUOUS
 10
1.826602
 20
-3.567803
  0
VERTEX
  8
PLAN_1
  6
CONTINUOUS
 10
1.825669
 20
-3.572937
  0
VERTEX
  8
PLAN_1
  6
CONTINUOUS
 10
1.824268
 20
-3.578075
  0
VERTEX
  8
PLAN_1
  6
CONTINUOUS
 10
1.822398
 20
-3.583213
  0
VERTEX
  8
PLAN_1
  6
CONTINUOUS
 10
1.820063
 20
-3.587882
  0
VERTEX
  8
PLAN_1
  6
CONTINUOUS
 10
1.817260
 20
-3.592551
  0
VERTEX
  8
PLAN_1
  6
CONTINUOUS
 10
1.813992
 20
-3.597220
  0
VERTEX
  8
PLAN_1
  6
CONTINUOUS
 10
1.810256
 20
-3.600957
  0
VERTEX
  8
PLAN_1
  6
CONTINUOUS
 10
1.806055
 20
-3.604693
  0
VERTEX
  8
PLAN_1
  6
CONTINUOUS
 10
1.800917
 20
-3.607965
  0
VERTEX
  8
PLAN_1
  6
CONTINUOUS
 10
1.795780
 20
-3.610764
  0
VERTEX
  8
PLAN_1
  6
CONTINUOUS
 10
1.789709
 20
-3.613098
  0
VERTEX
  8
PLAN_1
  6
CONTINUOUS
 10
1.783169
 20
-3.614969
  0
VERTEX
  8
PLAN_1
  6
CONTINUOUS
 10
1.776165
 20
-3.615902
  0
VERTEX
  8
PLAN_1
  6
CONTINUOUS
 10
1.768228
 20
-3.616370
  0
VERTEX
  8
PLAN_1
  6
CONTINUOUS
 10
1.705650
 20
-3.616370
  0
VERTEX
  8
PLAN_1
  6
CONTINUOUS
 10
1.705650
 20
-3.700429
  0
SEQEND
  8
0
  0
POLYLINE
  8
PLAN_1
  6
CONTINUOUS
 66
     1
 40
0.003000
 41
0.003000
  0
VERTEX
  8
PLAN_1
  6
CONTINUOUS
 10
1.705650
 20
-3.593020
  0
VERTEX
  8
PLAN_1
  6
CONTINUOUS
 10
1.758886
 20
-3.593020
  0
VERTEX
  8
PLAN_1
  6
CONTINUOUS
 10
1.763555
 20
-3.593020
  0
VERTEX
  8
PLAN_1
  6
CONTINUOUS
 10
1.767760
 20
-3.592551
  0
VERTEX
  8
PLAN_1
  6
CONTINUOUS
 10
1.771961
 20
-3.592087
  0
VERTEX
  8
PLAN_1
  6
CONTINUOUS
 10
1.775697
 20
-3.591150
  0
VERTEX
  8
PLAN_1
  6
CONTINUOUS
 10
1.778969
 20
-3.590217
  0
VERTEX
  8
PLAN_1
  6
CONTINUOUS
 10
1.782705
 20
-3.588815
  0
VERTEX
  8
PLAN_1
  6
CONTINUOUS
 10
1.785504
 20
-3.587413
  0
VERTEX
  8
PLAN_1
  6
CONTINUOUS
 10
1.788307
 20
-3.585547
  0
VERTEX
  8
PLAN_1
  6
CONTINUOUS
 10
1.791110
 20
-3.583213
  0
VERTEX
  8
PLAN_1
  6
CONTINUOUS
 10
1.792976
 20
-3.580409
  0
VERTEX
  8
PLAN_1
  6
CONTINUOUS
 10
1.794846
 20
-3.577610
  0
VERTEX
  8
PLAN_1
  6
CONTINUOUS
 10
1.796713
 20
-3.574339
  0
VERTEX
  8
PLAN_1
  6
CONTINUOUS
 10
1.798114
 20
-3.570602
  0
VERTEX
  8
PLAN_1
  6
CONTINUOUS
 10
1.798583
 20
-3.566402
  0
VERTEX
  8
PLAN_1
  6
CONTINUOUS
 10
1.799516
 20
-3.562197
  0
VERTEX
  8
PLAN_1
  6
CONTINUOUS
 10
1.799516
 20
-3.557528
  0
VERTEX
  8
PLAN_1
  6
CONTINUOUS
 10
1.799516
 20
-3.552858
  0
VERTEX
  8
PLAN_1
  6
CONTINUOUS
 10
1.798583
 20
-3.548654
  0
VERTEX
  8
PLAN_1
  6
CONTINUOUS
 10
1.797646
 20
-3.544917
  0
VERTEX
  8
PLAN_1
  6
CONTINUOUS
 10
1.796713
 20
-3.541650
  0
VERTEX
  8
PLAN_1
  6
CONTINUOUS
 10
1.794846
 20
-3.538382
  0
VERTEX
  8
PLAN_1
  6
CONTINUOUS
 10
1.792976
 20
-3.535579
  0
VERTEX
  8
PLAN_1
  6
CONTINUOUS
 10
1.790642
 20
-3.533244
  0
VERTEX
  8
PLAN_1
  6
CONTINUOUS
 10
1.788307
 20
-3.531374
  0
VERTEX
  8
PLAN_1
  6
CONTINUOUS
 10
1.785504
 20
-3.529508
  0
VERTEX
  8
PLAN_1
  6
CONTINUOUS
 10
1.782236
 20
-3.528106
  0
VERTEX
  8
PLAN_1
  6
CONTINUOUS
 10
1.778969
 20
-3.526705
  0
VERTEX
  8
PLAN_1
  6
CONTINUOUS
 10
1.775697
 20
-3.525772
  0
VERTEX
  8
PLAN_1
  6
CONTINUOUS
 10
1.768228
 20
-3.524370
  0
VERTEX
  8
PLAN_1
  6
CONTINUOUS
 10
1.760287
 20
-3.523902
  0
VERTEX
  8
PLAN_1
  6
CONTINUOUS
 10
1.705650
 20
-3.523902
  0
VERTEX
  8
PLAN_1
  6
CONTINUOUS
 10
1.705650
 20
-3.593020
  0
SEQEND
  8
0
  0
POLYLINE
  8
PLAN_1
  6
CONTINUOUS
 66
     1
 40
0.003000
 41
0.003000
  0
VERTEX
  8
PLAN_1
  6
CONTINUOUS
 10
1.981177
 20
-3.559394
  0
VERTEX
  8
PLAN_1
  6
CONTINUOUS
 10
1.980713
 20
-3.553791
  0
VERTEX
  8
PLAN_1
  6
CONTINUOUS
 10
1.979776
 20
-3.548654
  0
VERTEX
  8
PLAN_1
  6
CONTINUOUS
 10
1.977909
 20
-3.543984
  0
VERTEX
  8
PLAN_1
  6
CONTINUOUS
 10
1.976039
 20
-3.539780
  0
VERTEX
  8
PLAN_1
  6
CONTINUOUS
 10
1.973705
 20
-3.536047
  0
VERTEX
  8
PLAN_1
  6
CONTINUOUS
 10
1.970906
 20
-3.532776
  0
VERTEX
  8
PLAN_1
  6
CONTINUOUS
 10
1.967634
 20
-3.529972
  0
VERTEX
  8
PLAN_1
  6
CONTINUOUS
 10
1.964366
 20
-3.527638
  0
VERTEX
  8
PLAN_1
  6
CONTINUOUS
 10
1.960630
 20
-3.525303
  0
VERTEX
  8
PLAN_1
  6
CONTINUOUS
 10
1.956894
 20
-3.523437
  0
VERTEX
  8
PLAN_1
  6
CONTINUOUS
 10
1.952693
 20
-3.522035
  0
VERTEX
  8
PLAN_1
  6
CONTINUOUS
 10
1.948957
 20
-3.520634
  0
VERTEX
  8
PLAN_1
  6
CONTINUOUS
 10
1.944752
 20
-3.519701
  0
VERTEX
  8
PLAN_1
  6
CONTINUOUS
 10
1.940083
 20
-3.519232
  0
VERTEX
  8
PLAN_1
  6
CONTINUOUS
 10
1.935878
 20
-3.518768
  0
VERTEX
  8
PLAN_1
  6
CONTINUOUS
 10
1.931677
 20
-3.518768
  0
VERTEX
  8
PLAN_1
  6
CONTINUOUS
 10
1.925138
 20
-3.519232
  0
VERTEX
  8
PLAN_1
  6
CONTINUOUS
 10
1.917665
 20
-3.520169
  0
VERTEX
  8
PLAN_1
  6
CONTINUOUS
 10
1.913929
 20
-3.520634
  0
VERTEX
  8
PLAN_1
  6
CONTINUOUS
 10
1.909728
 20
-3.522035
  0
VERTEX
  8
PLAN_1
  6
CONTINUOUS
 10
1.906457
 20
-3.523437
  0
VERTEX
  8
PLAN_1
  6
CONTINUOUS
 10
1.902720
 20
-3.524839
  0
VERTEX
  8
PLAN_1
  6
CONTINUOUS
 10
1.899453
 20
-3.527173
  0
VERTEX
  8
PLAN_1
  6
CONTINUOUS
 10
1.896185
 20
-3.529508
  0
VERTEX
  8
PLAN_1
  6
CONTINUOUS
 10
1.893382
 20
-3.532311
  0
VERTEX
  8
PLAN_1
  6
CONTINUOUS
 10
1.891047
 20
-3.535579
  0
VERTEX
  8
PLAN_1
  6
CONTINUOUS
 10
1.889181
 20
-3.539315
  0
VERTEX
  8
PLAN_1
  6
CONTINUOUS
 10
1.887311
 20
-3.543516
  0
VERTEX
  8
PLAN_1
  6
CONTINUOUS
 10
1.886378
 20
-3.548189
  0
VERTEX
  8
PLAN_1
  6
CONTINUOUS
 10
1.886378
 20
-3.553791
  0
VERTEX
  8
PLAN_1
  6
CONTINUOUS
 10
1.886378
 20
-3.556594
  0
VERTEX
  8
PLAN_1
  6
CONTINUOUS
 10
1.886843
 20
-3.559394
  0
VERTEX
  8
PLAN_1
  6
CONTINUOUS
 10
1.887311
 20
-3.562197
  0
VERTEX
  8
PLAN_1
  6
CONTINUOUS
 10
1.888244
 20
-3.564531
  0
VERTEX
  8
PLAN_1
  6
CONTINUOUS
 10
1.889181
 20
-3.566402
  0
VERTEX
  8
PLAN_1
  6
CONTINUOUS
 10
1.890579
 20
-3.568268
  0
VERTEX
  8
PLAN_1
  6
CONTINUOUS
 10
1.891980
 20
-3.570138
  0
VERTEX
  8
PLAN_1
  6
CONTINUOUS
 10
1.893850
 20
-3.571535
  0
VERTEX
  8
PLAN_1
  6
CONTINUOUS
 10
1.897118
 20
-3.574339
  0
VERTEX
  8
PLAN_1
  6
CONTINUOUS
 10
1.901323
 20
-3.576209
  0
VERTEX
  8
PLAN_1
  6
CONTINUOUS
 10
1.905524
 20
-3.577610
  0
VERTEX
  8
PLAN_1
  6
CONTINUOUS
 10
1.909728
 20
-3.579008
  0
VERTEX
  8
PLAN_1
  6
CONTINUOUS
 10
1.966701
 20
-3.592087
  0
VERTEX
  8
PLAN_1
  6
CONTINUOUS
 10
1.971370
 20
-3.593488
  0
VERTEX
  8
PLAN_1
  6
CONTINUOUS
 10
1.976039
 20
-3.594886
  0
VERTEX
  8
PLAN_1
  6
CONTINUOUS
 10
1.980713
 20
-3.596756
  0
VERTEX
  8
PLAN_1
  6
CONTINUOUS
 10
1.984913
 20
-3.598622
  0
VERTEX
  8
PLAN_1
  6
CONTINUOUS
 10
1.988650
 20
-3.600957
  0
VERTEX
  8
PLAN_1
  6
CONTINUOUS
 10
1.992386
 20
-3.603291
  0
VERTEX
  8
PLAN_1
  6
CONTINUOUS
 10
1.995654
 20
-3.606094
  0
VERTEX
  8
PLAN_1
  6
CONTINUOUS
 10
1.998925
 20
-3.608898
  0
VERTEX
  8
PLAN_1
  6
CONTINUOUS
 10
2.001724
 20
-3.612634
  0
VERTEX
  8
PLAN_1
  6
CONTINUOUS
 10
2.004528
 20
-3.616370
  0
VERTEX
  8
PLAN_1
  6
CONTINUOUS
 10
2.006862
 20
-3.620106
  0
VERTEX
  8
PLAN_1
  6
CONTINUOUS
 10
2.008732
 20
-3.624307
  0
VERTEX
  8
PLAN_1
  6
CONTINUOUS
 10
2.010134
 20
-3.628976
  0
VERTEX
  8
PLAN_1
  6
CONTINUOUS
 10
2.011067
 20
-3.634114
  0
VERTEX
  8
PLAN_1
  6
CONTINUOUS
 10
2.012000
 20
-3.639720
  0
VERTEX
  8
PLAN_1
  6
CONTINUOUS
 10
2.012000
 20
-3.645323
  0
VERTEX
  8
PLAN_1
  6
CONTINUOUS
 10
2.012000
 20
-3.649528
  0
VERTEX
  8
PLAN_1
  6
CONTINUOUS
 10
2.011531
 20
-3.653728
  0
VERTEX
  8
PLAN_1
  6
CONTINUOUS
 10
2.011067
 20
-3.657933
  0
VERTEX
  8
PLAN_1
  6
CONTINUOUS
 10
2.010134
 20
-3.661669
  0
VERTEX
  8
PLAN_1
  6
CONTINUOUS
 10
2.009197
 20
-3.664937
  0
VERTEX
  8
PLAN_1
  6
CONTINUOUS
 10
2.007795
 20
-3.668205
  0
VERTEX
  8
PLAN_1
  6
CONTINUOUS
 10
2.006398
 20
-3.671476
  0
VERTEX
  8
PLAN_1
  6
CONTINUOUS
 10
2.004528
 20
-3.674744
  0
VERTEX
  8
PLAN_1
  6
CONTINUOUS
 10
2.000791
 20
-3.680346
  0
VERTEX
  8
PLAN_1
  6
CONTINUOUS
 10
1.996122
 20
-3.685020
  0
VERTEX
  8
PLAN_1
  6
CONTINUOUS
 10
1.991453
 20
-3.689220
  0
VERTEX
  8
PLAN_1
  6
CONTINUOUS
 10
1.985846
 20
-3.692957
  0
VERTEX
  8
PLAN_1
  6
CONTINUOUS
 10
1.979776
 20
-3.696224
  0
VERTEX
  8
PLAN_1
  6
CONTINUOUS
 10
1.973705
 20
-3.699028
  0
VERTEX
  8
PLAN_1
  6
CONTINUOUS
 10
1.967169
 20
-3.700898
  0
VERTEX
  8
PLAN_1
  6
CONTINUOUS
 10
1.960630
 20
-3.702764
  0
VERTEX
  8
PLAN_1
  6
CONTINUOUS
 10
1.954091
 20
-3.704165
  0
VERTEX
  8
PLAN_1
  6
CONTINUOUS
 10
1.947087
 20
-3.705098
  0
VERTEX
  8
PLAN_1
  6
CONTINUOUS
 10
1.940547
 20
-3.705567
  0
VERTEX
  8
PLAN_1
  6
CONTINUOUS
 10
1.934012
 20
-3.705567
  0
VERTEX
  8
PLAN_1
  6
CONTINUOUS
 10
1.927472
 20
-3.705567
  0
VERTEX
  8
PLAN_1
  6
CONTINUOUS
 10
1.921402
 20
-3.705098
  0
VERTEX
  8
PLAN_1
  6
CONTINUOUS
 10
1.915331
 20
-3.704634
  0
VERTEX
  8
PLAN_1
  6
CONTINUOUS
 10
1.910193
 20
-3.703697
  0
VERTEX
  8
PLAN_1
  6
CONTINUOUS
 10
1.900854
 20
-3.701831
  0
VERTEX
  8
PLAN_1
  6
CONTINUOUS
 10
1.893382
 20
-3.699028
  0
VERTEX
  8
PLAN_1
  6
CONTINUOUS
 10
1.886843
 20
-3.696224
  0
VERTEX
  8
PLAN_1
  6
CONTINUOUS
 10
1.881709
 20
-3.692957
  0
VERTEX
  8
PLAN_1
  6
CONTINUOUS
 10
1.877504
 20
-3.689689
  0
VERTEX
  8
PLAN_1
  6
CONTINUOUS
 10
1.873768
 20
-3.686417
  0
VERTEX
  8
PLAN_1
  6
CONTINUOUS
 10
1.870965
 20
-3.683618
  0
VERTEX
  8
PLAN_1
  6
CONTINUOUS
 10
1.868165
 20
-3.680815
  0
VERTEX
  8
PLAN_1
  6
CONTINUOUS
 10
1.865831
 20
-3.677547
  0
VERTEX
  8
PLAN_1
  6
CONTINUOUS
 10
1.863496
 20
-3.674744
  0
VERTEX
  8
PLAN_1
  6
CONTINUOUS
 10
1.859760
 20
-3.668673
  0
VERTEX
  8
PLAN_1
  6
CONTINUOUS
 10
1.857425
 20
-3.662602
  0
VERTEX
  8
PLAN_1
  6
CONTINUOUS
 10
1.855555
 20
-3.656063
  0
VERTEX
  8
PLAN_1
  6
CONTINUOUS
 10
1.854154
 20
-3.649528
  0
VERTEX
  8
PLAN_1
  6
CONTINUOUS
 10
1.853689
 20
-3.642988
  0
VERTEX
  8
PLAN_1
  6
CONTINUOUS
 10
1.853689
 20
-3.635984
  0
VERTEX
  8
PLAN_1
  6
CONTINUOUS
 10
1.878906
 20
-3.635984
  0
VERTEX
  8
PLAN_1
  6
CONTINUOUS
 10
1.878906
 20
-3.642520
  0
VERTEX
  8
PLAN_1
  6
CONTINUOUS
 10
1.880307
 20
-3.648126
  0
VERTEX
  8
PLAN_1
  6
CONTINUOUS
 10
1.881709
 20
-3.653728
  0
VERTEX
  8
PLAN_1
  6
CONTINUOUS
 10
1.883575
 20
-3.658398
  0
VERTEX
  8
PLAN_1
  6
CONTINUOUS
 10
1.886378
 20
-3.662602
  0
VERTEX
  8
PLAN_1
  6
CONTINUOUS
 10
1.889646
 20
-3.666339
  0
VERTEX
  8
PLAN_1
  6
CONTINUOUS
 10
1.892913
 20
-3.670075
  0
VERTEX
  8
PLAN_1
  6
CONTINUOUS
 10
1.896650
 20
-3.672878
  0
VERTEX
  8
PLAN_1
  6
CONTINUOUS
 10
1.900854
 20
-3.675213
  0
VERTEX
  8
PLAN_1
  6
CONTINUOUS
 10
1.905059
 20
-3.677079
  0
VERTEX
  8
PLAN_1
  6
CONTINUOUS
 10
1.909728
 20
-3.678949
  0
VERTEX
  8
PLAN_1
  6
CONTINUOUS
 10
1.914398
 20
-3.680346
  0
VERTEX
  8
PLAN_1
  6
CONTINUOUS
 10
1.919067
 20
-3.681283
  0
VERTEX
  8
PLAN_1
  6
CONTINUOUS
 10
1.924205
 20
-3.682217
  0
VERTEX
  8
PLAN_1
  6
CONTINUOUS
 10
1.928874
 20
-3.682217
  0
VERTEX
  8
PLAN_1
  6
CONTINUOUS
 10
1.933543
 20
-3.682685
  0
VERTEX
  8
PLAN_1
  6
CONTINUOUS
 10
1.941484
 20
-3.682217
  0
VERTEX
  8
PLAN_1
  6
CONTINUOUS
 10
1.949890
 20
-3.681283
  0
VERTEX
  8
PLAN_1
  6
CONTINUOUS
 10
1.954559
 20
-3.680346
  0
VERTEX
  8
PLAN_1
  6
CONTINUOUS
 10
1.958764
 20
-3.679413
  0
VERTEX
  8
PLAN_1
  6
CONTINUOUS
 10
1.962965
 20
-3.678012
  0
VERTEX
  8
PLAN_1
  6
CONTINUOUS
 10
1.967169
 20
-3.676610
  0
VERTEX
  8
PLAN_1
  6
CONTINUOUS
 10
1.970906
 20
-3.674276
  0
VERTEX
  8
PLAN_1
  6
CONTINUOUS
 10
1.974642
 20
-3.671941
  0
VERTEX
  8
PLAN_1
  6
CONTINUOUS
 10
1.977909
 20
-3.669606
  0
VERTEX
  8
PLAN_1
  6
CONTINUOUS
 10
1.980713
 20
-3.666339
  0
VERTEX
  8
PLAN_1
  6
CONTINUOUS
 10
1.982579
 20
-3.662602
  0
VERTEX
  8
PLAN_1
  6
CONTINUOUS
 10
1.984449
 20
-3.658398
  0
VERTEX
  8
PLAN_1
  6
CONTINUOUS
 10
1.985382
 20
-3.654197
  0
VERTEX
  8
PLAN_1
  6
CONTINUOUS
 10
1.985846
 20
-3.649059
  0
VERTEX
  8
PLAN_1
  6
CONTINUOUS
 10
1.985846
 20
-3.645323
  0
VERTEX
  8
PLAN_1
  6
CONTINUOUS
 10
1.985382
 20
-3.641587
  0
VERTEX
  8
PLAN_1
  6
CONTINUOUS
 10
1.984913
 20
-3.638783
  0
VERTEX
  8
PLAN_1
  6
CONTINUOUS
 10
1.983980
 20
-3.635984
  0
VERTEX
  8
PLAN_1
  6
CONTINUOUS
 10
1.982579
 20
-3.633181
  0
VERTEX
  8
PLAN_1
  6
CONTINUOUS
 10
1.981177
 20
-3.630846
  0
VERTEX
  8
PLAN_1
  6
CONTINUOUS
 10
1.979311
 20
-3.628512
  0
VERTEX
  8
PLAN_1
  6
CONTINUOUS
 10
1.976976
 20
-3.626642
  0
VERTEX
  8
PLAN_1
  6
CONTINUOUS
 10
1.974173
 20
-3.624776
  0
VERTEX
  8
PLAN_1
  6
CONTINUOUS
 10
1.971370
 20
-3.622906
  0
VERTEX
  8
PLAN_1
  6
CONTINUOUS
 10
1.967634
 20
-3.621039
  0
VERTEX
  8
PLAN_1
  6
CONTINUOUS
 10
1.963898
 20
-3.619638
  0
VERTEX
  8
PLAN_1
  6
CONTINUOUS
 10
1.954559
 20
-3.616370
  0
VERTEX
  8
PLAN_1
  6
CONTINUOUS
 10
1.943350
 20
-3.613567
  0
VERTEX
  8
PLAN_1
  6
CONTINUOUS
 10
1.902720
 20
-3.604228
  0
VERTEX
  8
PLAN_1
  6
CONTINUOUS
 10
1.897118
 20
-3.602827
  0
VERTEX
  8
PLAN_1
  6
CONTINUOUS
 10
1.890579
 20
-3.600492
  0
VERTEX
  8
PLAN_1
  6
CONTINUOUS
 10
1.886843
 20
-3.599091
  0
VERTEX
  8
PLAN_1
  6
CONTINUOUS
 10
1.883575
 20
-3.597220
  0
VERTEX
  8
PLAN_1
  6
CONTINUOUS
 10
1.879839
 20
-3.595354
  0
VERTEX
  8
PLAN_1
  6
CONTINUOUS
 10
1.876571
 20
-3.592551
  0
VERTEX
  8
PLAN_1
  6
CONTINUOUS
 10
1.873303
 20
-3.589752
  0
VERTEX
  8
PLAN_1
  6
CONTINUOUS
 10
1.870031
 20
-3.586480
  0
VERTEX
  8
PLAN_1
  6
CONTINUOUS
 10
1.867228
 20
-3.583213
  0
VERTEX
  8
PLAN_1
  6
CONTINUOUS
 10
1.864894
 20
-3.579008
  0
VERTEX
  8
PLAN_1
  6
CONTINUOUS
 10
1.863028
 20
-3.574339
  0
VERTEX
  8
PLAN_1
  6
CONTINUOUS
 10
1.861626
 20
-3.569201
  0
VERTEX
  8
PLAN_1
  6
CONTINUOUS
 10
1.860693
 20
-3.563598
  0
VERTEX
  8
PLAN_1
  6
CONTINUOUS
 10
1.860224
 20
-3.557528
  0
VERTEX
  8
PLAN_1
  6
CONTINUOUS
 10
1.860224
 20
-3.551457
  0
VERTEX
  8
PLAN_1
  6
CONTINUOUS
 10
1.861157
 20
-3.545850
  0
VERTEX
  8
PLAN_1
  6
CONTINUOUS
 10
1.862559
 20
-3.540248
  0
VERTEX
  8
PLAN_1
  6
CONTINUOUS
 10
1.863961
 20
-3.534646
  0
VERTEX
  8
PLAN_1
  6
CONTINUOUS
 10
1.866295
 20
-3.529508
  0
VERTEX
  8
PLAN_1
  6
CONTINUOUS
 10
1.869098
 20
-3.524370
  0
VERTEX
  8
PLAN_1
  6
CONTINUOUS
 10
1.872366
 20
-3.519232
  0
VERTEX
  8
PLAN_1
  6
CONTINUOUS
 10
1.876571
 20
-3.515031
  0
VERTEX
  8
PLAN_1
  6
CONTINUOUS
 10
1.880772
 20
-3.510827
  0
VERTEX
  8
PLAN_1
  6
CONTINUOUS
 10
1.885909
 20
-3.507091
  0
VERTEX
  8
PLAN_1
  6
CONTINUOUS
 10
1.891516
 20
-3.503823
  0
VERTEX
  8
PLAN_1
  6
CONTINUOUS
 10
1.897587
 20
-3.501020
  0
VERTEX
  8
PLAN_1
  6
CONTINUOUS
 10
1.904591
 20
-3.498685
  0
VERTEX
  8
PLAN_1
  6
CONTINUOUS
 10
1.912063
 20
-3.497283
  0
VERTEX
  8
PLAN_1
  6
CONTINUOUS
 10
1.920000
 20
-3.495882
  0
VERTEX
  8
PLAN_1
  6
CONTINUOUS
 10
1.928874
 20
-3.495882
  0
VERTEX
  8
PLAN_1
  6
CONTINUOUS
 10
1.934945
 20
-3.495882
  0
VERTEX
  8
PLAN_1
  6
CONTINUOUS
 10
1.941016
 20
-3.496350
  0
VERTEX
  8
PLAN_1
  6
CONTINUOUS
 10
1.946622
 20
-3.496819
  0
VERTEX
  8
PLAN_1
  6
CONTINUOUS
 10
1.952224
 20
-3.497752
  0
VERTEX
  8
PLAN_1
  6
CONTINUOUS
 10
1.956894
 20
-3.498685
  0
VERTEX
  8
PLAN_1
  6
CONTINUOUS
 10
1.961563
 20
-3.499618
  0
VERTEX
  8
PLAN_1
  6
CONTINUOUS
 10
1.966232
 20
-3.501020
  0
VERTEX
  8
PLAN_1
  6
CONTINUOUS
 10
1.969969
 20
-3.502421
  0
VERTEX
  8
PLAN_1
  6
CONTINUOUS
 10
1.973705
 20
-3.504291
  0
VERTEX
  8
PLAN_1
  6
CONTINUOUS
 10
1.977441
 20
-3.506157
  0
VERTEX
  8
PLAN_1
  6
CONTINUOUS
 10
1.980713
 20
-3.508024
  0
VERTEX
  8
PLAN_1
  6
CONTINUOUS
 10
1.983512
 20
-3.509894
  0
VERTEX
  8
PLAN_1
  6
CONTINUOUS
 10
1.989118
 20
-3.514563
  0
VERTEX
  8
PLAN_1
  6
CONTINUOUS
 10
1.993319
 20
-3.519232
  0
VERTEX
  8
PLAN_1
  6
CONTINUOUS
 10
1.997055
 20
-3.524370
  0
VERTEX
  8
PLAN_1
  6
CONTINUOUS
 10
1.999858
 20
-3.529508
  0
VERTEX
  8
PLAN_1
  6
CONTINUOUS
 10
2.001724
 20
-3.534646
  0
VERTEX
  8
PLAN_1
  6
CONTINUOUS
 10
2.003594
 20
-3.540248
  0
VERTEX
  8
PLAN_1
  6
CONTINUOUS
 10
2.004996
 20
-3.545386
  0
VERTEX
  8
PLAN_1
  6
CONTINUOUS
 10
2.005461
 20
-3.550055
  0
VERTEX
  8
PLAN_1
  6
CONTINUOUS
 10
2.005929
 20
-3.555193
  0
VERTEX
  8
PLAN_1
  6
CONTINUOUS
 10
2.006398
 20
-3.559394
  0
VERTEX
  8
PLAN_1
  6
CONTINUOUS
 10
1.981177
 20
-3.559394
  0
SEQEND
  8
0
  0
POLYLINE
  8
PLAN_1
  6
CONTINUOUS
 66
     1
 40
0.008406
 41
0.008406
  0
VERTEX
  8
PLAN_1
  6
CONTINUOUS
 10
-0.282835
 20
0.824791
  0
VERTEX
  8
PLAN_1
  6
CONTINUOUS
 10
-0.282835
 20
1.077906
  0
VERTEX
  8
PLAN_1
  6
CONTINUOUS
 10
-1.432587
 20
1.077906
  0
VERTEX
  8
PLAN_1
  6
CONTINUOUS
 10
-1.432587
 20
0.824791
  0
VERTEX
  8
PLAN_1
  6
CONTINUOUS
 10
-0.282835
 20
0.824791
  0
SEQEND
  8
0
  0
POLYLINE
  8
PLAN_1
  6
CONTINUOUS
 66
     1
 40
0.007004
 41
0.007004
  0
VERTEX
  8
PLAN_1
  6
CONTINUOUS
 10
-1.390091
 20
0.822925
  0
VERTEX
  8
PLAN_1
  6
CONTINUOUS
 10
-1.390091
 20
0.908386
  0
VERTEX
  8
PLAN_1
  6
CONTINUOUS
 10
-1.432587
 20
0.908386
  0
SEQEND
  8
0
  0
POLYLINE
  8
PLAN_1
  6
CONTINUOUS
 66
     1
 40
0.007004
 41
0.007004
  0
VERTEX
  8
PLAN_1
  6
CONTINUOUS
 10
-0.327201
 20
0.822925
  0
VERTEX
  8
PLAN_1
  6
CONTINUOUS
 10
-0.326732
 20
0.908386
  0
VERTEX
  8
PLAN_1
  6
CONTINUOUS
 10
-0.284236
 20
0.908386
  0
SEQEND
  8
0
  0
POLYLINE
  8
PLAN_1
  6
CONTINUOUS
 66
     1
 40
0.007004
 41
0.007004
  0
VERTEX
  8
PLAN_1
  6
CONTINUOUS
 10
-0.290772
 20
1.996961
  0
VERTEX
  8
PLAN_1
  6
CONTINUOUS
 10
-0.290772
 20
1.932980
  0
VERTEX
  8
PLAN_1
  6
CONTINUOUS
 10
-0.525205
 20
1.932980
  0
VERTEX
  8
PLAN_1
  6
CONTINUOUS
 10
-0.525205
 20
1.996961
  0
VERTEX
  8
PLAN_1
  6
CONTINUOUS
 10
-0.429937
 20
1.996492
  0
VERTEX
  8
PLAN_1
  6
CONTINUOUS
 10
-0.429937
 20
1.963803
  0
VERTEX
  8
PLAN_1
  6
CONTINUOUS
 10
-0.385575
 20
1.963803
  0
VERTEX
  8
PLAN_1
  6
CONTINUOUS
 10
-0.385575
 20
1.996492
  0
VERTEX
  8
PLAN_1
  6
CONTINUOUS
 10
-0.290772
 20
1.996961
  0
SEQEND
  8
0
  0
POLYLINE
  8
PLAN_1
  6
CONTINUOUS
 66
     1
 40
0.008406
 41
0.008406
  0
VERTEX
  8
PLAN_1
  6
CONTINUOUS
 10
-1.222437
 20
1.162433
  0
VERTEX
  8
PLAN_1
  6
CONTINUOUS
 10
-1.432587
 20
1.162433
  0
VERTEX
  8
PLAN_1
  6
CONTINUOUS
 10
-1.432587
 20
1.077906
  0
VERTEX
  8
PLAN_1
  6
CONTINUOUS
 10
-0.282835
 20
1.077906
  0
VERTEX
  8
PLAN_1
  6
CONTINUOUS
 10
-0.282835
 20
1.857327
  0
VERTEX
  8
PLAN_1
  6
CONTINUOUS
 10
-0.282835
 20
1.932516
  0
VERTEX
  8
PLAN_1
  6
CONTINUOUS
 10
-0.538283
 20
1.932516
  0
VERTEX
  8
PLAN_1
  6
CONTINUOUS
 10
-0.538283
 20
2.017043
  0
VERTEX
  8
PLAN_1
  6
CONTINUOUS
 10
-0.577043
 20
2.017043
  0
VERTEX
  8
PLAN_1
  6
CONTINUOUS
 10
-1.179941
 20
2.017043
  0
VERTEX
  8
PLAN_1
  6
CONTINUOUS
 10
-1.222437
 20
2.017043
  0
VERTEX
  8
PLAN_1
  6
CONTINUOUS
 10
-1.222437
 20
1.226413
  0
SEQEND
  8
0
  0
POLYLINE
  8
PLAN_1
  6
CONTINUOUS
 66
     1
 40
0.008406
 41
0.008406
  0
VERTEX
  8
PLAN_1
  6
CONTINUOUS
 10
-1.179941
 20
2.017043
  0
VERTEX
  8
PLAN_1
  6
CONTINUOUS
 10
-1.179941
 20
1.162433
  0
VERTEX
  8
PLAN_1
  6
CONTINUOUS
 10
-1.203291
 20
1.162433
  0
SEQEND
  8
0
  0
POLYLINE
  8
PLAN_1
  6
CONTINUOUS
 66
     1
 40
0.007004
 41
0.007004
  0
VERTEX
  8
PLAN_1
  6
CONTINUOUS
 10
-1.198154
 20
1.226878
  0
VERTEX
  8
PLAN_1
  6
CONTINUOUS
 10
-1.198154
 20
1.162902
  0
VERTEX
  8
PLAN_1
  6
CONTINUOUS
 10
-1.432118
 20
1.162902
  0
VERTEX
  8
PLAN_1
  6
CONTINUOUS
 10
-1.432118
 20
1.226878
  0
VERTEX
  8
PLAN_1
  6
CONTINUOUS
 10
-1.337319
 20
1.226413
  0
VERTEX
  8
PLAN_1
  6
CONTINUOUS
 10
-1.337319
 20
1.193720
  0
VERTEX
  8
PLAN_1
  6
CONTINUOUS
 10
-1.292953
 20
1.193720
  0
VERTEX
  8
PLAN_1
  6
CONTINUOUS
 10
-1.292953
 20
1.226413
  0
VERTEX
  8
PLAN_1
  6
CONTINUOUS
 10
-1.198154
 20
1.226878
  0
SEQEND
  8
0
  0
POLYLINE
  8
PLAN_1
  6
CONTINUOUS
 66
     1
 40
0.008406
 41
0.008406
  0
VERTEX
  8
PLAN_1
  6
CONTINUOUS
 10
-0.749366
 20
2.358886
  0
VERTEX
  8
PLAN_1
  6
CONTINUOUS
 10
-0.749366
 20
3.168197
  0
VERTEX
  8
PLAN_1
  6
CONTINUOUS
 10
-0.962319
 20
3.168197
  0
VERTEX
  8
PLAN_1
  6
CONTINUOUS
 10
-0.962319
 20
2.358886
  0
VERTEX
  8
PLAN_1
  6
CONTINUOUS
 10
-0.749366
 20
2.358886
  0
SEQEND
  8
0
  0
POLYLINE
  8
PLAN_1
  6
CONTINUOUS
 66
     1
 40
0.008406
 41
0.008406
  0
VERTEX
  8
PLAN_1
  6
CONTINUOUS
 10
-0.685854
 20
2.593319
  0
VERTEX
  8
PLAN_1
  6
CONTINUOUS
 10
-0.685854
 20
2.933760
  0
VERTEX
  8
PLAN_1
  6
CONTINUOUS
 10
-0.749835
 20
2.933760
  0
VERTEX
  8
PLAN_1
  6
CONTINUOUS
 10
-0.749835
 20
2.593319
  0
VERTEX
  8
PLAN_1
  6
CONTINUOUS
 10
-0.685854
 20
2.593319
  0
SEQEND
  8
0
  0
POLYLINE
  8
PLAN_1
  6
CONTINUOUS
 66
     1
 40
0.007004
 41
0.007004
  0
VERTEX
  8
PLAN_1
  6
CONTINUOUS
 10
-1.045909
 20
2.635815
  0
VERTEX
  8
PLAN_1
  6
CONTINUOUS
 10
-1.045909
 20
2.891264
  0
VERTEX
  8
PLAN_1
  6
CONTINUOUS
 10
-1.067394
 20
2.891264
  0
VERTEX
  8
PLAN_1
  6
CONTINUOUS
 10
-1.067394
 20
2.635815
  0
VERTEX
  8
PLAN_1
  6
CONTINUOUS
 10
-1.045909
 20
2.635815
  0
SEQEND
  8
0
  0
POLYLINE
  8
PLAN_1
  6
CONTINUOUS
 66
     1
 40
0.004201
 41
0.004201
  0
VERTEX
  8
PLAN_1
  6
CONTINUOUS
 10
-1.735201
 20
2.550354
  0
VERTEX
  8
PLAN_1
  6
CONTINUOUS
 10
-1.650209
 20
2.550354
  0
SEQEND
  8
0
  0
POLYLINE
  8
PLAN_1
 62
     5
  6
CONTINUOUS
 66
     1
 40
0.003000
 41
0.003000
  0
VERTEX
  8
PLAN_1
 62
     5
  6
CONTINUOUS
 10
-1.948622
 20
2.358886
  0
VERTEX
  8
PLAN_1
 62
     5
  6
CONTINUOUS
 10
-1.948622
 20
2.367291
  0
SEQEND
  8
0
  0
POLYLINE
  8
PLAN_1
 62
     5
  6
CONTINUOUS
 66
     1
 40
0.003000
 41
0.003000
  0
VERTEX
  8
PLAN_1
 62
     5
  6
CONTINUOUS
 10
-1.948622
 20
2.375697
  0
VERTEX
  8
PLAN_1
 62
     5
  6
CONTINUOUS
 10
-1.948622
 20
2.384102
  0
SEQEND
  8
0
  0
POLYLINE
  8
PLAN_1
 62
     5
  6
CONTINUOUS
 66
     1
 40
0.003000
 41
0.003000
  0
VERTEX
  8
PLAN_1
 62
     5
  6
CONTINUOUS
 10
-1.948622
 20
2.392043
  0
VERTEX
  8
PLAN_1
 62
     5
  6
CONTINUOUS
 10
-1.948622
 20
2.400449
  0
SEQEND
  8
0
  0
POLYLINE
  8
PLAN_1
 62
     5
  6
CONTINUOUS
 66
     1
 40
0.003000
 41
0.003000
  0
VERTEX
  8
PLAN_1
 62
     5
  6
CONTINUOUS
 10
-1.948622
 20
2.408854
  0
VERTEX
  8
PLAN_1
 62
     5
  6
CONTINUOUS
 10
-1.948622
 20
2.417260
  0
SEQEND
  8
0
  0
POLYLINE
  8
PLAN_1
 62
     5
  6
CONTINUOUS
 66
     1
 40
0.003000
 41
0.003000
  0
VERTEX
  8
PLAN_1
 62
     5
  6
CONTINUOUS
 10
-1.948622
 20
2.425665
  0
VERTEX
  8
PLAN_1
 62
     5
  6
CONTINUOUS
 10
-1.948622
 20
2.434071
  0
SEQEND
  8
0
  0
POLYLINE
  8
PLAN_1
 62
     5
  6
CONTINUOUS
 66
     1
 40
0.003000
 41
0.003000
  0
VERTEX
  8
PLAN_1
 62
     5
  6
CONTINUOUS
 10
-1.948622
 20
2.442012
  0
VERTEX
  8
PLAN_1
 62
     5
  6
CONTINUOUS
 10
-1.948622
 20
2.450417
  0
SEQEND
  8
0
  0
POLYLINE
  8
PLAN_1
 62
     5
  6
CONTINUOUS
 66
     1
 40
0.003000
 41
0.003000
  0
VERTEX
  8
PLAN_1
 62
     5
  6
CONTINUOUS
 10
-1.948622
 20
2.458823
  0
VERTEX
  8
PLAN_1
 62
     5
  6
CONTINUOUS
 10
-1.948622
 20
2.467228
  0
SEQEND
  8
0
  0
POLYLINE
  8
PLAN_1
 62
     5
  6
CONTINUOUS
 66
     1
 40
0.003000
 41
0.003000
  0
VERTEX
  8
PLAN_1
 62
     5
  6
CONTINUOUS
 10
-1.948622
 20
2.475634
  0
VERTEX
  8
PLAN_1
 62
     5
  6
CONTINUOUS
 10
-1.948622
 20
2.484039
  0
SEQEND
  8
0
  0
POLYLINE
  8
PLAN_1
 62
     5
  6
CONTINUOUS
 66
     1
 40
0.003000
 41
0.003000
  0
VERTEX
  8
PLAN_1
 62
     5
  6
CONTINUOUS
 10
-1.948622
 20
2.491980
  0
VERTEX
  8
PLAN_1
 62
     5
  6
CONTINUOUS
 10
-1.948622
 20
2.500386
  0
SEQEND
  8
0
  0
POLYLINE
  8
PLAN_1
 62
     5
  6
CONTINUOUS
 66
     1
 40
0.003000
 41
0.003000
  0
VERTEX
  8
PLAN_1
 62
     5
  6
CONTINUOUS
 10
-1.948622
 20
2.508791
  0
VERTEX
  8
PLAN_1
 62
     5
  6
CONTINUOUS
 10
-1.948622
 20
2.517197
  0
SEQEND
  8
0
  0
POLYLINE
  8
PLAN_1
 62
     5
  6
CONTINUOUS
 66
     1
 40
0.003000
 41
0.003000
  0
VERTEX
  8
PLAN_1
 62
     5
  6
CONTINUOUS
 10
-1.948622
 20
2.525602
  0
VERTEX
  8
PLAN_1
 62
     5
  6
CONTINUOUS
 10
-1.948622
 20
2.534012
  0
SEQEND
  8
0
  0
POLYLINE
  8
PLAN_1
 62
     5
  6
CONTINUOUS
 66
     1
 40
0.003000
 41
0.003000
  0
VERTEX
  8
PLAN_1
 62
     5
  6
CONTINUOUS
 10
-1.948622
 20
2.541949
  0
VERTEX
  8
PLAN_1
 62
     5
  6
CONTINUOUS
 10
-1.948622
 20
2.550354
  0
SEQEND
  8
0
  0
POLYLINE
  8
PLAN_1
 62
     5
  6
CONTINUOUS
 66
     1
 40
0.003000
 41
0.003000
  0
VERTEX
  8
PLAN_1
 62
     5
  6
CONTINUOUS
 10
-1.948622
 20
2.558760
  0
VERTEX
  8
PLAN_1
 62
     5
  6
CONTINUOUS
 10
-1.948622
 20
2.567165
  0
SEQEND
  8
0
  0
POLYLINE
  8
PLAN_1
 62
     5
  6
CONTINUOUS
 66
     1
 40
0.003000
 41
0.003000
  0
VERTEX
  8
PLAN_1
 62
     5
  6
CONTINUOUS
 10
-1.948622
 20
2.575575
  0
VERTEX
  8
PLAN_1
 62
     5
  6
CONTINUOUS
 10
-1.948622
 20
2.583980
  0
SEQEND
  8
0
  0
POLYLINE
  8
PLAN_1
 62
     5
  6
CONTINUOUS
 66
     1
 40
0.003000
 41
0.003000
  0
VERTEX
  8
PLAN_1
 62
     5
  6
CONTINUOUS
 10
-1.948622
 20
2.591917
  0
VERTEX
  8
PLAN_1
 62
     5
  6
CONTINUOUS
 10
-1.948622
 20
2.600323
  0
SEQEND
  8
0
  0
POLYLINE
  8
PLAN_1
 62
     5
  6
CONTINUOUS
 66
     1
 40
0.003000
 41
0.003000
  0
VERTEX
  8
PLAN_1
 62
     5
  6
CONTINUOUS
 10
-1.948622
 20
2.608728
  0
VERTEX
  8
PLAN_1
 62
     5
  6
CONTINUOUS
 10
-1.948622
 20
2.617138
  0
SEQEND
  8
0
  0
POLYLINE
  8
PLAN_1
 62
     5
  6
CONTINUOUS
 66
     1
 40
0.003000
 41
0.003000
  0
VERTEX
  8
PLAN_1
 62
     5
  6
CONTINUOUS
 10
-1.948622
 20
2.625543
  0
VERTEX
  8
PLAN_1
 62
     5
  6
CONTINUOUS
 10
-1.948622
 20
2.633949
  0
SEQEND
  8
0
  0
POLYLINE
  8
PLAN_1
 62
     5
  6
CONTINUOUS
 66
     1
 40
0.003000
 41
0.003000
  0
VERTEX
  8
PLAN_1
 62
     5
  6
CONTINUOUS
 10
-1.948622
 20
2.641886
  0
VERTEX
  8
PLAN_1
 62
     5
  6
CONTINUOUS
 10
-1.948622
 20
2.650291
  0
SEQEND
  8
0
  0
POLYLINE
  8
PLAN_1
 62
     5
  6
CONTINUOUS
 66
     1
 40
0.003000
 41
0.003000
  0
VERTEX
  8
PLAN_1
 62
     5
  6
CONTINUOUS
 10
-1.948622
 20
2.658701
  0
VERTEX
  8
PLAN_1
 62
     5
  6
CONTINUOUS
 10
-1.948622
 20
2.667106
  0
SEQEND
  8
0
  0
POLYLINE
  8
PLAN_1
 62
     5
  6
CONTINUOUS
 66
     1
 40
0.003000
 41
0.003000
  0
VERTEX
  8
PLAN_1
 62
     5
  6
CONTINUOUS
 10
-1.948622
 20
2.675512
  0
VERTEX
  8
PLAN_1
 62
     5
  6
CONTINUOUS
 10
-1.948622
 20
2.683917
  0
SEQEND
  8
0
  0
POLYLINE
  8
PLAN_1
 62
     5
  6
CONTINUOUS
 66
     1
 40
0.003000
 41
0.003000
  0
VERTEX
  8
PLAN_1
 62
     5
  6
CONTINUOUS
 10
-1.948622
 20
2.691854
  0
VERTEX
  8
PLAN_1
 62
     5
  6
CONTINUOUS
 10
-1.948622
 20
2.700260
  0
SEQEND
  8
0
  0
POLYLINE
  8
PLAN_1
 62
     5
  6
CONTINUOUS
 66
     1
 40
0.003000
 41
0.003000
  0
VERTEX
  8
PLAN_1
 62
     5
  6
CONTINUOUS
 10
-1.948622
 20
2.708669
  0
VERTEX
  8
PLAN_1
 62
     5
  6
CONTINUOUS
 10
-1.948622
 20
2.717075
  0
SEQEND
  8
0
  0
POLYLINE
  8
PLAN_1
 62
     5
  6
CONTINUOUS
 66
     1
 40
0.003000
 41
0.003000
  0
VERTEX
  8
PLAN_1
 62
     5
  6
CONTINUOUS
 10
-1.948622
 20
2.725480
  0
VERTEX
  8
PLAN_1
 62
     5
  6
CONTINUOUS
 10
-1.948622
 20
2.733886
  0
SEQEND
  8
0
  0
POLYLINE
  8
PLAN_1
 62
     5
  6
CONTINUOUS
 66
     1
 40
0.003000
 41
0.003000
  0
VERTEX
  8
PLAN_1
 62
     5
  6
CONTINUOUS
 10
-1.948622
 20
2.742291
  0
VERTEX
  8
PLAN_1
 62
     5
  6
CONTINUOUS
 10
-1.948622
 20
2.750232
  0
SEQEND
  8
0
  0
POLYLINE
  8
PLAN_1
 62
     5
  6
CONTINUOUS
 66
     1
 40
0.003000
 41
0.003000
  0
VERTEX
  8
PLAN_1
 62
     5
  6
CONTINUOUS
 10
-1.948622
 20
2.758638
  0
VERTEX
  8
PLAN_1
 62
     5
  6
CONTINUOUS
 10
-1.948622
 20
2.767043
  0
SEQEND
  8
0
  0
POLYLINE
  8
PLAN_1
 62
     5
  6
CONTINUOUS
 66
     1
 40
0.003000
 41
0.003000
  0
VERTEX
  8
PLAN_1
 62
     5
  6
CONTINUOUS
 10
-1.948622
 20
2.775449
  0
VERTEX
  8
PLAN_1
 62
     5
  6
CONTINUOUS
 10
-1.948622
 20
2.783854
  0
SEQEND
  8
0
  0
POLYLINE
  8
PLAN_1
 62
     5
  6
CONTINUOUS
 66
     1
 40
0.003000
 41
0.003000
  0
VERTEX
  8
PLAN_1
 62
     5
  6
CONTINUOUS
 10
-1.948622
 20
2.792260
  0
VERTEX
  8
PLAN_1
 62
     5
  6
CONTINUOUS
 10
-1.948622
 20
2.800201
  0
SEQEND
  8
0
  0
POLYLINE
  8
PLAN_1
 62
     5
  6
CONTINUOUS
 66
     1
 40
0.003000
 41
0.003000
  0
VERTEX
  8
PLAN_1
 62
     5
  6
CONTINUOUS
 10
-1.948622
 20
2.808606
  0
VERTEX
  8
PLAN_1
 62
     5
  6
CONTINUOUS
 10
-1.948622
 20
2.817012
  0
SEQEND
  8
0
  0
POLYLINE
  8
PLAN_1
 62
     5
  6
CONTINUOUS
 66
     1
 40
0.003000
 41
0.003000
  0
VERTEX
  8
PLAN_1
 62
     5
  6
CONTINUOUS
 10
-1.948622
 20
2.825417
  0
VERTEX
  8
PLAN_1
 62
     5
  6
CONTINUOUS
 10
-1.948622
 20
2.833823
  0
SEQEND
  8
0
  0
POLYLINE
  8
PLAN_1
 62
     5
  6
CONTINUOUS
 66
     1
 40
0.003000
 41
0.003000
  0
VERTEX
  8
PLAN_1
 62
     5
  6
CONTINUOUS
 10
-1.948622
 20
2.842228
  0
VERTEX
  8
PLAN_1
 62
     5
  6
CONTINUOUS
 10
-1.948622
 20
2.850169
  0
SEQEND
  8
0
  0
POLYLINE
  8
PLAN_1
 62
     5
  6
CONTINUOUS
 66
     1
 40
0.003000
 41
0.003000
  0
VERTEX
  8
PLAN_1
 62
     5
  6
CONTINUOUS
 10
-1.948622
 20
2.858575
  0
VERTEX
  8
PLAN_1
 62
     5
  6
CONTINUOUS
 10
-1.948622
 20
2.866980
  0
SEQEND
  8
0
  0
POLYLINE
  8
PLAN_1
 62
     5
  6
CONTINUOUS
 66
     1
 40
0.003000
 41
0.003000
  0
VERTEX
  8
PLAN_1
 62
     5
  6
CONTINUOUS
 10
-1.948622
 20
2.875386
  0
VERTEX
  8
PLAN_1
 62
     5
  6
CONTINUOUS
 10
-1.948622
 20
2.883791
  0
SEQEND
  8
0
  0
POLYLINE
  8
PLAN_1
 62
     5
  6
CONTINUOUS
 66
     1
 40
0.003000
 41
0.003000
  0
VERTEX
  8
PLAN_1
 62
     5
  6
CONTINUOUS
 10
-1.948622
 20
2.892197
  0
VERTEX
  8
PLAN_1
 62
     5
  6
CONTINUOUS
 10
-1.948622
 20
2.900138
  0
SEQEND
  8
0
  0
POLYLINE
  8
PLAN_1
 62
     5
  6
CONTINUOUS
 66
     1
 40
0.003000
 41
0.003000
  0
VERTEX
  8
PLAN_1
 62
     5
  6
CONTINUOUS
 10
-1.948622
 20
2.908543
  0
VERTEX
  8
PLAN_1
 62
     5
  6
CONTINUOUS
 10
-1.948622
 20
2.916949
  0
SEQEND
  8
0
  0
POLYLINE
  8
PLAN_1
 62
     5
  6
CONTINUOUS
 66
     1
 40
0.003000
 41
0.003000
  0
VERTEX
  8
PLAN_1
 62
     5
  6
CONTINUOUS
 10
-1.948622
 20
2.925354
  0
VERTEX
  8
PLAN_1
 62
     5
  6
CONTINUOUS
 10
-1.948622
 20
2.933760
  0
SEQEND
  8
0
  0
POLYLINE
  8
PLAN_1
 62
     5
  6
CONTINUOUS
 66
     1
 40
0.003000
 41
0.003000
  0
VERTEX
  8
PLAN_1
 62
     5
  6
CONTINUOUS
 10
-1.948622
 20
2.942169
  0
VERTEX
  8
PLAN_1
 62
     5
  6
CONTINUOUS
 10
-1.948622
 20
2.950106
  0
SEQEND
  8
0
  0
POLYLINE
  8
PLAN_1
 62
     5
  6
CONTINUOUS
 66
     1
 40
0.003000
 41
0.003000
  0
VERTEX
  8
PLAN_1
 62
     5
  6
CONTINUOUS
 10
-1.948622
 20
2.958512
  0
VERTEX
  8
PLAN_1
 62
     5
  6
CONTINUOUS
 10
-1.948622
 20
2.966917
  0
SEQEND
  8
0
  0
POLYLINE
  8
PLAN_1
 62
     5
  6
CONTINUOUS
 66
     1
 40
0.003000
 41
0.003000
  0
VERTEX
  8
PLAN_1
 62
     5
  6
CONTINUOUS
 10
-1.948622
 20
2.975323
  0
VERTEX
  8
PLAN_1
 62
     5
  6
CONTINUOUS
 10
-1.948622
 20
2.983728
  0
SEQEND
  8
0
  0
POLYLINE
  8
PLAN_1
 62
     5
  6
CONTINUOUS
 66
     1
 40
0.003000
 41
0.003000
  0
VERTEX
  8
PLAN_1
 62
     5
  6
CONTINUOUS
 10
-1.948622
 20
2.992138
  0
VERTEX
  8
PLAN_1
 62
     5
  6
CONTINUOUS
 10
-1.948622
 20
3.000075
  0
SEQEND
  8
0
  0
POLYLINE
  8
PLAN_1
 62
     5
  6
CONTINUOUS
 66
     1
 40
0.003000
 41
0.003000
  0
VERTEX
  8
PLAN_1
 62
     5
  6
CONTINUOUS
 10
-1.948622
 20
3.008480
  0
VERTEX
  8
PLAN_1
 62
     5
  6
CONTINUOUS
 10
-1.948622
 20
3.016886
  0
SEQEND
  8
0
  0
POLYLINE
  8
PLAN_1
 62
     5
  6
CONTINUOUS
 66
     1
 40
0.003000
 41
0.003000
  0
VERTEX
  8
PLAN_1
 62
     5
  6
CONTINUOUS
 10
-1.948622
 20
3.025291
  0
VERTEX
  8
PLAN_1
 62
     5
  6
CONTINUOUS
 10
-1.948622
 20
3.033701
  0
SEQEND
  8
0
  0
POLYLINE
  8
PLAN_1
 62
     5
  6
CONTINUOUS
 66
     1
 40
0.003000
 41
0.003000
  0
VERTEX
  8
PLAN_1
 62
     5
  6
CONTINUOUS
 10
-1.948622
 20
3.042106
  0
VERTEX
  8
PLAN_1
 62
     5
  6
CONTINUOUS
 10
-1.948622
 20
3.050043
  0
SEQEND
  8
0
  0
POLYLINE
  8
PLAN_1
 62
     5
  6
CONTINUOUS
 66
     1
 40
0.003000
 41
0.003000
  0
VERTEX
  8
PLAN_1
 62
     5
  6
CONTINUOUS
 10
-1.948622
 20
3.058449
  0
VERTEX
  8
PLAN_1
 62
     5
  6
CONTINUOUS
 10
-1.948622
 20
3.066854
  0
SEQEND
  8
0
  0
POLYLINE
  8
PLAN_1
 62
     5
  6
CONTINUOUS
 66
     1
 40
0.003000
 41
0.003000
  0
VERTEX
  8
PLAN_1
 62
     5
  6
CONTINUOUS
 10
-1.948622
 20
3.075264
  0
VERTEX
  8
PLAN_1
 62
     5
  6
CONTINUOUS
 10
-1.948622
 20
3.083669
  0
SEQEND
  8
0
  0
POLYLINE
  8
PLAN_1
 62
     5
  6
CONTINUOUS
 66
     1
 40
0.003000
 41
0.003000
  0
VERTEX
  8
PLAN_1
 62
     5
  6
CONTINUOUS
 10
-1.948622
 20
3.092075
  0
VERTEX
  8
PLAN_1
 62
     5
  6
CONTINUOUS
 10
-1.948622
 20
3.100012
  0
SEQEND
  8
0
  0
POLYLINE
  8
PLAN_1
 62
     5
  6
CONTINUOUS
 66
     1
 40
0.003000
 41
0.003000
  0
VERTEX
  8
PLAN_1
 62
     5
  6
CONTINUOUS
 10
-1.948622
 20
3.108417
  0
VERTEX
  8
PLAN_1
 62
     5
  6
CONTINUOUS
 10
-1.948622
 20
3.116827
  0
SEQEND
  8
0
  0
POLYLINE
  8
PLAN_1
 62
     5
  6
CONTINUOUS
 66
     1
 40
0.003000
 41
0.003000
  0
VERTEX
  8
PLAN_1
 62
     5
  6
CONTINUOUS
 10
-1.948622
 20
3.125232
  0
VERTEX
  8
PLAN_1
 62
     5
  6
CONTINUOUS
 10
-1.948622
 20
3.133638
  0
SEQEND
  8
0
  0
POLYLINE
  8
PLAN_1
 62
     5
  6
CONTINUOUS
 66
     1
 40
0.003000
 41
0.003000
  0
VERTEX
  8
PLAN_1
 62
     5
  6
CONTINUOUS
 10
-1.948622
 20
3.142043
  0
VERTEX
  8
PLAN_1
 62
     5
  6
CONTINUOUS
 10
-1.948622
 20
3.149980
  0
SEQEND
  8
0
  0
POLYLINE
  8
PLAN_1
 62
     5
  6
CONTINUOUS
 66
     1
 40
0.003000
 41
0.003000
  0
VERTEX
  8
PLAN_1
 62
     5
  6
CONTINUOUS
 10
-1.948622
 20
3.158390
  0
VERTEX
  8
PLAN_1
 62
     5
  6
CONTINUOUS
 10
-1.948622
 20
3.166795
  0
SEQEND
  8
0
  0
POLYLINE
  8
PLAN_1
 62
     5
  6
CONTINUOUS
 66
     1
 40
0.003000
 41
0.003000
  0
VERTEX
  8
PLAN_1
 62
     5
  6
CONTINUOUS
 10
-1.941614
 20
3.168197
  0
VERTEX
  8
PLAN_1
 62
     5
  6
CONTINUOUS
 10
-1.933209
 20
3.168197
  0
SEQEND
  8
0
  0
POLYLINE
  8
PLAN_1
 62
     5
  6
CONTINUOUS
 66
     1
 40
0.003000
 41
0.003000
  0
VERTEX
  8
PLAN_1
 62
     5
  6
CONTINUOUS
 10
-1.924803
 20
3.168197
  0
VERTEX
  8
PLAN_1
 62
     5
  6
CONTINUOUS
 10
-1.916398
 20
3.168197
  0
SEQEND
  8
0
  0
POLYLINE
  8
PLAN_1
 62
     5
  6
CONTINUOUS
 66
     1
 40
0.003000
 41
0.003000
  0
VERTEX
  8
PLAN_1
 62
     5
  6
CONTINUOUS
 10
-1.907992
 20
3.168197
  0
VERTEX
  8
PLAN_1
 62
     5
  6
CONTINUOUS
 10
-1.899587
 20
3.168197
  0
SEQEND
  8
0
  0
POLYLINE
  8
PLAN_1
 62
     5
  6
CONTINUOUS
 66
     1
 40
0.003000
 41
0.003000
  0
VERTEX
  8
PLAN_1
 62
     5
  6
CONTINUOUS
 10
-1.891646
 20
3.168197
  0
VERTEX
  8
PLAN_1
 62
     5
  6
CONTINUOUS
 10
-1.883240
 20
3.168197
  0
SEQEND
  8
0
  0
POLYLINE
  8
PLAN_1
 62
     5
  6
CONTINUOUS
 66
     1
 40
0.003000
 41
0.003000
  0
VERTEX
  8
PLAN_1
 62
     5
  6
CONTINUOUS
 10
-1.874835
 20
3.168197
  0
VERTEX
  8
PLAN_1
 62
     5
  6
CONTINUOUS
 10
-1.866429
 20
3.168197
  0
SEQEND
  8
0
  0
POLYLINE
  8
PLAN_1
 62
     5
  6
CONTINUOUS
 66
     1
 40
0.003000
 41
0.003000
  0
VERTEX
  8
PLAN_1
 62
     5
  6
CONTINUOUS
 10
-1.858024
 20
3.168197
  0
VERTEX
  8
PLAN_1
 62
     5
  6
CONTINUOUS
 10
-1.849618
 20
3.168197
  0
SEQEND
  8
0
  0
POLYLINE
  8
PLAN_1
 62
     5
  6
CONTINUOUS
 66
     1
 40
0.003000
 41
0.003000
  0
VERTEX
  8
PLAN_1
 62
     5
  6
CONTINUOUS
 10
-1.841677
 20
3.168197
  0
VERTEX
  8
PLAN_1
 62
     5
  6
CONTINUOUS
 10
-1.833272
 20
3.168197
  0
SEQEND
  8
0
  0
POLYLINE
  8
PLAN_1
 62
     5
  6
CONTINUOUS
 66
     1
 40
0.003000
 41
0.003000
  0
VERTEX
  8
PLAN_1
 62
     5
  6
CONTINUOUS
 10
-1.824866
 20
3.168197
  0
VERTEX
  8
PLAN_1
 62
     5
  6
CONTINUOUS
 10
-1.816461
 20
3.168197
  0
SEQEND
  8
0
  0
POLYLINE
  8
PLAN_1
 62
     5
  6
CONTINUOUS
 66
     1
 40
0.003000
 41
0.003000
  0
VERTEX
  8
PLAN_1
 62
     5
  6
CONTINUOUS
 10
-1.808055
 20
3.168197
  0
VERTEX
  8
PLAN_1
 62
     5
  6
CONTINUOUS
 10
-1.799646
 20
3.168197
  0
SEQEND
  8
0
  0
POLYLINE
  8
PLAN_1
 62
     5
  6
CONTINUOUS
 66
     1
 40
0.003000
 41
0.003000
  0
VERTEX
  8
PLAN_1
 62
     5
  6
CONTINUOUS
 10
-1.791709
 20
3.168197
  0
VERTEX
  8
PLAN_1
 62
     5
  6
CONTINUOUS
 10
-1.783303
 20
3.168197
  0
SEQEND
  8
0
  0
POLYLINE
  8
PLAN_1
 62
     5
  6
CONTINUOUS
 66
     1
 40
0.003000
 41
0.003000
  0
VERTEX
  8
PLAN_1
 62
     5
  6
CONTINUOUS
 10
-1.774898
 20
3.168197
  0
VERTEX
  8
PLAN_1
 62
     5
  6
CONTINUOUS
 10
-1.766492
 20
3.168197
  0
SEQEND
  8
0
  0
POLYLINE
  8
PLAN_1
 62
     5
  6
CONTINUOUS
 66
     1
 40
0.003000
 41
0.003000
  0
VERTEX
  8
PLAN_1
 62
     5
  6
CONTINUOUS
 10
-1.758083
 20
3.168197
  0
VERTEX
  8
PLAN_1
 62
     5
  6
CONTINUOUS
 10
-1.749677
 20
3.168197
  0
SEQEND
  8
0
  0
POLYLINE
  8
PLAN_1
 62
     5
  6
CONTINUOUS
 66
     1
 40
0.003000
 41
0.003000
  0
VERTEX
  8
PLAN_1
 62
     5
  6
CONTINUOUS
 10
-1.741740
 20
3.168197
  0
VERTEX
  8
PLAN_1
 62
     5
  6
CONTINUOUS
 10
-1.735669
 20
3.168197
  0
VERTEX
  8
PLAN_1
 62
     5
  6
CONTINUOUS
 10
-1.735669
 20
3.165858
  0
SEQEND
  8
0
  0
POLYLINE
  8
PLAN_1
 62
     5
  6
CONTINUOUS
 66
     1
 40
0.003000
 41
0.003000
  0
VERTEX
  8
PLAN_1
 62
     5
  6
CONTINUOUS
 10
-1.735669
 20
3.157453
  0
VERTEX
  8
PLAN_1
 62
     5
  6
CONTINUOUS
 10
-1.735669
 20
3.149516
  0
SEQEND
  8
0
  0
POLYLINE
  8
PLAN_1
 62
     5
  6
CONTINUOUS
 66
     1
 40
0.003000
 41
0.003000
  0
VERTEX
  8
PLAN_1
 62
     5
  6
CONTINUOUS
 10
-1.735669
 20
3.141110
  0
VERTEX
  8
PLAN_1
 62
     5
  6
CONTINUOUS
 10
-1.735669
 20
3.132705
  0
SEQEND
  8
0
  0
POLYLINE
  8
PLAN_1
 62
     5
  6
CONTINUOUS
 66
     1
 40
0.003000
 41
0.003000
  0
VERTEX
  8
PLAN_1
 62
     5
  6
CONTINUOUS
 10
-1.735669
 20
3.124295
  0
VERTEX
  8
PLAN_1
 62
     5
  6
CONTINUOUS
 10
-1.735669
 20
3.115890
  0
SEQEND
  8
0
  0
POLYLINE
  8
PLAN_1
 62
     5
  6
CONTINUOUS
 66
     1
 40
0.003000
 41
0.003000
  0
VERTEX
  8
PLAN_1
 62
     5
  6
CONTINUOUS
 10
-1.735669
 20
3.107484
  0
VERTEX
  8
PLAN_1
 62
     5
  6
CONTINUOUS
 10
-1.735669
 20
3.099547
  0
SEQEND
  8
0
  0
POLYLINE
  8
PLAN_1
 62
     5
  6
CONTINUOUS
 66
     1
 40
0.003000
 41
0.003000
  0
VERTEX
  8
PLAN_1
 62
     5
  6
CONTINUOUS
 10
-1.735669
 20
3.091142
  0
VERTEX
  8
PLAN_1
 62
     5
  6
CONTINUOUS
 10
-1.735669
 20
3.082732
  0
SEQEND
  8
0
  0
POLYLINE
  8
PLAN_1
 62
     5
  6
CONTINUOUS
 66
     1
 40
0.003000
 41
0.003000
  0
VERTEX
  8
PLAN_1
 62
     5
  6
CONTINUOUS
 10
-1.735669
 20
3.074327
  0
VERTEX
  8
PLAN_1
 62
     5
  6
CONTINUOUS
 10
-1.735669
 20
3.065921
  0
SEQEND
  8
0
  0
POLYLINE
  8
PLAN_1
 62
     5
  6
CONTINUOUS
 66
     1
 40
0.003000
 41
0.003000
  0
VERTEX
  8
PLAN_1
 62
     5
  6
CONTINUOUS
 10
-1.735669
 20
3.057516
  0
VERTEX
  8
PLAN_1
 62
     5
  6
CONTINUOUS
 10
-1.735669
 20
3.049579
  0
SEQEND
  8
0
  0
POLYLINE
  8
PLAN_1
 62
     5
  6
CONTINUOUS
 66
     1
 40
0.003000
 41
0.003000
  0
VERTEX
  8
PLAN_1
 62
     5
  6
CONTINUOUS
 10
-1.735669
 20
3.041169
  0
VERTEX
  8
PLAN_1
 62
     5
  6
CONTINUOUS
 10
-1.735669
 20
3.032764
  0
SEQEND
  8
0
  0
POLYLINE
  8
PLAN_1
 62
     5
  6
CONTINUOUS
 66
     1
 40
0.003000
 41
0.003000
  0
VERTEX
  8
PLAN_1
 62
     5
  6
CONTINUOUS
 10
-1.735669
 20
3.024358
  0
VERTEX
  8
PLAN_1
 62
     5
  6
CONTINUOUS
 10
-1.735669
 20
3.015953
  0
SEQEND
  8
0
  0
POLYLINE
  8
PLAN_1
 62
     5
  6
CONTINUOUS
 66
     1
 40
0.003000
 41
0.003000
  0
VERTEX
  8
PLAN_1
 62
     5
  6
CONTINUOUS
 10
-1.735669
 20
3.007547
  0
VERTEX
  8
PLAN_1
 62
     5
  6
CONTINUOUS
 10
-1.735669
 20
2.999610
  0
SEQEND
  8
0
  0
POLYLINE
  8
PLAN_1
 62
     5
  6
CONTINUOUS
 66
     1
 40
0.003000
 41
0.003000
  0
VERTEX
  8
PLAN_1
 62
     5
  6
CONTINUOUS
 10
-1.735669
 20
2.991201
  0
VERTEX
  8
PLAN_1
 62
     5
  6
CONTINUOUS
 10
-1.735669
 20
2.982795
  0
SEQEND
  8
0
  0
POLYLINE
  8
PLAN_1
 62
     5
  6
CONTINUOUS
 66
     1
 40
0.003000
 41
0.003000
  0
VERTEX
  8
PLAN_1
 62
     5
  6
CONTINUOUS
 10
-1.735669
 20
2.974390
  0
VERTEX
  8
PLAN_1
 62
     5
  6
CONTINUOUS
 10
-1.735669
 20
2.965984
  0
SEQEND
  8
0
  0
POLYLINE
  8
PLAN_1
 62
     5
  6
CONTINUOUS
 66
     1
 40
0.003000
 41
0.003000
  0
VERTEX
  8
PLAN_1
 62
     5
  6
CONTINUOUS
 10
-1.735669
 20
2.957579
  0
VERTEX
  8
PLAN_1
 62
     5
  6
CONTINUOUS
 10
-1.735669
 20
2.949638
  0
SEQEND
  8
0
  0
POLYLINE
  8
PLAN_1
 62
     5
  6
CONTINUOUS
 66
     1
 40
0.003000
 41
0.003000
  0
VERTEX
  8
PLAN_1
 62
     5
  6
CONTINUOUS
 10
-1.735669
 20
2.941232
  0
VERTEX
  8
PLAN_1
 62
     5
  6
CONTINUOUS
 10
-1.735669
 20
2.932827
  0
SEQEND
  8
0
  0
POLYLINE
  8
PLAN_1
 62
     5
  6
CONTINUOUS
 66
     1
 40
0.003000
 41
0.003000
  0
VERTEX
  8
PLAN_1
 62
     5
  6
CONTINUOUS
 10
-1.735669
 20
2.924421
  0
VERTEX
  8
PLAN_1
 62
     5
  6
CONTINUOUS
 10
-1.735669
 20
2.916016
  0
SEQEND
  8
0
  0
POLYLINE
  8
PLAN_1
 62
     5
  6
CONTINUOUS
 66
     1
 40
0.003000
 41
0.003000
  0
VERTEX
  8
PLAN_1
 62
     5
  6
CONTINUOUS
 10
-1.735669
 20
2.907610
  0
VERTEX
  8
PLAN_1
 62
     5
  6
CONTINUOUS
 10
-1.735669
 20
2.899669
  0
SEQEND
  8
0
  0
POLYLINE
  8
PLAN_1
 62
     5
  6
CONTINUOUS
 66
     1
 40
0.003000
 41
0.003000
  0
VERTEX
  8
PLAN_1
 62
     5
  6
CONTINUOUS
 10
-1.735669
 20
2.891264
  0
VERTEX
  8
PLAN_1
 62
     5
  6
CONTINUOUS
 10
-1.735669
 20
2.882858
  0
SEQEND
  8
0
  0
POLYLINE
  8
PLAN_1
 62
     5
  6
CONTINUOUS
 66
     1
 40
0.003000
 41
0.003000
  0
VERTEX
  8
PLAN_1
 62
     5
  6
CONTINUOUS
 10
-1.735669
 20
2.874453
  0
VERTEX
  8
PLAN_1
 62
     5
  6
CONTINUOUS
 10
-1.735669
 20
2.866047
  0
SEQEND
  8
0
  0
POLYLINE
  8
PLAN_1
 62
     5
  6
CONTINUOUS
 66
     1
 40
0.003000
 41
0.003000
  0
VERTEX
  8
PLAN_1
 62
     5
  6
CONTINUOUS
 10
-1.735669
 20
2.857642
  0
VERTEX
  8
PLAN_1
 62
     5
  6
CONTINUOUS
 10
-1.735669
 20
2.849701
  0
SEQEND
  8
0
  0
POLYLINE
  8
PLAN_1
 62
     5
  6
CONTINUOUS
 66
     1
 40
0.003000
 41
0.003000
  0
VERTEX
  8
PLAN_1
 62
     5
  6
CONTINUOUS
 10
-1.735669
 20
2.841295
  0
VERTEX
  8
PLAN_1
 62
     5
  6
CONTINUOUS
 10
-1.735669
 20
2.832890
  0
SEQEND
  8
0
  0
POLYLINE
  8
PLAN_1
 62
     5
  6
CONTINUOUS
 66
     1
 40
0.003000
 41
0.003000
  0
VERTEX
  8
PLAN_1
 62
     5
  6
CONTINUOUS
 10
-1.735669
 20
2.824484
  0
VERTEX
  8
PLAN_1
 62
     5
  6
CONTINUOUS
 10
-1.735669
 20
2.816079
  0
SEQEND
  8
0
  0
POLYLINE
  8
PLAN_1
 62
     5
  6
CONTINUOUS
 66
     1
 40
0.003000
 41
0.003000
  0
VERTEX
  8
PLAN_1
 62
     5
  6
CONTINUOUS
 10
-1.735669
 20
2.807673
  0
VERTEX
  8
PLAN_1
 62
     5
  6
CONTINUOUS
 10
-1.735669
 20
2.799732
  0
SEQEND
  8
0
  0
POLYLINE
  8
PLAN_1
 62
     5
  6
CONTINUOUS
 66
     1
 40
0.003000
 41
0.003000
  0
VERTEX
  8
PLAN_1
 62
     5
  6
CONTINUOUS
 10
-1.735669
 20
2.791327
  0
VERTEX
  8
PLAN_1
 62
     5
  6
CONTINUOUS
 10
-1.735669
 20
2.782921
  0
SEQEND
  8
0
  0
POLYLINE
  8
PLAN_1
 62
     5
  6
CONTINUOUS
 66
     1
 40
0.003000
 41
0.003000
  0
VERTEX
  8
PLAN_1
 62
     5
  6
CONTINUOUS
 10
-1.735669
 20
2.774516
  0
VERTEX
  8
PLAN_1
 62
     5
  6
CONTINUOUS
 10
-1.735669
 20
2.766110
  0
SEQEND
  8
0
  0
POLYLINE
  8
PLAN_1
 62
     5
  6
CONTINUOUS
 66
     1
 40
0.003000
 41
0.003000
  0
VERTEX
  8
PLAN_1
 62
     5
  6
CONTINUOUS
 10
-1.735669
 20
2.757701
  0
VERTEX
  8
PLAN_1
 62
     5
  6
CONTINUOUS
 10
-1.735669
 20
2.749764
  0
SEQEND
  8
0
  0
POLYLINE
  8
PLAN_1
 62
     5
  6
CONTINUOUS
 66
     1
 40
0.003000
 41
0.003000
  0
VERTEX
  8
PLAN_1
 62
     5
  6
CONTINUOUS
 10
-1.735669
 20
2.741358
  0
VERTEX
  8
PLAN_1
 62
     5
  6
CONTINUOUS
 10
-1.735669
 20
2.732953
  0
SEQEND
  8
0
  0
POLYLINE
  8
PLAN_1
 62
     5
  6
CONTINUOUS
 66
     1
 40
0.003000
 41
0.003000
  0
VERTEX
  8
PLAN_1
 62
     5
  6
CONTINUOUS
 10
-1.735669
 20
2.724547
  0
VERTEX
  8
PLAN_1
 62
     5
  6
CONTINUOUS
 10
-1.735669
 20
2.716142
  0
SEQEND
  8
0
  0
POLYLINE
  8
PLAN_1
 62
     5
  6
CONTINUOUS
 66
     1
 40
0.003000
 41
0.003000
  0
VERTEX
  8
PLAN_1
 62
     5
  6
CONTINUOUS
 10
-1.735669
 20
2.707732
  0
VERTEX
  8
PLAN_1
 62
     5
  6
CONTINUOUS
 10
-1.735669
 20
2.699795
  0
SEQEND
  8
0
  0
POLYLINE
  8
PLAN_1
 62
     5
  6
CONTINUOUS
 66
     1
 40
0.003000
 41
0.003000
  0
VERTEX
  8
PLAN_1
 62
     5
  6
CONTINUOUS
 10
-1.735669
 20
2.691390
  0
VERTEX
  8
PLAN_1
 62
     5
  6
CONTINUOUS
 10
-1.735669
 20
2.682984
  0
SEQEND
  8
0
  0
POLYLINE
  8
PLAN_1
 62
     5
  6
CONTINUOUS
 66
     1
 40
0.003000
 41
0.003000
  0
VERTEX
  8
PLAN_1
 62
     5
  6
CONTINUOUS
 10
-1.735669
 20
2.674579
  0
VERTEX
  8
PLAN_1
 62
     5
  6
CONTINUOUS
 10
-1.735669
 20
2.666169
  0
SEQEND
  8
0
  0
POLYLINE
  8
PLAN_1
 62
     5
  6
CONTINUOUS
 66
     1
 40
0.003000
 41
0.003000
  0
VERTEX
  8
PLAN_1
 62
     5
  6
CONTINUOUS
 10
-1.735669
 20
2.657764
  0
VERTEX
  8
PLAN_1
 62
     5
  6
CONTINUOUS
 10
-1.735669
 20
2.649827
  0
SEQEND
  8
0
  0
POLYLINE
  8
PLAN_1
 62
     5
  6
CONTINUOUS
 66
     1
 40
0.003000
 41
0.003000
  0
VERTEX
  8
PLAN_1
 62
     5
  6
CONTINUOUS
 10
-1.735669
 20
2.641421
  0
VERTEX
  8
PLAN_1
 62
     5
  6
CONTINUOUS
 10
-1.735669
 20
2.633016
  0
SEQEND
  8
0
  0
POLYLINE
  8
PLAN_1
 62
     5
  6
CONTINUOUS
 66
     1
 40
0.003000
 41
0.003000
  0
VERTEX
  8
PLAN_1
 62
     5
  6
CONTINUOUS
 10
-1.735669
 20
2.624606
  0
VERTEX
  8
PLAN_1
 62
     5
  6
CONTINUOUS
 10
-1.735669
 20
2.616201
  0
SEQEND
  8
0
  0
POLYLINE
  8
PLAN_1
 62
     5
  6
CONTINUOUS
 66
     1
 40
0.003000
 41
0.003000
  0
VERTEX
  8
PLAN_1
 62
     5
  6
CONTINUOUS
 10
-1.735669
 20
2.607795
  0
VERTEX
  8
PLAN_1
 62
     5
  6
CONTINUOUS
 10
-1.735669
 20
2.599858
  0
SEQEND
  8
0
  0
POLYLINE
  8
PLAN_1
 62
     5
  6
CONTINUOUS
 66
     1
 40
0.003000
 41
0.003000
  0
VERTEX
  8
PLAN_1
 62
     5
  6
CONTINUOUS
 10
-1.735669
 20
2.591453
  0
VERTEX
  8
PLAN_1
 62
     5
  6
CONTINUOUS
 10
-1.735669
 20
2.583043
  0
SEQEND
  8
0
  0
POLYLINE
  8
PLAN_1
 62
     5
  6
CONTINUOUS
 66
     1
 40
0.003000
 41
0.003000
  0
VERTEX
  8
PLAN_1
 62
     5
  6
CONTINUOUS
 10
-1.735669
 20
2.574638
  0
VERTEX
  8
PLAN_1
 62
     5
  6
CONTINUOUS
 10
-1.735669
 20
2.566232
  0
SEQEND
  8
0
  0
POLYLINE
  8
PLAN_1
 62
     5
  6
CONTINUOUS
 66
     1
 40
0.003000
 41
0.003000
  0
VERTEX
  8
PLAN_1
 62
     5
  6
CONTINUOUS
 10
-1.735669
 20
2.557827
  0
VERTEX
  8
PLAN_1
 62
     5
  6
CONTINUOUS
 10
-1.735669
 20
2.549890
  0
SEQEND
  8
0
  0
POLYLINE
  8
PLAN_1
 62
     5
  6
CONTINUOUS
 66
     1
 40
0.003000
 41
0.003000
  0
VERTEX
  8
PLAN_1
 62
     5
  6
CONTINUOUS
 10
-1.735669
 20
2.541480
  0
VERTEX
  8
PLAN_1
 62
     5
  6
CONTINUOUS
 10
-1.735669
 20
2.533075
  0
SEQEND
  8
0
  0
POLYLINE
  8
PLAN_1
 62
     5
  6
CONTINUOUS
 66
     1
 40
0.003000
 41
0.003000
  0
VERTEX
  8
PLAN_1
 62
     5
  6
CONTINUOUS
 10
-1.735669
 20
2.524669
  0
VERTEX
  8
PLAN_1
 62
     5
  6
CONTINUOUS
 10
-1.735669
 20
2.516264
  0
SEQEND
  8
0
  0
POLYLINE
  8
PLAN_1
 62
     5
  6
CONTINUOUS
 66
     1
 40
0.003000
 41
0.003000
  0
VERTEX
  8
PLAN_1
 62
     5
  6
CONTINUOUS
 10
-1.735669
 20
2.507858
  0
VERTEX
  8
PLAN_1
 62
     5
  6
CONTINUOUS
 10
-1.735669
 20
2.499453
  0
SEQEND
  8
0
  0
POLYLINE
  8
PLAN_1
 62
     5
  6
CONTINUOUS
 66
     1
 40
0.003000
 41
0.003000
  0
VERTEX
  8
PLAN_1
 62
     5
  6
CONTINUOUS
 10
-1.735669
 20
2.491512
  0
VERTEX
  8
PLAN_1
 62
     5
  6
CONTINUOUS
 10
-1.735669
 20
2.483106
  0
SEQEND
  8
0
  0
POLYLINE
  8
PLAN_1
 62
     5
  6
CONTINUOUS
 66
     1
 40
0.003000
 41
0.003000
  0
VERTEX
  8
PLAN_1
 62
     5
  6
CONTINUOUS
 10
-1.735669
 20
2.474701
  0
VERTEX
  8
PLAN_1
 62
     5
  6
CONTINUOUS
 10
-1.735669
 20
2.466295
  0
SEQEND
  8
0
  0
POLYLINE
  8
PLAN_1
 62
     5
  6
CONTINUOUS
 66
     1
 40
0.003000
 41
0.003000
  0
VERTEX
  8
PLAN_1
 62
     5
  6
CONTINUOUS
 10
-1.735669
 20
2.457890
  0
VERTEX
  8
PLAN_1
 62
     5
  6
CONTINUOUS
 10
-1.735669
 20
2.449484
  0
SEQEND
  8
0
  0
POLYLINE
  8
PLAN_1
 62
     5
  6
CONTINUOUS
 66
     1
 40
0.003000
 41
0.003000
  0
VERTEX
  8
PLAN_1
 62
     5
  6
CONTINUOUS
 10
-1.735669
 20
2.441543
  0
VERTEX
  8
PLAN_1
 62
     5
  6
CONTINUOUS
 10
-1.735669
 20
2.433138
  0
SEQEND
  8
0
  0
POLYLINE
  8
PLAN_1
 62
     5
  6
CONTINUOUS
 66
     1
 40
0.003000
 41
0.003000
  0
VERTEX
  8
PLAN_1
 62
     5
  6
CONTINUOUS
 10
-1.735669
 20
2.424732
  0
VERTEX
  8
PLAN_1
 62
     5
  6
CONTINUOUS
 10
-1.735669
 20
2.416327
  0
SEQEND
  8
0
  0
POLYLINE
  8
PLAN_1
 62
     5
  6
CONTINUOUS
 66
     1
 40
0.003000
 41
0.003000
  0
VERTEX
  8
PLAN_1
 62
     5
  6
CONTINUOUS
 10
-1.735669
 20
2.407921
  0
VERTEX
  8
PLAN_1
 62
     5
  6
CONTINUOUS
 10
-1.735669
 20
2.399516
  0
SEQEND
  8
0
  0
POLYLINE
  8
PLAN_1
 62
     5
  6
CONTINUOUS
 66
     1
 40
0.003000
 41
0.003000
  0
VERTEX
  8
PLAN_1
 62
     5
  6
CONTINUOUS
 10
-1.735669
 20
2.391575
  0
VERTEX
  8
PLAN_1
 62
     5
  6
CONTINUOUS
 10
-1.735669
 20
2.383169
  0
SEQEND
  8
0
  0
POLYLINE
  8
PLAN_1
 62
     5
  6
CONTINUOUS
 66
     1
 40
0.003000
 41
0.003000
  0
VERTEX
  8
PLAN_1
 62
     5
  6
CONTINUOUS
 10
-1.735669
 20
2.374764
  0
VERTEX
  8
PLAN_1
 62
     5
  6
CONTINUOUS
 10
-1.735669
 20
2.366358
  0
SEQEND
  8
0
  0
POLYLINE
  8
PLAN_1
 62
     5
  6
CONTINUOUS
 66
     1
 40
0.003000
 41
0.003000
  0
VERTEX
  8
PLAN_1
 62
     5
  6
CONTINUOUS
 10
-1.736134
 20
2.358886
  0
VERTEX
  8
PLAN_1
 62
     5
  6
CONTINUOUS
 10
-1.744543
 20
2.358886
  0
SEQEND
  8
0
  0
POLYLINE
  8
PLAN_1
 62
     5
  6
CONTINUOUS
 66
     1
 40
0.003000
 41
0.003000
  0
VERTEX
  8
PLAN_1
 62
     5
  6
CONTINUOUS
 10
-1.752949
 20
2.358886
  0
VERTEX
  8
PLAN_1
 62
     5
  6
CONTINUOUS
 10
-1.761354
 20
2.358886
  0
SEQEND
  8
0
  0
POLYLINE
  8
PLAN_1
 62
     5
  6
CONTINUOUS
 66
     1
 40
0.003000
 41
0.003000
  0
VERTEX
  8
PLAN_1
 62
     5
  6
CONTINUOUS
 10
-1.769760
 20
2.358886
  0
VERTEX
  8
PLAN_1
 62
     5
  6
CONTINUOUS
 10
-1.778165
 20
2.358886
  0
SEQEND
  8
0
  0
POLYLINE
  8
PLAN_1
 62
     5
  6
CONTINUOUS
 66
     1
 40
0.003000
 41
0.003000
  0
VERTEX
  8
PLAN_1
 62
     5
  6
CONTINUOUS
 10
-1.786106
 20
2.358886
  0
VERTEX
  8
PLAN_1
 62
     5
  6
CONTINUOUS
 10
-1.794512
 20
2.358886
  0
SEQEND
  8
0
  0
POLYLINE
  8
PLAN_1
 62
     5
  6
CONTINUOUS
 66
     1
 40
0.003000
 41
0.003000
  0
VERTEX
  8
PLAN_1
 62
     5
  6
CONTINUOUS
 10
-1.802917
 20
2.358886
  0
VERTEX
  8
PLAN_1
 62
     5
  6
CONTINUOUS
 10
-1.811323
 20
2.358886
  0
SEQEND
  8
0
  0
POLYLINE
  8
PLAN_1
 62
     5
  6
CONTINUOUS
 66
     1
 40
0.003000
 41
0.003000
  0
VERTEX
  8
PLAN_1
 62
     5
  6
CONTINUOUS
 10
-1.819728
 20
2.358886
  0
VERTEX
  8
PLAN_1
 62
     5
  6
CONTINUOUS
 10
-1.828134
 20
2.358886
  0
SEQEND
  8
0
  0
POLYLINE
  8
PLAN_1
 62
     5
  6
CONTINUOUS
 66
     1
 40
0.003000
 41
0.003000
  0
VERTEX
  8
PLAN_1
 62
     5
  6
CONTINUOUS
 10
-1.836075
 20
2.358886
  0
VERTEX
  8
PLAN_1
 62
     5
  6
CONTINUOUS
 10
-1.844480
 20
2.358886
  0
SEQEND
  8
0
  0
POLYLINE
  8
PLAN_1
 62
     5
  6
CONTINUOUS
 66
     1
 40
0.003000
 41
0.003000
  0
VERTEX
  8
PLAN_1
 62
     5
  6
CONTINUOUS
 10
-1.852886
 20
2.358886
  0
VERTEX
  8
PLAN_1
 62
     5
  6
CONTINUOUS
 10
-1.861291
 20
2.358886
  0
SEQEND
  8
0
  0
POLYLINE
  8
PLAN_1
 62
     5
  6
CONTINUOUS
 66
     1
 40
0.003000
 41
0.003000
  0
VERTEX
  8
PLAN_1
 62
     5
  6
CONTINUOUS
 10
-1.869697
 20
2.358886
  0
VERTEX
  8
PLAN_1
 62
     5
  6
CONTINUOUS
 10
-1.878102
 20
2.358886
  0
SEQEND
  8
0
  0
POLYLINE
  8
PLAN_1
 62
     5
  6
CONTINUOUS
 66
     1
 40
0.003000
 41
0.003000
  0
VERTEX
  8
PLAN_1
 62
     5
  6
CONTINUOUS
 10
-1.886043
 20
2.358886
  0
VERTEX
  8
PLAN_1
 62
     5
  6
CONTINUOUS
 10
-1.894449
 20
2.358886
  0
SEQEND
  8
0
  0
POLYLINE
  8
PLAN_1
 62
     5
  6
CONTINUOUS
 66
     1
 40
0.003000
 41
0.003000
  0
VERTEX
  8
PLAN_1
 62
     5
  6
CONTINUOUS
 10
-1.902854
 20
2.358886
  0
VERTEX
  8
PLAN_1
 62
     5
  6
CONTINUOUS
 10
-1.911260
 20
2.358886
  0
SEQEND
  8
0
  0
POLYLINE
  8
PLAN_1
 62
     5
  6
CONTINUOUS
 66
     1
 40
0.003000
 41
0.003000
  0
VERTEX
  8
PLAN_1
 62
     5
  6
CONTINUOUS
 10
-1.919665
 20
2.358886
  0
VERTEX
  8
PLAN_1
 62
     5
  6
CONTINUOUS
 10
-1.928071
 20
2.358886
  0
SEQEND
  8
0
  0
POLYLINE
  8
PLAN_1
 62
     5
  6
CONTINUOUS
 66
     1
 40
0.003000
 41
0.003000
  0
VERTEX
  8
PLAN_1
 62
     5
  6
CONTINUOUS
 10
-1.936012
 20
2.358886
  0
VERTEX
  8
PLAN_1
 62
     5
  6
CONTINUOUS
 10
-1.944417
 20
2.358886
  0
SEQEND
  8
0
  0
POLYLINE
  8
PLAN_1
 62
     5
  6
CONTINUOUS
 66
     1
 40
0.003000
 41
0.003000
  0
VERTEX
  8
PLAN_1
 62
     5
  6
CONTINUOUS
 10
-1.391024
 20
1.526693
  0
VERTEX
  8
PLAN_1
 62
     5
  6
CONTINUOUS
 10
-1.391024
 20
1.535098
  0
SEQEND
  8
0
  0
POLYLINE
  8
PLAN_1
 62
     5
  6
CONTINUOUS
 66
     1
 40
0.003000
 41
0.003000
  0
VERTEX
  8
PLAN_1
 62
     5
  6
CONTINUOUS
 10
-1.391024
 20
1.543504
  0
VERTEX
  8
PLAN_1
 62
     5
  6
CONTINUOUS
 10
-1.391024
 20
1.551445
  0
SEQEND
  8
0
  0
POLYLINE
  8
PLAN_1
 62
     5
  6
CONTINUOUS
 66
     1
 40
0.003000
 41
0.003000
  0
VERTEX
  8
PLAN_1
 62
     5
  6
CONTINUOUS
 10
-1.391024
 20
1.559850
  0
VERTEX
  8
PLAN_1
 62
     5
  6
CONTINUOUS
 10
-1.391024
 20
1.568256
  0
SEQEND
  8
0
  0
POLYLINE
  8
PLAN_1
 62
     5
  6
CONTINUOUS
 66
     1
 40
0.003000
 41
0.003000
  0
VERTEX
  8
PLAN_1
 62
     5
  6
CONTINUOUS
 10
-1.391024
 20
1.576661
  0
VERTEX
  8
PLAN_1
 62
     5
  6
CONTINUOUS
 10
-1.391024
 20
1.585067
  0
SEQEND
  8
0
  0
POLYLINE
  8
PLAN_1
 62
     5
  6
CONTINUOUS
 66
     1
 40
0.003000
 41
0.003000
  0
VERTEX
  8
PLAN_1
 62
     5
  6
CONTINUOUS
 10
-1.391024
 20
1.593472
  0
VERTEX
  8
PLAN_1
 62
     5
  6
CONTINUOUS
 10
-1.391024
 20
1.601413
  0
SEQEND
  8
0
  0
POLYLINE
  8
PLAN_1
 62
     5
  6
CONTINUOUS
 66
     1
 40
0.003000
 41
0.003000
  0
VERTEX
  8
PLAN_1
 62
     5
  6
CONTINUOUS
 10
-1.391024
 20
1.609819
  0
VERTEX
  8
PLAN_1
 62
     5
  6
CONTINUOUS
 10
-1.391024
 20
1.618224
  0
SEQEND
  8
0
  0
POLYLINE
  8
PLAN_1
 62
     5
  6
CONTINUOUS
 66
     1
 40
0.003000
 41
0.003000
  0
VERTEX
  8
PLAN_1
 62
     5
  6
CONTINUOUS
 10
-1.391024
 20
1.626630
  0
VERTEX
  8
PLAN_1
 62
     5
  6
CONTINUOUS
 10
-1.391024
 20
1.635035
  0
SEQEND
  8
0
  0
POLYLINE
  8
PLAN_1
 62
     5
  6
CONTINUOUS
 66
     1
 40
0.003000
 41
0.003000
  0
VERTEX
  8
PLAN_1
 62
     5
  6
CONTINUOUS
 10
-1.391024
 20
1.643441
  0
VERTEX
  8
PLAN_1
 62
     5
  6
CONTINUOUS
 10
-1.391024
 20
1.651382
  0
SEQEND
  8
0
  0
POLYLINE
  8
PLAN_1
 62
     5
  6
CONTINUOUS
 66
     1
 40
0.003000
 41
0.003000
  0
VERTEX
  8
PLAN_1
 62
     5
  6
CONTINUOUS
 10
-1.391024
 20
1.659787
  0
VERTEX
  8
PLAN_1
 62
     5
  6
CONTINUOUS
 10
-1.391024
 20
1.668193
  0
SEQEND
  8
0
  0
POLYLINE
  8
PLAN_1
 62
     5
  6
CONTINUOUS
 66
     1
 40
0.003000
 41
0.003000
  0
VERTEX
  8
PLAN_1
 62
     5
  6
CONTINUOUS
 10
-1.391024
 20
1.676598
  0
VERTEX
  8
PLAN_1
 62
     5
  6
CONTINUOUS
 10
-1.391024
 20
1.685004
  0
SEQEND
  8
0
  0
POLYLINE
  8
PLAN_1
 62
     5
  6
CONTINUOUS
 66
     1
 40
0.003000
 41
0.003000
  0
VERTEX
  8
PLAN_1
 62
     5
  6
CONTINUOUS
 10
-1.391024
 20
1.693413
  0
VERTEX
  8
PLAN_1
 62
     5
  6
CONTINUOUS
 10
-1.391024
 20
1.701350
  0
SEQEND
  8
0
  0
POLYLINE
  8
PLAN_1
 62
     5
  6
CONTINUOUS
 66
     1
 40
0.003000
 41
0.003000
  0
VERTEX
  8
PLAN_1
 62
     5
  6
CONTINUOUS
 10
-1.391024
 20
1.709756
  0
VERTEX
  8
PLAN_1
 62
     5
  6
CONTINUOUS
 10
-1.391024
 20
1.718161
  0
SEQEND
  8
0
  0
POLYLINE
  8
PLAN_1
 62
     5
  6
CONTINUOUS
 66
     1
 40
0.003000
 41
0.003000
  0
VERTEX
  8
PLAN_1
 62
     5
  6
CONTINUOUS
 10
-1.391024
 20
1.726567
  0
VERTEX
  8
PLAN_1
 62
     5
  6
CONTINUOUS
 10
-1.391024
 20
1.734976
  0
SEQEND
  8
0
  0
POLYLINE
  8
PLAN_1
 62
     5
  6
CONTINUOUS
 66
     1
 40
0.003000
 41
0.003000
  0
VERTEX
  8
PLAN_1
 62
     5
  6
CONTINUOUS
 10
-1.391024
 20
1.743382
  0
VERTEX
  8
PLAN_1
 62
     5
  6
CONTINUOUS
 10
-1.391024
 20
1.751319
  0
SEQEND
  8
0
  0
POLYLINE
  8
PLAN_1
 62
     5
  6
CONTINUOUS
 66
     1
 40
0.003000
 41
0.003000
  0
VERTEX
  8
PLAN_1
 62
     5
  6
CONTINUOUS
 10
-1.391024
 20
1.759724
  0
VERTEX
  8
PLAN_1
 62
     5
  6
CONTINUOUS
 10
-1.391024
 20
1.768130
  0
SEQEND
  8
0
  0
POLYLINE
  8
PLAN_1
 62
     5
  6
CONTINUOUS
 66
     1
 40
0.003000
 41
0.003000
  0
VERTEX
  8
PLAN_1
 62
     5
  6
CONTINUOUS
 10
-1.391024
 20
1.776539
  0
VERTEX
  8
PLAN_1
 62
     5
  6
CONTINUOUS
 10
-1.391024
 20
1.784945
  0
SEQEND
  8
0
  0
POLYLINE
  8
PLAN_1
 62
     5
  6
CONTINUOUS
 66
     1
 40
0.003000
 41
0.003000
  0
VERTEX
  8
PLAN_1
 62
     5
  6
CONTINUOUS
 10
-1.391024
 20
1.793350
  0
VERTEX
  8
PLAN_1
 62
     5
  6
CONTINUOUS
 10
-1.391024
 20
1.801287
  0
SEQEND
  8
0
  0
POLYLINE
  8
PLAN_1
 62
     5
  6
CONTINUOUS
 66
     1
 40
0.003000
 41
0.003000
  0
VERTEX
  8
PLAN_1
 62
     5
  6
CONTINUOUS
 10
-1.391024
 20
1.809693
  0
VERTEX
  8
PLAN_1
 62
     5
  6
CONTINUOUS
 10
-1.391024
 20
1.818098
  0
SEQEND
  8
0
  0
POLYLINE
  8
PLAN_1
 62
     5
  6
CONTINUOUS
 66
     1
 40
0.003000
 41
0.003000
  0
VERTEX
  8
PLAN_1
 62
     5
  6
CONTINUOUS
 10
-1.391024
 20
1.826508
  0
VERTEX
  8
PLAN_1
 62
     5
  6
CONTINUOUS
 10
-1.391024
 20
1.834913
  0
SEQEND
  8
0
  0
POLYLINE
  8
PLAN_1
 62
     5
  6
CONTINUOUS
 66
     1
 40
0.003000
 41
0.003000
  0
VERTEX
  8
PLAN_1
 62
     5
  6
CONTINUOUS
 10
-1.391024
 20
1.843319
  0
VERTEX
  8
PLAN_1
 62
     5
  6
CONTINUOUS
 10
-1.391024
 20
1.851256
  0
SEQEND
  8
0
  0
POLYLINE
  8
PLAN_1
 62
     5
  6
CONTINUOUS
 66
     1
 40
0.003000
 41
0.003000
  0
VERTEX
  8
PLAN_1
 62
     5
  6
CONTINUOUS
 10
-1.391024
 20
1.859661
  0
VERTEX
  8
PLAN_1
 62
     5
  6
CONTINUOUS
 10
-1.391024
 20
1.867602
  0
VERTEX
  8
PLAN_1
 62
     5
  6
CONTINUOUS
 10
-1.391488
 20
1.867602
  0
SEQEND
  8
0
  0
POLYLINE
  8
PLAN_1
 62
     5
  6
CONTINUOUS
 66
     1
 40
0.003000
 41
0.003000
  0
VERTEX
  8
PLAN_1
 62
     5
  6
CONTINUOUS
 10
-1.399898
 20
1.867602
  0
VERTEX
  8
PLAN_1
 62
     5
  6
CONTINUOUS
 10
-1.407835
 20
1.867602
  0
SEQEND
  8
0
  0
POLYLINE
  8
PLAN_1
 62
     5
  6
CONTINUOUS
 66
     1
 40
0.003000
 41
0.003000
  0
VERTEX
  8
PLAN_1
 62
     5
  6
CONTINUOUS
 10
-1.416240
 20
1.867602
  0
VERTEX
  8
PLAN_1
 62
     5
  6
CONTINUOUS
 10
-1.424646
 20
1.867602
  0
SEQEND
  8
0
  0
POLYLINE
  8
PLAN_1
 62
     5
  6
CONTINUOUS
 66
     1
 40
0.003000
 41
0.003000
  0
VERTEX
  8
PLAN_1
 62
     5
  6
CONTINUOUS
 10
-1.433051
 20
1.867602
  0
VERTEX
  8
PLAN_1
 62
     5
  6
CONTINUOUS
 10
-1.441461
 20
1.867602
  0
SEQEND
  8
0
  0
POLYLINE
  8
PLAN_1
 62
     5
  6
CONTINUOUS
 66
     1
 40
0.003000
 41
0.003000
  0
VERTEX
  8
PLAN_1
 62
     5
  6
CONTINUOUS
 10
-1.449866
 20
1.867602
  0
VERTEX
  8
PLAN_1
 62
     5
  6
CONTINUOUS
 10
-1.457803
 20
1.867602
  0
SEQEND
  8
0
  0
POLYLINE
  8
PLAN_1
 62
     5
  6
CONTINUOUS
 66
     1
 40
0.003000
 41
0.003000
  0
VERTEX
  8
PLAN_1
 62
     5
  6
CONTINUOUS
 10
-1.466209
 20
1.867602
  0
VERTEX
  8
PLAN_1
 62
     5
  6
CONTINUOUS
 10
-1.474614
 20
1.867602
  0
SEQEND
  8
0
  0
POLYLINE
  8
PLAN_1
 62
     5
  6
CONTINUOUS
 66
     1
 40
0.003000
 41
0.003000
  0
VERTEX
  8
PLAN_1
 62
     5
  6
CONTINUOUS
 10
-1.483024
 20
1.867602
  0
VERTEX
  8
PLAN_1
 62
     5
  6
CONTINUOUS
 10
-1.491429
 20
1.867602
  0
SEQEND
  8
0
  0
POLYLINE
  8
PLAN_1
 62
     5
  6
CONTINUOUS
 66
     1
 40
0.003000
 41
0.003000
  0
VERTEX
  8
PLAN_1
 62
     5
  6
CONTINUOUS
 10
-1.499835
 20
1.867602
  0
VERTEX
  8
PLAN_1
 62
     5
  6
CONTINUOUS
 10
-1.507772
 20
1.867602
  0
SEQEND
  8
0
  0
POLYLINE
  8
PLAN_1
 62
     5
  6
CONTINUOUS
 66
     1
 40
0.003000
 41
0.003000
  0
VERTEX
  8
PLAN_1
 62
     5
  6
CONTINUOUS
 10
-1.516177
 20
1.867602
  0
VERTEX
  8
PLAN_1
 62
     5
  6
CONTINUOUS
 10
-1.524587
 20
1.867602
  0
SEQEND
  8
0
  0
POLYLINE
  8
PLAN_1
 62
     5
  6
CONTINUOUS
 66
     1
 40
0.003000
 41
0.003000
  0
VERTEX
  8
PLAN_1
 62
     5
  6
CONTINUOUS
 10
-1.532992
 20
1.867602
  0
VERTEX
  8
PLAN_1
 62
     5
  6
CONTINUOUS
 10
-1.539996
 20
1.867602
  0
VERTEX
  8
PLAN_1
 62
     5
  6
CONTINUOUS
 10
-1.539996
 20
1.866201
  0
SEQEND
  8
0
  0
POLYLINE
  8
PLAN_1
 62
     5
  6
CONTINUOUS
 66
     1
 40
0.003000
 41
0.003000
  0
VERTEX
  8
PLAN_1
 62
     5
  6
CONTINUOUS
 10
-1.539996
 20
1.857795
  0
VERTEX
  8
PLAN_1
 62
     5
  6
CONTINUOUS
 10
-1.539996
 20
1.849390
  0
SEQEND
  8
0
  0
POLYLINE
  8
PLAN_1
 62
     5
  6
CONTINUOUS
 66
     1
 40
0.003000
 41
0.003000
  0
VERTEX
  8
PLAN_1
 62
     5
  6
CONTINUOUS
 10
-1.539996
 20
1.840984
  0
VERTEX
  8
PLAN_1
 62
     5
  6
CONTINUOUS
 10
-1.539996
 20
1.833043
  0
SEQEND
  8
0
  0
POLYLINE
  8
PLAN_1
 62
     5
  6
CONTINUOUS
 66
     1
 40
0.003000
 41
0.003000
  0
VERTEX
  8
PLAN_1
 62
     5
  6
CONTINUOUS
 10
-1.539996
 20
1.824638
  0
VERTEX
  8
PLAN_1
 62
     5
  6
CONTINUOUS
 10
-1.539996
 20
1.816232
  0
SEQEND
  8
0
  0
POLYLINE
  8
PLAN_1
 62
     5
  6
CONTINUOUS
 66
     1
 40
0.003000
 41
0.003000
  0
VERTEX
  8
PLAN_1
 62
     5
  6
CONTINUOUS
 10
-1.539996
 20
1.807827
  0
VERTEX
  8
PLAN_1
 62
     5
  6
CONTINUOUS
 10
-1.539996
 20
1.799421
  0
SEQEND
  8
0
  0
POLYLINE
  8
PLAN_1
 62
     5
  6
CONTINUOUS
 66
     1
 40
0.003000
 41
0.003000
  0
VERTEX
  8
PLAN_1
 62
     5
  6
CONTINUOUS
 10
-1.539996
 20
1.791016
  0
VERTEX
  8
PLAN_1
 62
     5
  6
CONTINUOUS
 10
-1.539996
 20
1.782610
  0
SEQEND
  8
0
  0
POLYLINE
  8
PLAN_1
 62
     5
  6
CONTINUOUS
 66
     1
 40
0.003000
 41
0.003000
  0
VERTEX
  8
PLAN_1
 62
     5
  6
CONTINUOUS
 10
-1.539996
 20
1.774669
  0
VERTEX
  8
PLAN_1
 62
     5
  6
CONTINUOUS
 10
-1.539996
 20
1.766264
  0
SEQEND
  8
0
  0
POLYLINE
  8
PLAN_1
 62
     5
  6
CONTINUOUS
 66
     1
 40
0.003000
 41
0.003000
  0
VERTEX
  8
PLAN_1
 62
     5
  6
CONTINUOUS
 10
-1.539996
 20
1.757858
  0
VERTEX
  8
PLAN_1
 62
     5
  6
CONTINUOUS
 10
-1.539996
 20
1.749453
  0
SEQEND
  8
0
  0
POLYLINE
  8
PLAN_1
 62
     5
  6
CONTINUOUS
 66
     1
 40
0.003000
 41
0.003000
  0
VERTEX
  8
PLAN_1
 62
     5
  6
CONTINUOUS
 10
-1.539996
 20
1.741047
  0
VERTEX
  8
PLAN_1
 62
     5
  6
CONTINUOUS
 10
-1.539996
 20
1.732638
  0
SEQEND
  8
0
  0
POLYLINE
  8
PLAN_1
 62
     5
  6
CONTINUOUS
 66
     1
 40
0.003000
 41
0.003000
  0
VERTEX
  8
PLAN_1
 62
     5
  6
CONTINUOUS
 10
-1.539996
 20
1.724701
  0
VERTEX
  8
PLAN_1
 62
     5
  6
CONTINUOUS
 10
-1.539996
 20
1.716295
  0
SEQEND
  8
0
  0
POLYLINE
  8
PLAN_1
 62
     5
  6
CONTINUOUS
 66
     1
 40
0.003000
 41
0.003000
  0
VERTEX
  8
PLAN_1
 62
     5
  6
CONTINUOUS
 10
-1.539996
 20
1.707890
  0
VERTEX
  8
PLAN_1
 62
     5
  6
CONTINUOUS
 10
-1.539996
 20
1.699484
  0
SEQEND
  8
0
  0
POLYLINE
  8
PLAN_1
 62
     5
  6
CONTINUOUS
 66
     1
 40
0.003000
 41
0.003000
  0
VERTEX
  8
PLAN_1
 62
     5
  6
CONTINUOUS
 10
-1.539996
 20
1.691075
  0
VERTEX
  8
PLAN_1
 62
     5
  6
CONTINUOUS
 10
-1.539996
 20
1.682669
  0
SEQEND
  8
0
  0
POLYLINE
  8
PLAN_1
 62
     5
  6
CONTINUOUS
 66
     1
 40
0.003000
 41
0.003000
  0
VERTEX
  8
PLAN_1
 62
     5
  6
CONTINUOUS
 10
-1.539996
 20
1.674732
  0
VERTEX
  8
PLAN_1
 62
     5
  6
CONTINUOUS
 10
-1.539996
 20
1.666327
  0
SEQEND
  8
0
  0
POLYLINE
  8
PLAN_1
 62
     5
  6
CONTINUOUS
 66
     1
 40
0.003000
 41
0.003000
  0
VERTEX
  8
PLAN_1
 62
     5
  6
CONTINUOUS
 10
-1.539996
 20
1.657921
  0
VERTEX
  8
PLAN_1
 62
     5
  6
CONTINUOUS
 10
-1.539996
 20
1.649512
  0
SEQEND
  8
0
  0
POLYLINE
  8
PLAN_1
 62
     5
  6
CONTINUOUS
 66
     1
 40
0.003000
 41
0.003000
  0
VERTEX
  8
PLAN_1
 62
     5
  6
CONTINUOUS
 10
-1.539996
 20
1.641106
  0
VERTEX
  8
PLAN_1
 62
     5
  6
CONTINUOUS
 10
-1.539996
 20
1.632701
  0
SEQEND
  8
0
  0
POLYLINE
  8
PLAN_1
 62
     5
  6
CONTINUOUS
 66
     1
 40
0.003000
 41
0.003000
  0
VERTEX
  8
PLAN_1
 62
     5
  6
CONTINUOUS
 10
-1.539996
 20
1.624764
  0
VERTEX
  8
PLAN_1
 62
     5
  6
CONTINUOUS
 10
-1.539996
 20
1.616358
  0
SEQEND
  8
0
  0
POLYLINE
  8
PLAN_1
 62
     5
  6
CONTINUOUS
 66
     1
 40
0.003000
 41
0.003000
  0
VERTEX
  8
PLAN_1
 62
     5
  6
CONTINUOUS
 10
-1.539996
 20
1.607949
  0
VERTEX
  8
PLAN_1
 62
     5
  6
CONTINUOUS
 10
-1.539996
 20
1.599543
  0
SEQEND
  8
0
  0
POLYLINE
  8
PLAN_1
 62
     5
  6
CONTINUOUS
 66
     1
 40
0.003000
 41
0.003000
  0
VERTEX
  8
PLAN_1
 62
     5
  6
CONTINUOUS
 10
-1.539996
 20
1.591138
  0
VERTEX
  8
PLAN_1
 62
     5
  6
CONTINUOUS
 10
-1.539996
 20
1.582732
  0
SEQEND
  8
0
  0
POLYLINE
  8
PLAN_1
 62
     5
  6
CONTINUOUS
 66
     1
 40
0.003000
 41
0.003000
  0
VERTEX
  8
PLAN_1
 62
     5
  6
CONTINUOUS
 10
-1.539996
 20
1.574795
  0
VERTEX
  8
PLAN_1
 62
     5
  6
CONTINUOUS
 10
-1.539996
 20
1.566386
  0
SEQEND
  8
0
  0
POLYLINE
  8
PLAN_1
 62
     5
  6
CONTINUOUS
 66
     1
 40
0.003000
 41
0.003000
  0
VERTEX
  8
PLAN_1
 62
     5
  6
CONTINUOUS
 10
-1.539996
 20
1.557980
  0
VERTEX
  8
PLAN_1
 62
     5
  6
CONTINUOUS
 10
-1.539996
 20
1.549575
  0
SEQEND
  8
0
  0
POLYLINE
  8
PLAN_1
 62
     5
  6
CONTINUOUS
 66
     1
 40
0.003000
 41
0.003000
  0
VERTEX
  8
PLAN_1
 62
     5
  6
CONTINUOUS
 10
-1.539996
 20
1.541169
  0
VERTEX
  8
PLAN_1
 62
     5
  6
CONTINUOUS
 10
-1.539996
 20
1.532764
  0
SEQEND
  8
0
  0
POLYLINE
  8
PLAN_1
 62
     5
  6
CONTINUOUS
 66
     1
 40
0.003000
 41
0.003000
  0
VERTEX
  8
PLAN_1
 62
     5
  6
CONTINUOUS
 10
-1.538126
 20
1.526693
  0
VERTEX
  8
PLAN_1
 62
     5
  6
CONTINUOUS
 10
-1.529720
 20
1.526693
  0
SEQEND
  8
0
  0
POLYLINE
  8
PLAN_1
 62
     5
  6
CONTINUOUS
 66
     1
 40
0.003000
 41
0.003000
  0
VERTEX
  8
PLAN_1
 62
     5
  6
CONTINUOUS
 10
-1.521315
 20
1.526693
  0
VERTEX
  8
PLAN_1
 62
     5
  6
CONTINUOUS
 10
-1.512909
 20
1.526693
  0
SEQEND
  8
0
  0
POLYLINE
  8
PLAN_1
 62
     5
  6
CONTINUOUS
 66
     1
 40
0.003000
 41
0.003000
  0
VERTEX
  8
PLAN_1
 62
     5
  6
CONTINUOUS
 10
-1.504504
 20
1.526693
  0
VERTEX
  8
PLAN_1
 62
     5
  6
CONTINUOUS
 10
-1.496098
 20
1.526693
  0
SEQEND
  8
0
  0
POLYLINE
  8
PLAN_1
 62
     5
  6
CONTINUOUS
 66
     1
 40
0.003000
 41
0.003000
  0
VERTEX
  8
PLAN_1
 62
     5
  6
CONTINUOUS
 10
-1.488157
 20
1.526693
  0
VERTEX
  8
PLAN_1
 62
     5
  6
CONTINUOUS
 10
-1.479752
 20
1.526693
  0
SEQEND
  8
0
  0
POLYLINE
  8
PLAN_1
 62
     5
  6
CONTINUOUS
 66
     1
 40
0.003000
 41
0.003000
  0
VERTEX
  8
PLAN_1
 62
     5
  6
CONTINUOUS
 10
-1.471346
 20
1.526693
  0
VERTEX
  8
PLAN_1
 62
     5
  6
CONTINUOUS
 10
-1.462941
 20
1.526693
  0
SEQEND
  8
0
  0
POLYLINE
  8
PLAN_1
 62
     5
  6
CONTINUOUS
 66
     1
 40
0.003000
 41
0.003000
  0
VERTEX
  8
PLAN_1
 62
     5
  6
CONTINUOUS
 10
-1.454535
 20
1.526693
  0
VERTEX
  8
PLAN_1
 62
     5
  6
CONTINUOUS
 10
-1.446130
 20
1.526693
  0
SEQEND
  8
0
  0
POLYLINE
  8
PLAN_1
 62
     5
  6
CONTINUOUS
 66
     1
 40
0.003000
 41
0.003000
  0
VERTEX
  8
PLAN_1
 62
     5
  6
CONTINUOUS
 10
-1.438189
 20
1.526693
  0
VERTEX
  8
PLAN_1
 62
     5
  6
CONTINUOUS
 10
-1.429783
 20
1.526693
  0
SEQEND
  8
0
  0
POLYLINE
  8
PLAN_1
 62
     5
  6
CONTINUOUS
 66
     1
 40
0.003000
 41
0.003000
  0
VERTEX
  8
PLAN_1
 62
     5
  6
CONTINUOUS
 10
-1.421378
 20
1.526693
  0
VERTEX
  8
PLAN_1
 62
     5
  6
CONTINUOUS
 10
-1.412972
 20
1.526693
  0
SEQEND
  8
0
  0
POLYLINE
  8
PLAN_1
 62
     5
  6
CONTINUOUS
 66
     1
 40
0.003000
 41
0.003000
  0
VERTEX
  8
PLAN_1
 62
     5
  6
CONTINUOUS
 10
-1.404567
 20
1.526693
  0
VERTEX
  8
PLAN_1
 62
     5
  6
CONTINUOUS
 10
-1.396161
 20
1.526693
  0
SEQEND
  8
0
  0
POLYLINE
  8
PLAN_1
 62
     5
  6
CONTINUOUS
 66
     1
 40
0.003000
 41
0.003000
  0
VERTEX
  8
PLAN_1
 62
     5
  6
CONTINUOUS
 10
-1.521783
 20
1.867134
  0
VERTEX
  8
PLAN_1
 62
     5
  6
CONTINUOUS
 10
-1.525051
 20
1.859661
  0
SEQEND
  8
0
  0
POLYLINE
  8
PLAN_1
 62
     5
  6
CONTINUOUS
 66
     1
 40
0.003000
 41
0.003000
  0
VERTEX
  8
PLAN_1
 62
     5
  6
CONTINUOUS
 10
-1.528319
 20
1.851724
  0
VERTEX
  8
PLAN_1
 62
     5
  6
CONTINUOUS
 10
-1.528319
 20
1.851256
  0
VERTEX
  8
PLAN_1
 62
     5
  6
CONTINUOUS
 10
-1.530657
 20
1.843783
  0
SEQEND
  8
0
  0
POLYLINE
  8
PLAN_1
 62
     5
  6
CONTINUOUS
 66
     1
 40
0.003000
 41
0.003000
  0
VERTEX
  8
PLAN_1
 62
     5
  6
CONTINUOUS
 10
-1.532992
 20
1.835846
  0
VERTEX
  8
PLAN_1
 62
     5
  6
CONTINUOUS
 10
-1.533457
 20
1.835378
  0
VERTEX
  8
PLAN_1
 62
     5
  6
CONTINUOUS
 10
-1.535327
 20
1.827906
  0
SEQEND
  8
0
  0
POLYLINE
  8
PLAN_1
 62
     5
  6
CONTINUOUS
 66
     1
 40
0.003000
 41
0.003000
  0
VERTEX
  8
PLAN_1
 62
     5
  6
CONTINUOUS
 10
-1.536728
 20
1.819500
  0
VERTEX
  8
PLAN_1
 62
     5
  6
CONTINUOUS
 10
-1.537661
 20
1.812028
  0
VERTEX
  8
PLAN_1
 62
     5
  6
CONTINUOUS
 10
-1.538126
 20
1.811094
  0
SEQEND
  8
0
  0
POLYLINE
  8
PLAN_1
 62
     5
  6
CONTINUOUS
 66
     1
 40
0.003000
 41
0.003000
  0
VERTEX
  8
PLAN_1
 62
     5
  6
CONTINUOUS
 10
-1.538594
 20
1.803157
  0
VERTEX
  8
PLAN_1
 62
     5
  6
CONTINUOUS
 10
-1.539063
 20
1.797087
  0
VERTEX
  8
PLAN_1
 62
     5
  6
CONTINUOUS
 10
-1.539528
 20
1.794752
  0
SEQEND
  8
0
  0
POLYLINE
  8
PLAN_1
 62
     5
  6
CONTINUOUS
 66
     1
 40
0.003000
 41
0.003000
  0
VERTEX
  8
PLAN_1
 62
     5
  6
CONTINUOUS
 10
-1.539528
 20
1.786343
  0
VERTEX
  8
PLAN_1
 62
     5
  6
CONTINUOUS
 10
-1.539528
 20
1.782610
  0
VERTEX
  8
PLAN_1
 62
     5
  6
CONTINUOUS
 10
-1.539528
 20
1.777937
  0
SEQEND
  8
0
  0
POLYLINE
  8
PLAN_1
 62
     5
  6
CONTINUOUS
 66
     1
 40
0.003000
 41
0.003000
  0
VERTEX
  8
PLAN_1
 62
     5
  6
CONTINUOUS
 10
-1.539063
 20
1.769531
  0
VERTEX
  8
PLAN_1
 62
     5
  6
CONTINUOUS
 10
-1.538594
 20
1.762528
  0
VERTEX
  8
PLAN_1
 62
     5
  6
CONTINUOUS
 10
-1.538126
 20
1.761594
  0
SEQEND
  8
0
  0
POLYLINE
  8
PLAN_1
 62
     5
  6
CONTINUOUS
 66
     1
 40
0.003000
 41
0.003000
  0
VERTEX
  8
PLAN_1
 62
     5
  6
CONTINUOUS
 10
-1.537193
 20
1.753189
  0
VERTEX
  8
PLAN_1
 62
     5
  6
CONTINUOUS
 10
-1.536728
 20
1.749917
  0
VERTEX
  8
PLAN_1
 62
     5
  6
CONTINUOUS
 10
-1.535791
 20
1.744780
  0
SEQEND
  8
0
  0
POLYLINE
  8
PLAN_1
 62
     5
  6
CONTINUOUS
 66
     1
 40
0.003000
 41
0.003000
  0
VERTEX
  8
PLAN_1
 62
     5
  6
CONTINUOUS
 10
-1.534394
 20
1.736843
  0
VERTEX
  8
PLAN_1
 62
     5
  6
CONTINUOUS
 10
-1.532524
 20
1.728902
  0
SEQEND
  8
0
  0
POLYLINE
  8
PLAN_1
 62
     5
  6
CONTINUOUS
 66
     1
 40
0.003000
 41
0.003000
  0
VERTEX
  8
PLAN_1
 62
     5
  6
CONTINUOUS
 10
-1.530189
 20
1.720496
  0
VERTEX
  8
PLAN_1
 62
     5
  6
CONTINUOUS
 10
-1.529720
 20
1.719563
  0
VERTEX
  8
PLAN_1
 62
     5
  6
CONTINUOUS
 10
-1.527854
 20
1.712559
  0
SEQEND
  8
0
  0
POLYLINE
  8
PLAN_1
 62
     5
  6
CONTINUOUS
 66
     1
 40
0.003000
 41
0.003000
  0
VERTEX
  8
PLAN_1
 62
     5
  6
CONTINUOUS
 10
-1.525051
 20
1.705087
  0
VERTEX
  8
PLAN_1
 62
     5
  6
CONTINUOUS
 10
-1.523185
 20
1.700882
  0
VERTEX
  8
PLAN_1
 62
     5
  6
CONTINUOUS
 10
-1.521783
 20
1.697146
  0
SEQEND
  8
0
  0
POLYLINE
  8
PLAN_1
 62
     5
  6
CONTINUOUS
 66
     1
 40
0.003000
 41
0.003000
  0
VERTEX
  8
PLAN_1
 62
     5
  6
CONTINUOUS
 10
-1.521783
 20
1.697614
  0
VERTEX
  8
PLAN_1
 62
     5
  6
CONTINUOUS
 10
-1.513378
 20
1.697614
  0
SEQEND
  8
0
  0
POLYLINE
  8
PLAN_1
 62
     5
  6
CONTINUOUS
 66
     1
 40
0.003000
 41
0.003000
  0
VERTEX
  8
PLAN_1
 62
     5
  6
CONTINUOUS
 10
-1.504972
 20
1.697614
  0
VERTEX
  8
PLAN_1
 62
     5
  6
CONTINUOUS
 10
-1.496563
 20
1.697614
  0
SEQEND
  8
0
  0
POLYLINE
  8
PLAN_1
 62
     5
  6
CONTINUOUS
 66
     1
 40
0.003000
 41
0.003000
  0
VERTEX
  8
PLAN_1
 62
     5
  6
CONTINUOUS
 10
-1.488157
 20
1.697614
  0
VERTEX
  8
PLAN_1
 62
     5
  6
CONTINUOUS
 10
-1.480220
 20
1.697614
  0
SEQEND
  8
0
  0
POLYLINE
  8
PLAN_1
 62
     5
  6
CONTINUOUS
 66
     1
 40
0.003000
 41
0.003000
  0
VERTEX
  8
PLAN_1
 62
     5
  6
CONTINUOUS
 10
-1.471815
 20
1.697614
  0
VERTEX
  8
PLAN_1
 62
     5
  6
CONTINUOUS
 10
-1.463409
 20
1.697614
  0
SEQEND
  8
0
  0
POLYLINE
  8
PLAN_1
 62
     5
  6
CONTINUOUS
 66
     1
 40
0.003000
 41
0.003000
  0
VERTEX
  8
PLAN_1
 62
     5
  6
CONTINUOUS
 10
-1.455004
 20
1.697614
  0
VERTEX
  8
PLAN_1
 62
     5
  6
CONTINUOUS
 10
-1.446594
 20
1.697614
  0
SEQEND
  8
0
  0
POLYLINE
  8
PLAN_1
 62
     5
  6
CONTINUOUS
 66
     1
 40
0.003000
 41
0.003000
  0
VERTEX
  8
PLAN_1
 62
     5
  6
CONTINUOUS
 10
-1.438189
 20
1.697614
  0
VERTEX
  8
PLAN_1
 62
     5
  6
CONTINUOUS
 10
-1.430252
 20
1.697614
  0
SEQEND
  8
0
  0
POLYLINE
  8
PLAN_1
 62
     5
  6
CONTINUOUS
 66
     1
 40
0.003000
 41
0.003000
  0
VERTEX
  8
PLAN_1
 62
     5
  6
CONTINUOUS
 10
-1.421846
 20
1.697614
  0
VERTEX
  8
PLAN_1
 62
     5
  6
CONTINUOUS
 10
-1.413441
 20
1.697614
  0
SEQEND
  8
0
  0
POLYLINE
  8
PLAN_1
 62
     5
  6
CONTINUOUS
 66
     1
 40
0.003000
 41
0.003000
  0
VERTEX
  8
PLAN_1
 62
     5
  6
CONTINUOUS
 10
-1.405031
 20
1.697614
  0
VERTEX
  8
PLAN_1
 62
     5
  6
CONTINUOUS
 10
-1.396626
 20
1.697614
  0
SEQEND
  8
0
  0
POLYLINE
  8
PLAN_1
 62
     5
  6
CONTINUOUS
 66
     1
 40
0.003000
 41
0.003000
  0
VERTEX
  8
PLAN_1
 62
     5
  6
CONTINUOUS
 10
-1.539063
 20
1.591138
  0
VERTEX
  8
PLAN_1
 62
     5
  6
CONTINUOUS
 10
-1.539063
 20
1.599543
  0
SEQEND
  8
0
  0
POLYLINE
  8
PLAN_1
 62
     5
  6
CONTINUOUS
 66
     1
 40
0.003000
 41
0.003000
  0
VERTEX
  8
PLAN_1
 62
     5
  6
CONTINUOUS
 10
-1.539063
 20
1.607949
  0
VERTEX
  8
PLAN_1
 62
     5
  6
CONTINUOUS
 10
-1.539063
 20
1.616358
  0
SEQEND
  8
0
  0
POLYLINE
  8
PLAN_1
 62
     5
  6
CONTINUOUS
 66
     1
 40
0.003000
 41
0.003000
  0
VERTEX
  8
PLAN_1
 62
     5
  6
CONTINUOUS
 10
-1.539063
 20
1.624295
  0
VERTEX
  8
PLAN_1
 62
     5
  6
CONTINUOUS
 10
-1.539063
 20
1.632701
  0
SEQEND
  8
0
  0
POLYLINE
  8
PLAN_1
 62
     5
  6
CONTINUOUS
 66
     1
 40
0.003000
 41
0.003000
  0
VERTEX
  8
PLAN_1
 62
     5
  6
CONTINUOUS
 10
-1.539063
 20
1.641106
  0
VERTEX
  8
PLAN_1
 62
     5
  6
CONTINUOUS
 10
-1.539063
 20
1.649512
  0
SEQEND
  8
0
  0
POLYLINE
  8
PLAN_1
 62
     5
  6
CONTINUOUS
 66
     1
 40
0.003000
 41
0.003000
  0
VERTEX
  8
PLAN_1
 62
     5
  6
CONTINUOUS
 10
-1.539063
 20
1.657921
  0
VERTEX
  8
PLAN_1
 62
     5
  6
CONTINUOUS
 10
-1.539063
 20
1.666327
  0
SEQEND
  8
0
  0
POLYLINE
  8
PLAN_1
 62
     5
  6
CONTINUOUS
 66
     1
 40
0.003000
 41
0.003000
  0
VERTEX
  8
PLAN_1
 62
     5
  6
CONTINUOUS
 10
-1.539063
 20
1.674264
  0
VERTEX
  8
PLAN_1
 62
     5
  6
CONTINUOUS
 10
-1.539063
 20
1.682669
  0
SEQEND
  8
0
  0
POLYLINE
  8
PLAN_1
 62
     5
  6
CONTINUOUS
 66
     1
 40
0.003000
 41
0.003000
  0
VERTEX
  8
PLAN_1
 62
     5
  6
CONTINUOUS
 10
-1.539063
 20
1.691075
  0
VERTEX
  8
PLAN_1
 62
     5
  6
CONTINUOUS
 10
-1.539063
 20
1.699484
  0
SEQEND
  8
0
  0
POLYLINE
  8
PLAN_1
 62
     5
  6
CONTINUOUS
 66
     1
 40
0.003000
 41
0.003000
  0
VERTEX
  8
PLAN_1
 62
     5
  6
CONTINUOUS
 10
-1.539063
 20
1.707890
  0
VERTEX
  8
PLAN_1
 62
     5
  6
CONTINUOUS
 10
-1.539063
 20
1.716295
  0
SEQEND
  8
0
  0
POLYLINE
  8
PLAN_1
 62
     5
  6
CONTINUOUS
 66
     1
 40
0.003000
 41
0.003000
  0
VERTEX
  8
PLAN_1
 62
     5
  6
CONTINUOUS
 10
-1.539063
 20
1.724232
  0
VERTEX
  8
PLAN_1
 62
     5
  6
CONTINUOUS
 10
-1.539063
 20
1.732638
  0
SEQEND
  8
0
  0
POLYLINE
  8
PLAN_1
 62
     5
  6
CONTINUOUS
 66
     1
 40
0.003000
 41
0.003000
  0
VERTEX
  8
PLAN_1
 62
     5
  6
CONTINUOUS
 10
-1.539063
 20
1.741047
  0
VERTEX
  8
PLAN_1
 62
     5
  6
CONTINUOUS
 10
-1.539063
 20
1.749453
  0
SEQEND
  8
0
  0
POLYLINE
  8
PLAN_1
 62
     5
  6
CONTINUOUS
 66
     1
 40
0.003000
 41
0.003000
  0
VERTEX
  8
PLAN_1
 62
     5
  6
CONTINUOUS
 10
-1.539063
 20
1.757858
  0
VERTEX
  8
PLAN_1
 62
     5
  6
CONTINUOUS
 10
-1.539063
 20
1.766264
  0
SEQEND
  8
0
  0
POLYLINE
  8
PLAN_1
 62
     5
  6
CONTINUOUS
 66
     1
 40
0.003000
 41
0.003000
  0
VERTEX
  8
PLAN_1
 62
     5
  6
CONTINUOUS
 10
-1.539063
 20
1.774201
  0
VERTEX
  8
PLAN_1
 62
     5
  6
CONTINUOUS
 10
-1.539063
 20
1.782610
  0
SEQEND
  8
0
  0
POLYLINE
  8
PLAN_1
 62
     5
  6
CONTINUOUS
 66
     1
 40
0.003000
 41
0.003000
  0
VERTEX
  8
PLAN_1
 62
     5
  6
CONTINUOUS
 10
-1.539063
 20
1.791016
  0
VERTEX
  8
PLAN_1
 62
     5
  6
CONTINUOUS
 10
-1.539063
 20
1.799421
  0
SEQEND
  8
0
  0
POLYLINE
  8
PLAN_1
 62
     5
  6
CONTINUOUS
 66
     1
 40
0.003000
 41
0.003000
  0
VERTEX
  8
PLAN_1
 62
     5
  6
CONTINUOUS
 10
-1.542799
 20
1.804091
  0
VERTEX
  8
PLAN_1
 62
     5
  6
CONTINUOUS
 10
-1.551205
 20
1.804091
  0
SEQEND
  8
0
  0
POLYLINE
  8
PLAN_1
 62
     5
  6
CONTINUOUS
 66
     1
 40
0.003000
 41
0.003000
  0
VERTEX
  8
PLAN_1
 62
     5
  6
CONTINUOUS
 10
-1.559610
 20
1.804091
  0
VERTEX
  8
PLAN_1
 62
     5
  6
CONTINUOUS
 10
-1.567547
 20
1.804091
  0
SEQEND
  8
0
  0
POLYLINE
  8
PLAN_1
 62
     5
  6
CONTINUOUS
 66
     1
 40
0.003000
 41
0.003000
  0
VERTEX
  8
PLAN_1
 62
     5
  6
CONTINUOUS
 10
-1.575957
 20
1.804091
  0
VERTEX
  8
PLAN_1
 62
     5
  6
CONTINUOUS
 10
-1.584362
 20
1.804091
  0
SEQEND
  8
0
  0
POLYLINE
  8
PLAN_1
 62
     5
  6
CONTINUOUS
 66
     1
 40
0.003000
 41
0.003000
  0
VERTEX
  8
PLAN_1
 62
     5
  6
CONTINUOUS
 10
-1.592768
 20
1.804091
  0
VERTEX
  8
PLAN_1
 62
     5
  6
CONTINUOUS
 10
-1.601173
 20
1.804091
  0
SEQEND
  8
0
  0
POLYLINE
  8
PLAN_1
 62
     5
  6
CONTINUOUS
 66
     1
 40
0.003000
 41
0.003000
  0
VERTEX
  8
PLAN_1
 62
     5
  6
CONTINUOUS
 10
-1.609579
 20
1.804091
  0
VERTEX
  8
PLAN_1
 62
     5
  6
CONTINUOUS
 10
-1.617516
 20
1.804091
  0
SEQEND
  8
0
  0
POLYLINE
  8
PLAN_1
 62
     5
  6
CONTINUOUS
 66
     1
 40
0.003000
 41
0.003000
  0
VERTEX
  8
PLAN_1
 62
     5
  6
CONTINUOUS
 10
-1.624524
 20
1.802689
  0
VERTEX
  8
PLAN_1
 62
     5
  6
CONTINUOUS
 10
-1.624524
 20
1.794283
  0
SEQEND
  8
0
  0
POLYLINE
  8
PLAN_1
 62
     5
  6
CONTINUOUS
 66
     1
 40
0.003000
 41
0.003000
  0
VERTEX
  8
PLAN_1
 62
     5
  6
CONTINUOUS
 10
-1.624524
 20
1.785878
  0
VERTEX
  8
PLAN_1
 62
     5
  6
CONTINUOUS
 10
-1.624524
 20
1.777472
  0
SEQEND
  8
0
  0
POLYLINE
  8
PLAN_1
 62
     5
  6
CONTINUOUS
 66
     1
 40
0.003000
 41
0.003000
  0
VERTEX
  8
PLAN_1
 62
     5
  6
CONTINUOUS
 10
-1.624524
 20
1.769067
  0
VERTEX
  8
PLAN_1
 62
     5
  6
CONTINUOUS
 10
-1.624524
 20
1.760657
  0
SEQEND
  8
0
  0
POLYLINE
  8
PLAN_1
 62
     5
  6
CONTINUOUS
 66
     1
 40
0.003000
 41
0.003000
  0
VERTEX
  8
PLAN_1
 62
     5
  6
CONTINUOUS
 10
-1.624524
 20
1.752720
  0
VERTEX
  8
PLAN_1
 62
     5
  6
CONTINUOUS
 10
-1.624524
 20
1.744315
  0
SEQEND
  8
0
  0
POLYLINE
  8
PLAN_1
 62
     5
  6
CONTINUOUS
 66
     1
 40
0.003000
 41
0.003000
  0
VERTEX
  8
PLAN_1
 62
     5
  6
CONTINUOUS
 10
-1.624524
 20
1.735909
  0
VERTEX
  8
PLAN_1
 62
     5
  6
CONTINUOUS
 10
-1.624524
 20
1.727504
  0
SEQEND
  8
0
  0
POLYLINE
  8
PLAN_1
 62
     5
  6
CONTINUOUS
 66
     1
 40
0.003000
 41
0.003000
  0
VERTEX
  8
PLAN_1
 62
     5
  6
CONTINUOUS
 10
-1.624524
 20
1.719098
  0
VERTEX
  8
PLAN_1
 62
     5
  6
CONTINUOUS
 10
-1.624524
 20
1.710689
  0
SEQEND
  8
0
  0
POLYLINE
  8
PLAN_1
 62
     5
  6
CONTINUOUS
 66
     1
 40
0.003000
 41
0.003000
  0
VERTEX
  8
PLAN_1
 62
     5
  6
CONTINUOUS
 10
-1.624524
 20
1.702283
  0
VERTEX
  8
PLAN_1
 62
     5
  6
CONTINUOUS
 10
-1.624524
 20
1.694346
  0
SEQEND
  8
0
  0
POLYLINE
  8
PLAN_1
 62
     5
  6
CONTINUOUS
 66
     1
 40
0.003000
 41
0.003000
  0
VERTEX
  8
PLAN_1
 62
     5
  6
CONTINUOUS
 10
-1.624524
 20
1.685941
  0
VERTEX
  8
PLAN_1
 62
     5
  6
CONTINUOUS
 10
-1.624524
 20
1.677535
  0
SEQEND
  8
0
  0
POLYLINE
  8
PLAN_1
 62
     5
  6
CONTINUOUS
 66
     1
 40
0.003000
 41
0.003000
  0
VERTEX
  8
PLAN_1
 62
     5
  6
CONTINUOUS
 10
-1.624524
 20
1.669126
  0
VERTEX
  8
PLAN_1
 62
     5
  6
CONTINUOUS
 10
-1.624524
 20
1.660720
  0
SEQEND
  8
0
  0
POLYLINE
  8
PLAN_1
 62
     5
  6
CONTINUOUS
 66
     1
 40
0.003000
 41
0.003000
  0
VERTEX
  8
PLAN_1
 62
     5
  6
CONTINUOUS
 10
-1.624524
 20
1.652315
  0
VERTEX
  8
PLAN_1
 62
     5
  6
CONTINUOUS
 10
-1.624524
 20
1.644378
  0
SEQEND
  8
0
  0
POLYLINE
  8
PLAN_1
 62
     5
  6
CONTINUOUS
 66
     1
 40
0.003000
 41
0.003000
  0
VERTEX
  8
PLAN_1
 62
     5
  6
CONTINUOUS
 10
-1.624524
 20
1.635972
  0
VERTEX
  8
PLAN_1
 62
     5
  6
CONTINUOUS
 10
-1.624524
 20
1.627563
  0
SEQEND
  8
0
  0
POLYLINE
  8
PLAN_1
 62
     5
  6
CONTINUOUS
 66
     1
 40
0.003000
 41
0.003000
  0
VERTEX
  8
PLAN_1
 62
     5
  6
CONTINUOUS
 10
-1.624524
 20
1.619157
  0
VERTEX
  8
PLAN_1
 62
     5
  6
CONTINUOUS
 10
-1.624524
 20
1.610752
  0
SEQEND
  8
0
  0
POLYLINE
  8
PLAN_1
 62
     5
  6
CONTINUOUS
 66
     1
 40
0.003000
 41
0.003000
  0
VERTEX
  8
PLAN_1
 62
     5
  6
CONTINUOUS
 10
-1.624524
 20
1.602346
  0
VERTEX
  8
PLAN_1
 62
     5
  6
CONTINUOUS
 10
-1.624524
 20
1.594409
  0
SEQEND
  8
0
  0
POLYLINE
  8
PLAN_1
 62
     5
  6
CONTINUOUS
 66
     1
 40
0.003000
 41
0.003000
  0
VERTEX
  8
PLAN_1
 62
     5
  6
CONTINUOUS
 10
-1.618917
 20
1.591138
  0
VERTEX
  8
PLAN_1
 62
     5
  6
CONTINUOUS
 10
-1.610980
 20
1.591138
  0
SEQEND
  8
0
  0
POLYLINE
  8
PLAN_1
 62
     5
  6
CONTINUOUS
 66
     1
 40
0.003000
 41
0.003000
  0
VERTEX
  8
PLAN_1
 62
     5
  6
CONTINUOUS
 10
-1.602575
 20
1.591138
  0
VERTEX
  8
PLAN_1
 62
     5
  6
CONTINUOUS
 10
-1.594169
 20
1.591138
  0
SEQEND
  8
0
  0
POLYLINE
  8
PLAN_1
 62
     5
  6
CONTINUOUS
 66
     1
 40
0.003000
 41
0.003000
  0
VERTEX
  8
PLAN_1
 62
     5
  6
CONTINUOUS
 10
-1.585760
 20
1.591138
  0
VERTEX
  8
PLAN_1
 62
     5
  6
CONTINUOUS
 10
-1.577354
 20
1.591138
  0
SEQEND
  8
0
  0
POLYLINE
  8
PLAN_1
 62
     5
  6
CONTINUOUS
 66
     1
 40
0.003000
 41
0.003000
  0
VERTEX
  8
PLAN_1
 62
     5
  6
CONTINUOUS
 10
-1.568949
 20
1.591138
  0
VERTEX
  8
PLAN_1
 62
     5
  6
CONTINUOUS
 10
-1.561012
 20
1.591138
  0
SEQEND
  8
0
  0
POLYLINE
  8
PLAN_1
 62
     5
  6
CONTINUOUS
 66
     1
 40
0.003000
 41
0.003000
  0
VERTEX
  8
PLAN_1
 62
     5
  6
CONTINUOUS
 10
-1.552606
 20
1.591138
  0
VERTEX
  8
PLAN_1
 62
     5
  6
CONTINUOUS
 10
-1.544197
 20
1.591138
  0
SEQEND
  8
0
  0
POLYLINE
  8
PLAN_1
 62
     5
  6
CONTINUOUS
 66
     1
 40
0.003000
 41
0.003000
  0
VERTEX
  8
PLAN_1
 62
     5
  6
CONTINUOUS
 10
-1.607244
 20
1.803622
  0
VERTEX
  8
PLAN_1
 62
     5
  6
CONTINUOUS
 10
-1.605843
 20
1.795685
  0
SEQEND
  8
0
  0
POLYLINE
  8
PLAN_1
 62
     5
  6
CONTINUOUS
 66
     1
 40
0.003000
 41
0.003000
  0
VERTEX
  8
PLAN_1
 62
     5
  6
CONTINUOUS
 10
-1.604441
 20
1.787280
  0
VERTEX
  8
PLAN_1
 62
     5
  6
CONTINUOUS
 10
-1.603039
 20
1.778874
  0
SEQEND
  8
0
  0
POLYLINE
  8
PLAN_1
 62
     5
  6
CONTINUOUS
 66
     1
 40
0.003000
 41
0.003000
  0
VERTEX
  8
PLAN_1
 62
     5
  6
CONTINUOUS
 10
-1.602106
 20
1.770933
  0
VERTEX
  8
PLAN_1
 62
     5
  6
CONTINUOUS
 10
-1.600705
 20
1.762528
  0
SEQEND
  8
0
  0
POLYLINE
  8
PLAN_1
 62
     5
  6
CONTINUOUS
 66
     1
 40
0.003000
 41
0.003000
  0
VERTEX
  8
PLAN_1
 62
     5
  6
CONTINUOUS
 10
-1.599303
 20
1.754587
  0
VERTEX
  8
PLAN_1
 62
     5
  6
CONTINUOUS
 10
-1.597906
 20
1.746181
  0
SEQEND
  8
0
  0
POLYLINE
  8
PLAN_1
 62
     5
  6
CONTINUOUS
 66
     1
 40
0.003000
 41
0.003000
  0
VERTEX
  8
PLAN_1
 62
     5
  6
CONTINUOUS
 10
-1.596504
 20
1.737776
  0
VERTEX
  8
PLAN_1
 62
     5
  6
CONTINUOUS
 10
-1.595567
 20
1.729839
  0
SEQEND
  8
0
  0
POLYLINE
  8
PLAN_1
 62
     5
  6
CONTINUOUS
 66
     1
 40
0.003000
 41
0.003000
  0
VERTEX
  8
PLAN_1
 62
     5
  6
CONTINUOUS
 10
-1.594169
 20
1.721433
  0
VERTEX
  8
PLAN_1
 62
     5
  6
CONTINUOUS
 10
-1.592768
 20
1.713492
  0
SEQEND
  8
0
  0
POLYLINE
  8
PLAN_1
 62
     5
  6
CONTINUOUS
 66
     1
 40
0.003000
 41
0.003000
  0
VERTEX
  8
PLAN_1
 62
     5
  6
CONTINUOUS
 10
-1.591366
 20
1.705087
  0
VERTEX
  8
PLAN_1
 62
     5
  6
CONTINUOUS
 10
-1.589965
 20
1.696681
  0
SEQEND
  8
0
  0
POLYLINE
  8
PLAN_1
 62
     5
  6
CONTINUOUS
 66
     1
 40
0.003000
 41
0.003000
  0
VERTEX
  8
PLAN_1
 62
     5
  6
CONTINUOUS
 10
-1.589031
 20
1.688740
  0
VERTEX
  8
PLAN_1
 62
     5
  6
CONTINUOUS
 10
-1.587630
 20
1.680335
  0
SEQEND
  8
0
  0
POLYLINE
  8
PLAN_1
 62
     5
  6
CONTINUOUS
 66
     1
 40
0.003000
 41
0.003000
  0
VERTEX
  8
PLAN_1
 62
     5
  6
CONTINUOUS
 10
-1.586228
 20
1.672398
  0
VERTEX
  8
PLAN_1
 62
     5
  6
CONTINUOUS
 10
-1.584827
 20
1.663992
  0
SEQEND
  8
0
  0
POLYLINE
  8
PLAN_1
 62
     5
  6
CONTINUOUS
 66
     1
 40
0.003000
 41
0.003000
  0
VERTEX
  8
PLAN_1
 62
     5
  6
CONTINUOUS
 10
-1.583425
 20
1.655583
  0
VERTEX
  8
PLAN_1
 62
     5
  6
CONTINUOUS
 10
-1.582492
 20
1.647646
  0
SEQEND
  8
0
  0
POLYLINE
  8
PLAN_1
 62
     5
  6
CONTINUOUS
 66
     1
 40
0.003000
 41
0.003000
  0
VERTEX
  8
PLAN_1
 62
     5
  6
CONTINUOUS
 10
-1.581091
 20
1.639240
  0
VERTEX
  8
PLAN_1
 62
     5
  6
CONTINUOUS
 10
-1.579689
 20
1.630835
  0
SEQEND
  8
0
  0
POLYLINE
  8
PLAN_1
 62
     5
  6
CONTINUOUS
 66
     1
 40
0.003000
 41
0.003000
  0
VERTEX
  8
PLAN_1
 62
     5
  6
CONTINUOUS
 10
-1.578291
 20
1.622894
  0
VERTEX
  8
PLAN_1
 62
     5
  6
CONTINUOUS
 10
-1.576890
 20
1.614488
  0
SEQEND
  8
0
  0
POLYLINE
  8
PLAN_1
 62
     5
  6
CONTINUOUS
 66
     1
 40
0.003000
 41
0.003000
  0
VERTEX
  8
PLAN_1
 62
     5
  6
CONTINUOUS
 10
-1.575488
 20
1.606551
  0
VERTEX
  8
PLAN_1
 62
     5
  6
CONTINUOUS
 10
-1.574555
 20
1.598146
  0
SEQEND
  8
0
  0
POLYLINE
  8
PLAN_1
 62
     5
  6
CONTINUOUS
 66
     1
 40
0.003000
 41
0.003000
  0
VERTEX
  8
PLAN_1
 62
     5
  6
CONTINUOUS
 10
-1.624055
 20
1.739177
  0
VERTEX
  8
PLAN_1
 62
     5
  6
CONTINUOUS
 10
-1.622654
 20
1.730772
  0
SEQEND
  8
0
  0
POLYLINE
  8
PLAN_1
 62
     5
  6
CONTINUOUS
 66
     1
 40
0.003000
 41
0.003000
  0
VERTEX
  8
PLAN_1
 62
     5
  6
CONTINUOUS
 10
-1.621252
 20
1.722366
  0
VERTEX
  8
PLAN_1
 62
     5
  6
CONTINUOUS
 10
-1.620319
 20
1.714425
  0
SEQEND
  8
0
  0
POLYLINE
  8
PLAN_1
 62
     5
  6
CONTINUOUS
 66
     1
 40
0.003000
 41
0.003000
  0
VERTEX
  8
PLAN_1
 62
     5
  6
CONTINUOUS
 10
-1.618917
 20
1.706020
  0
VERTEX
  8
PLAN_1
 62
     5
  6
CONTINUOUS
 10
-1.617516
 20
1.698083
  0
SEQEND
  8
0
  0
POLYLINE
  8
PLAN_1
 62
     5
  6
CONTINUOUS
 66
     1
 40
0.003000
 41
0.003000
  0
VERTEX
  8
PLAN_1
 62
     5
  6
CONTINUOUS
 10
-1.616118
 20
1.689677
  0
VERTEX
  8
PLAN_1
 62
     5
  6
CONTINUOUS
 10
-1.614717
 20
1.681268
  0
SEQEND
  8
0
  0
POLYLINE
  8
PLAN_1
 62
     5
  6
CONTINUOUS
 66
     1
 40
0.003000
 41
0.003000
  0
VERTEX
  8
PLAN_1
 62
     5
  6
CONTINUOUS
 10
-1.613783
 20
1.673331
  0
VERTEX
  8
PLAN_1
 62
     5
  6
CONTINUOUS
 10
-1.612382
 20
1.664925
  0
SEQEND
  8
0
  0
POLYLINE
  8
PLAN_1
 62
     5
  6
CONTINUOUS
 66
     1
 40
0.003000
 41
0.003000
  0
VERTEX
  8
PLAN_1
 62
     5
  6
CONTINUOUS
 10
-1.610980
 20
1.656520
  0
VERTEX
  8
PLAN_1
 62
     5
  6
CONTINUOUS
 10
-1.609579
 20
1.648579
  0
SEQEND
  8
0
  0
POLYLINE
  8
PLAN_1
 62
     5
  6
CONTINUOUS
 66
     1
 40
0.003000
 41
0.003000
  0
VERTEX
  8
PLAN_1
 62
     5
  6
CONTINUOUS
 10
-1.608177
 20
1.640173
  0
VERTEX
  8
PLAN_1
 62
     5
  6
CONTINUOUS
 10
-1.607244
 20
1.632236
  0
SEQEND
  8
0
  0
POLYLINE
  8
PLAN_1
 62
     5
  6
CONTINUOUS
 66
     1
 40
0.003000
 41
0.003000
  0
VERTEX
  8
PLAN_1
 62
     5
  6
CONTINUOUS
 10
-1.605843
 20
1.623827
  0
VERTEX
  8
PLAN_1
 62
     5
  6
CONTINUOUS
 10
-1.604441
 20
1.615421
  0
SEQEND
  8
0
  0
POLYLINE
  8
PLAN_1
 62
     5
  6
CONTINUOUS
 66
     1
 40
0.003000
 41
0.003000
  0
VERTEX
  8
PLAN_1
 62
     5
  6
CONTINUOUS
 10
-1.603039
 20
1.607484
  0
VERTEX
  8
PLAN_1
 62
     5
  6
CONTINUOUS
 10
-1.601638
 20
1.599079
  0
SEQEND
  8
0
  0
POLYLINE
  8
PLAN_1
 62
     5
  6
CONTINUOUS
 66
     1
 40
0.003000
 41
0.003000
  0
VERTEX
  8
PLAN_1
 62
     5
  6
CONTINUOUS
 10
-1.552606
 20
1.803622
  0
VERTEX
  8
PLAN_1
 62
     5
  6
CONTINUOUS
 10
-1.551205
 20
1.795685
  0
SEQEND
  8
0
  0
POLYLINE
  8
PLAN_1
 62
     5
  6
CONTINUOUS
 66
     1
 40
0.003000
 41
0.003000
  0
VERTEX
  8
PLAN_1
 62
     5
  6
CONTINUOUS
 10
-1.550272
 20
1.787280
  0
VERTEX
  8
PLAN_1
 62
     5
  6
CONTINUOUS
 10
-1.548870
 20
1.778874
  0
SEQEND
  8
0
  0
POLYLINE
  8
PLAN_1
 62
     5
  6
CONTINUOUS
 66
     1
 40
0.003000
 41
0.003000
  0
VERTEX
  8
PLAN_1
 62
     5
  6
CONTINUOUS
 10
-1.547469
 20
1.770933
  0
VERTEX
  8
PLAN_1
 62
     5
  6
CONTINUOUS
 10
-1.546067
 20
1.762528
  0
SEQEND
  8
0
  0
POLYLINE
  8
PLAN_1
 62
     5
  6
CONTINUOUS
 66
     1
 40
0.003000
 41
0.003000
  0
VERTEX
  8
PLAN_1
 62
     5
  6
CONTINUOUS
 10
-1.544665
 20
1.754587
  0
VERTEX
  8
PLAN_1
 62
     5
  6
CONTINUOUS
 10
-1.543732
 20
1.746181
  0
SEQEND
  8
0
  0
POLYLINE
  8
PLAN_1
 62
     5
  6
CONTINUOUS
 66
     1
 40
0.003000
 41
0.003000
  0
VERTEX
  8
PLAN_1
 62
     5
  6
CONTINUOUS
 10
-1.542331
 20
1.737776
  0
VERTEX
  8
PLAN_1
 62
     5
  6
CONTINUOUS
 10
-1.540929
 20
1.729839
  0
SEQEND
  8
0
  0
POLYLINE
  8
PLAN_1
 62
     5
  6
CONTINUOUS
 66
     1
 40
0.003000
 41
0.003000
  0
VERTEX
  8
PLAN_1
 62
     5
  6
CONTINUOUS
 10
-1.539528
 20
1.721433
  0
VERTEX
  8
PLAN_1
 62
     5
  6
CONTINUOUS
 10
-1.539528
 20
1.720031
  0
SEQEND
  8
0
  0
POLYLINE
  8
PLAN_1
 62
     5
  6
CONTINUOUS
 66
     1
 40
0.003000
 41
0.003000
  0
VERTEX
  8
PLAN_1
 62
     5
  6
CONTINUOUS
 10
-1.539528
 20
1.721433
  0
VERTEX
  8
PLAN_1
 62
     5
  6
CONTINUOUS
 10
-1.539528
 20
1.720031
  0
SEQEND
  8
0
  0
POLYLINE
  8
PLAN_1
 62
     5
  6
CONTINUOUS
 66
     1
 40
0.003000
 41
0.003000
  0
VERTEX
  8
PLAN_1
 62
     5
  6
CONTINUOUS
 10
-1.579689
 20
1.803622
  0
VERTEX
  8
PLAN_1
 62
     5
  6
CONTINUOUS
 10
-1.578756
 20
1.795685
  0
SEQEND
  8
0
  0
POLYLINE
  8
PLAN_1
 62
     5
  6
CONTINUOUS
 66
     1
 40
0.003000
 41
0.003000
  0
VERTEX
  8
PLAN_1
 62
     5
  6
CONTINUOUS
 10
-1.577354
 20
1.787280
  0
VERTEX
  8
PLAN_1
 62
     5
  6
CONTINUOUS
 10
-1.575957
 20
1.778874
  0
SEQEND
  8
0
  0
POLYLINE
  8
PLAN_1
 62
     5
  6
CONTINUOUS
 66
     1
 40
0.003000
 41
0.003000
  0
VERTEX
  8
PLAN_1
 62
     5
  6
CONTINUOUS
 10
-1.574555
 20
1.770933
  0
VERTEX
  8
PLAN_1
 62
     5
  6
CONTINUOUS
 10
-1.573154
 20
1.762528
  0
SEQEND
  8
0
  0
POLYLINE
  8
PLAN_1
 62
     5
  6
CONTINUOUS
 66
     1
 40
0.003000
 41
0.003000
  0
VERTEX
  8
PLAN_1
 62
     5
  6
CONTINUOUS
 10
-1.572220
 20
1.754587
  0
VERTEX
  8
PLAN_1
 62
     5
  6
CONTINUOUS
 10
-1.570819
 20
1.746181
  0
SEQEND
  8
0
  0
POLYLINE
  8
PLAN_1
 62
     5
  6
CONTINUOUS
 66
     1
 40
0.003000
 41
0.003000
  0
VERTEX
  8
PLAN_1
 62
     5
  6
CONTINUOUS
 10
-1.569417
 20
1.737776
  0
VERTEX
  8
PLAN_1
 62
     5
  6
CONTINUOUS
 10
-1.568016
 20
1.729839
  0
SEQEND
  8
0
  0
POLYLINE
  8
PLAN_1
 62
     5
  6
CONTINUOUS
 66
     1
 40
0.003000
 41
0.003000
  0
VERTEX
  8
PLAN_1
 62
     5
  6
CONTINUOUS
 10
-1.566614
 20
1.721433
  0
VERTEX
  8
PLAN_1
 62
     5
  6
CONTINUOUS
 10
-1.565681
 20
1.713492
  0
SEQEND
  8
0
  0
POLYLINE
  8
PLAN_1
 62
     5
  6
CONTINUOUS
 66
     1
 40
0.003000
 41
0.003000
  0
VERTEX
  8
PLAN_1
 62
     5
  6
CONTINUOUS
 10
-1.564280
 20
1.705087
  0
VERTEX
  8
PLAN_1
 62
     5
  6
CONTINUOUS
 10
-1.562878
 20
1.696681
  0
SEQEND
  8
0
  0
POLYLINE
  8
PLAN_1
 62
     5
  6
CONTINUOUS
 66
     1
 40
0.003000
 41
0.003000
  0
VERTEX
  8
PLAN_1
 62
     5
  6
CONTINUOUS
 10
-1.561476
 20
1.688740
  0
VERTEX
  8
PLAN_1
 62
     5
  6
CONTINUOUS
 10
-1.560079
 20
1.680335
  0
SEQEND
  8
0
  0
POLYLINE
  8
PLAN_1
 62
     5
  6
CONTINUOUS
 66
     1
 40
0.003000
 41
0.003000
  0
VERTEX
  8
PLAN_1
 62
     5
  6
CONTINUOUS
 10
-1.559142
 20
1.672398
  0
VERTEX
  8
PLAN_1
 62
     5
  6
CONTINUOUS
 10
-1.557740
 20
1.663992
  0
SEQEND
  8
0
  0
POLYLINE
  8
PLAN_1
 62
     5
  6
CONTINUOUS
 66
     1
 40
0.003000
 41
0.003000
  0
VERTEX
  8
PLAN_1
 62
     5
  6
CONTINUOUS
 10
-1.556343
 20
1.655583
  0
VERTEX
  8
PLAN_1
 62
     5
  6
CONTINUOUS
 10
-1.554941
 20
1.647646
  0
SEQEND
  8
0
  0
POLYLINE
  8
PLAN_1
 62
     5
  6
CONTINUOUS
 66
     1
 40
0.003000
 41
0.003000
  0
VERTEX
  8
PLAN_1
 62
     5
  6
CONTINUOUS
 10
-1.553539
 20
1.639240
  0
VERTEX
  8
PLAN_1
 62
     5
  6
CONTINUOUS
 10
-1.552606
 20
1.630835
  0
SEQEND
  8
0
  0
POLYLINE
  8
PLAN_1
 62
     5
  6
CONTINUOUS
 66
     1
 40
0.003000
 41
0.003000
  0
VERTEX
  8
PLAN_1
 62
     5
  6
CONTINUOUS
 10
-1.551205
 20
1.622894
  0
VERTEX
  8
PLAN_1
 62
     5
  6
CONTINUOUS
 10
-1.549803
 20
1.614488
  0
SEQEND
  8
0
  0
POLYLINE
  8
PLAN_1
 62
     5
  6
CONTINUOUS
 66
     1
 40
0.003000
 41
0.003000
  0
VERTEX
  8
PLAN_1
 62
     5
  6
CONTINUOUS
 10
-1.548402
 20
1.606551
  0
VERTEX
  8
PLAN_1
 62
     5
  6
CONTINUOUS
 10
-1.547000
 20
1.598146
  0
SEQEND
  8
0
  0
POLYLINE
  8
PLAN_1
 62
     5
  6
CONTINUOUS
 66
     1
 40
0.003000
 41
0.003000
  0
VERTEX
  8
PLAN_1
 62
     5
  6
CONTINUOUS
 10
-1.521783
 20
1.698083
  0
VERTEX
  8
PLAN_1
 62
     5
  6
CONTINUOUS
 10
-1.525051
 20
1.690610
  0
SEQEND
  8
0
  0
POLYLINE
  8
PLAN_1
 62
     5
  6
CONTINUOUS
 66
     1
 40
0.003000
 41
0.003000
  0
VERTEX
  8
PLAN_1
 62
     5
  6
CONTINUOUS
 10
-1.528319
 20
1.682669
  0
VERTEX
  8
PLAN_1
 62
     5
  6
CONTINUOUS
 10
-1.528319
 20
1.682205
  0
VERTEX
  8
PLAN_1
 62
     5
  6
CONTINUOUS
 10
-1.530657
 20
1.674732
  0
SEQEND
  8
0
  0
POLYLINE
  8
PLAN_1
 62
     5
  6
CONTINUOUS
 66
     1
 40
0.003000
 41
0.003000
  0
VERTEX
  8
PLAN_1
 62
     5
  6
CONTINUOUS
 10
-1.532992
 20
1.666791
  0
VERTEX
  8
PLAN_1
 62
     5
  6
CONTINUOUS
 10
-1.533457
 20
1.666327
  0
VERTEX
  8
PLAN_1
 62
     5
  6
CONTINUOUS
 10
-1.535327
 20
1.658854
  0
SEQEND
  8
0
  0
POLYLINE
  8
PLAN_1
 62
     5
  6
CONTINUOUS
 66
     1
 40
0.003000
 41
0.003000
  0
VERTEX
  8
PLAN_1
 62
     5
  6
CONTINUOUS
 10
-1.536728
 20
1.650449
  0
VERTEX
  8
PLAN_1
 62
     5
  6
CONTINUOUS
 10
-1.537661
 20
1.642976
  0
VERTEX
  8
PLAN_1
 62
     5
  6
CONTINUOUS
 10
-1.538126
 20
1.642043
  0
SEQEND
  8
0
  0
POLYLINE
  8
PLAN_1
 62
     5
  6
CONTINUOUS
 66
     1
 40
0.003000
 41
0.003000
  0
VERTEX
  8
PLAN_1
 62
     5
  6
CONTINUOUS
 10
-1.538594
 20
1.634102
  0
VERTEX
  8
PLAN_1
 62
     5
  6
CONTINUOUS
 10
-1.539063
 20
1.628031
  0
VERTEX
  8
PLAN_1
 62
     5
  6
CONTINUOUS
 10
-1.539528
 20
1.625697
  0
SEQEND
  8
0
  0
POLYLINE
  8
PLAN_1
 62
     5
  6
CONTINUOUS
 66
     1
 40
0.003000
 41
0.003000
  0
VERTEX
  8
PLAN_1
 62
     5
  6
CONTINUOUS
 10
-1.539528
 20
1.617291
  0
VERTEX
  8
PLAN_1
 62
     5
  6
CONTINUOUS
 10
-1.539528
 20
1.613555
  0
VERTEX
  8
PLAN_1
 62
     5
  6
CONTINUOUS
 10
-1.539528
 20
1.608886
  0
SEQEND
  8
0
  0
POLYLINE
  8
PLAN_1
 62
     5
  6
CONTINUOUS
 66
     1
 40
0.003000
 41
0.003000
  0
VERTEX
  8
PLAN_1
 62
     5
  6
CONTINUOUS
 10
-1.539063
 20
1.600480
  0
VERTEX
  8
PLAN_1
 62
     5
  6
CONTINUOUS
 10
-1.538594
 20
1.593472
  0
VERTEX
  8
PLAN_1
 62
     5
  6
CONTINUOUS
 10
-1.538126
 20
1.592539
  0
SEQEND
  8
0
  0
POLYLINE
  8
PLAN_1
 62
     5
  6
CONTINUOUS
 66
     1
 40
0.003000
 41
0.003000
  0
VERTEX
  8
PLAN_1
 62
     5
  6
CONTINUOUS
 10
-1.537193
 20
1.584134
  0
VERTEX
  8
PLAN_1
 62
     5
  6
CONTINUOUS
 10
-1.536728
 20
1.580866
  0
VERTEX
  8
PLAN_1
 62
     5
  6
CONTINUOUS
 10
-1.535791
 20
1.575728
  0
SEQEND
  8
0
  0
POLYLINE
  8
PLAN_1
 62
     5
  6
CONTINUOUS
 66
     1
 40
0.003000
 41
0.003000
  0
VERTEX
  8
PLAN_1
 62
     5
  6
CONTINUOUS
 10
-1.534394
 20
1.567787
  0
VERTEX
  8
PLAN_1
 62
     5
  6
CONTINUOUS
 10
-1.532524
 20
1.559850
  0
SEQEND
  8
0
  0
POLYLINE
  8
PLAN_1
 62
     5
  6
CONTINUOUS
 66
     1
 40
0.003000
 41
0.003000
  0
VERTEX
  8
PLAN_1
 62
     5
  6
CONTINUOUS
 10
-1.530189
 20
1.551445
  0
VERTEX
  8
PLAN_1
 62
     5
  6
CONTINUOUS
 10
-1.529720
 20
1.550508
  0
VERTEX
  8
PLAN_1
 62
     5
  6
CONTINUOUS
 10
-1.527854
 20
1.543504
  0
SEQEND
  8
0
  0
POLYLINE
  8
PLAN_1
 62
     5
  6
CONTINUOUS
 66
     1
 40
0.003000
 41
0.003000
  0
VERTEX
  8
PLAN_1
 62
     5
  6
CONTINUOUS
 10
-1.525051
 20
1.536031
  0
VERTEX
  8
PLAN_1
 62
     5
  6
CONTINUOUS
 10
-1.523185
 20
1.531831
  0
VERTEX
  8
PLAN_1
 62
     5
  6
CONTINUOUS
 10
-1.521783
 20
1.528094
  0
SEQEND
  8
0
  0
POLYLINE
  8
PLAN_1
 62
     5
  6
CONTINUOUS
 66
     1
 40
0.003000
 41
0.003000
  0
VERTEX
  8
PLAN_1
 62
     5
  6
CONTINUOUS
 10
-1.649276
 20
2.891264
  0
VERTEX
  8
PLAN_1
 62
     5
  6
CONTINUOUS
 10
-1.640866
 20
2.891264
  0
SEQEND
  8
0
  0
POLYLINE
  8
PLAN_1
 62
     5
  6
CONTINUOUS
 66
     1
 40
0.003000
 41
0.003000
  0
VERTEX
  8
PLAN_1
 62
     5
  6
CONTINUOUS
 10
-1.632461
 20
2.891264
  0
VERTEX
  8
PLAN_1
 62
     5
  6
CONTINUOUS
 10
-1.627791
 20
2.891264
  0
VERTEX
  8
PLAN_1
 62
     5
  6
CONTINUOUS
 10
-1.627791
 20
2.887528
  0
SEQEND
  8
0
  0
POLYLINE
  8
PLAN_1
 62
     5
  6
CONTINUOUS
 66
     1
 40
0.003000
 41
0.003000
  0
VERTEX
  8
PLAN_1
 62
     5
  6
CONTINUOUS
 10
-1.627791
 20
2.879122
  0
VERTEX
  8
PLAN_1
 62
     5
  6
CONTINUOUS
 10
-1.627791
 20
2.871185
  0
SEQEND
  8
0
  0
POLYLINE
  8
PLAN_1
 62
     5
  6
CONTINUOUS
 66
     1
 40
0.003000
 41
0.003000
  0
VERTEX
  8
PLAN_1
 62
     5
  6
CONTINUOUS
 10
-1.627791
 20
2.862776
  0
VERTEX
  8
PLAN_1
 62
     5
  6
CONTINUOUS
 10
-1.627791
 20
2.854370
  0
SEQEND
  8
0
  0
POLYLINE
  8
PLAN_1
 62
     5
  6
CONTINUOUS
 66
     1
 40
0.003000
 41
0.003000
  0
VERTEX
  8
PLAN_1
 62
     5
  6
CONTINUOUS
 10
-1.627791
 20
2.845965
  0
VERTEX
  8
PLAN_1
 62
     5
  6
CONTINUOUS
 10
-1.627791
 20
2.837559
  0
SEQEND
  8
0
  0
POLYLINE
  8
PLAN_1
 62
     5
  6
CONTINUOUS
 66
     1
 40
0.003000
 41
0.003000
  0
VERTEX
  8
PLAN_1
 62
     5
  6
CONTINUOUS
 10
-1.627791
 20
2.829154
  0
VERTEX
  8
PLAN_1
 62
     5
  6
CONTINUOUS
 10
-1.627791
 20
2.821217
  0
SEQEND
  8
0
  0
POLYLINE
  8
PLAN_1
 62
     5
  6
CONTINUOUS
 66
     1
 40
0.003000
 41
0.003000
  0
VERTEX
  8
PLAN_1
 62
     5
  6
CONTINUOUS
 10
-1.627791
 20
2.812807
  0
VERTEX
  8
PLAN_1
 62
     5
  6
CONTINUOUS
 10
-1.627791
 20
2.804402
  0
SEQEND
  8
0
  0
POLYLINE
  8
PLAN_1
 62
     5
  6
CONTINUOUS
 66
     1
 40
0.003000
 41
0.003000
  0
VERTEX
  8
PLAN_1
 62
     5
  6
CONTINUOUS
 10
-1.627791
 20
2.795996
  0
VERTEX
  8
PLAN_1
 62
     5
  6
CONTINUOUS
 10
-1.627791
 20
2.787591
  0
SEQEND
  8
0
  0
POLYLINE
  8
PLAN_1
 62
     5
  6
CONTINUOUS
 66
     1
 40
0.003000
 41
0.003000
  0
VERTEX
  8
PLAN_1
 62
     5
  6
CONTINUOUS
 10
-1.627791
 20
2.779185
  0
VERTEX
  8
PLAN_1
 62
     5
  6
CONTINUOUS
 10
-1.627791
 20
2.771244
  0
SEQEND
  8
0
  0
POLYLINE
  8
PLAN_1
 62
     5
  6
CONTINUOUS
 66
     1
 40
0.003000
 41
0.003000
  0
VERTEX
  8
PLAN_1
 62
     5
  6
CONTINUOUS
 10
-1.627791
 20
2.762839
  0
VERTEX
  8
PLAN_1
 62
     5
  6
CONTINUOUS
 10
-1.627791
 20
2.754433
  0
SEQEND
  8
0
  0
POLYLINE
  8
PLAN_1
 62
     5
  6
CONTINUOUS
 66
     1
 40
0.003000
 41
0.003000
  0
VERTEX
  8
PLAN_1
 62
     5
  6
CONTINUOUS
 10
-1.627791
 20
2.746028
  0
VERTEX
  8
PLAN_1
 62
     5
  6
CONTINUOUS
 10
-1.627791
 20
2.737622
  0
SEQEND
  8
0
  0
POLYLINE
  8
PLAN_1
 62
     5
  6
CONTINUOUS
 66
     1
 40
0.003000
 41
0.003000
  0
VERTEX
  8
PLAN_1
 62
     5
  6
CONTINUOUS
 10
-1.627791
 20
2.729217
  0
VERTEX
  8
PLAN_1
 62
     5
  6
CONTINUOUS
 10
-1.627791
 20
2.721276
  0
SEQEND
  8
0
  0
POLYLINE
  8
PLAN_1
 62
     5
  6
CONTINUOUS
 66
     1
 40
0.003000
 41
0.003000
  0
VERTEX
  8
PLAN_1
 62
     5
  6
CONTINUOUS
 10
-1.627791
 20
2.712870
  0
VERTEX
  8
PLAN_1
 62
     5
  6
CONTINUOUS
 10
-1.627791
 20
2.704465
  0
SEQEND
  8
0
  0
POLYLINE
  8
PLAN_1
 62
     5
  6
CONTINUOUS
 66
     1
 40
0.003000
 41
0.003000
  0
VERTEX
  8
PLAN_1
 62
     5
  6
CONTINUOUS
 10
-1.627791
 20
2.696059
  0
VERTEX
  8
PLAN_1
 62
     5
  6
CONTINUOUS
 10
-1.627791
 20
2.687654
  0
SEQEND
  8
0
  0
POLYLINE
  8
PLAN_1
 62
     5
  6
CONTINUOUS
 66
     1
 40
0.003000
 41
0.003000
  0
VERTEX
  8
PLAN_1
 62
     5
  6
CONTINUOUS
 10
-1.627791
 20
2.679248
  0
VERTEX
  8
PLAN_1
 62
     5
  6
CONTINUOUS
 10
-1.627791
 20
2.671307
  0
SEQEND
  8
0
  0
POLYLINE
  8
PLAN_1
 62
     5
  6
CONTINUOUS
 66
     1
 40
0.003000
 41
0.003000
  0
VERTEX
  8
PLAN_1
 62
     5
  6
CONTINUOUS
 10
-1.627791
 20
2.662902
  0
VERTEX
  8
PLAN_1
 62
     5
  6
CONTINUOUS
 10
-1.627791
 20
2.654496
  0
SEQEND
  8
0
  0
POLYLINE
  8
PLAN_1
 62
     5
  6
CONTINUOUS
 66
     1
 40
0.003000
 41
0.003000
  0
VERTEX
  8
PLAN_1
 62
     5
  6
CONTINUOUS
 10
-1.627791
 20
2.646091
  0
VERTEX
  8
PLAN_1
 62
     5
  6
CONTINUOUS
 10
-1.627791
 20
2.637685
  0
SEQEND
  8
0
  0
POLYLINE
  8
PLAN_1
 62
     5
  6
CONTINUOUS
 66
     1
 40
0.003000
 41
0.003000
  0
VERTEX
  8
PLAN_1
 62
     5
  6
CONTINUOUS
 10
-1.634331
 20
2.635815
  0
VERTEX
  8
PLAN_1
 62
     5
  6
CONTINUOUS
 10
-1.642736
 20
2.635815
  0
SEQEND
  8
0
  0
POLYLINE
  8
PLAN_1
 62
     5
  6
CONTINUOUS
 66
     1
 40
0.003000
 41
0.003000
  0
VERTEX
  8
PLAN_1
 62
     5
  6
CONTINUOUS
 10
-1.948154
 20
2.593319
  0
VERTEX
  8
PLAN_1
 62
     5
  6
CONTINUOUS
 10
-1.956559
 20
2.593319
  0
SEQEND
  8
0
  0
POLYLINE
  8
PLAN_1
 62
     5
  6
CONTINUOUS
 66
     1
 40
0.003000
 41
0.003000
  0
VERTEX
  8
PLAN_1
 62
     5
  6
CONTINUOUS
 10
-1.964500
 20
2.593319
  0
VERTEX
  8
PLAN_1
 62
     5
  6
CONTINUOUS
 10
-1.972906
 20
2.593319
  0
SEQEND
  8
0
  0
POLYLINE
  8
PLAN_1
 62
     5
  6
CONTINUOUS
 66
     1
 40
0.003000
 41
0.003000
  0
VERTEX
  8
PLAN_1
 62
     5
  6
CONTINUOUS
 10
-1.981311
 20
2.593319
  0
VERTEX
  8
PLAN_1
 62
     5
  6
CONTINUOUS
 10
-1.989717
 20
2.593319
  0
SEQEND
  8
0
  0
POLYLINE
  8
PLAN_1
 62
     5
  6
CONTINUOUS
 66
     1
 40
0.003000
 41
0.003000
  0
VERTEX
  8
PLAN_1
 62
     5
  6
CONTINUOUS
 10
-1.998122
 20
2.593319
  0
VERTEX
  8
PLAN_1
 62
     5
  6
CONTINUOUS
 10
-2.006528
 20
2.593319
  0
SEQEND
  8
0
  0
POLYLINE
  8
PLAN_1
 62
     5
  6
CONTINUOUS
 66
     1
 40
0.003000
 41
0.003000
  0
VERTEX
  8
PLAN_1
 62
     5
  6
CONTINUOUS
 10
-2.012134
 20
2.596122
  0
VERTEX
  8
PLAN_1
 62
     5
  6
CONTINUOUS
 10
-2.012134
 20
2.604059
  0
SEQEND
  8
0
  0
POLYLINE
  8
PLAN_1
 62
     5
  6
CONTINUOUS
 66
     1
 40
0.003000
 41
0.003000
  0
VERTEX
  8
PLAN_1
 62
     5
  6
CONTINUOUS
 10
-2.012134
 20
2.612465
  0
VERTEX
  8
PLAN_1
 62
     5
  6
CONTINUOUS
 10
-2.012134
 20
2.620870
  0
SEQEND
  8
0
  0
POLYLINE
  8
PLAN_1
 62
     5
  6
CONTINUOUS
 66
     1
 40
0.003000
 41
0.003000
  0
VERTEX
  8
PLAN_1
 62
     5
  6
CONTINUOUS
 10
-2.012134
 20
2.629280
  0
VERTEX
  8
PLAN_1
 62
     5
  6
CONTINUOUS
 10
-2.012134
 20
2.637685
  0
SEQEND
  8
0
  0
POLYLINE
  8
PLAN_1
 62
     5
  6
CONTINUOUS
 66
     1
 40
0.003000
 41
0.003000
  0
VERTEX
  8
PLAN_1
 62
     5
  6
CONTINUOUS
 10
-2.012134
 20
2.646091
  0
VERTEX
  8
PLAN_1
 62
     5
  6
CONTINUOUS
 10
-2.012134
 20
2.654028
  0
SEQEND
  8
0
  0
POLYLINE
  8
PLAN_1
 62
     5
  6
CONTINUOUS
 66
     1
 40
0.003000
 41
0.003000
  0
VERTEX
  8
PLAN_1
 62
     5
  6
CONTINUOUS
 10
-2.012134
 20
2.662433
  0
VERTEX
  8
PLAN_1
 62
     5
  6
CONTINUOUS
 10
-2.012134
 20
2.670843
  0
SEQEND
  8
0
  0
POLYLINE
  8
PLAN_1
 62
     5
  6
CONTINUOUS
 66
     1
 40
0.003000
 41
0.003000
  0
VERTEX
  8
PLAN_1
 62
     5
  6
CONTINUOUS
 10
-2.012134
 20
2.679248
  0
VERTEX
  8
PLAN_1
 62
     5
  6
CONTINUOUS
 10
-2.012134
 20
2.687654
  0
SEQEND
  8
0
  0
POLYLINE
  8
PLAN_1
 62
     5
  6
CONTINUOUS
 66
     1
 40
0.003000
 41
0.003000
  0
VERTEX
  8
PLAN_1
 62
     5
  6
CONTINUOUS
 10
-2.012134
 20
2.696059
  0
VERTEX
  8
PLAN_1
 62
     5
  6
CONTINUOUS
 10
-2.012134
 20
2.703996
  0
SEQEND
  8
0
  0
POLYLINE
  8
PLAN_1
 62
     5
  6
CONTINUOUS
 66
     1
 40
0.003000
 41
0.003000
  0
VERTEX
  8
PLAN_1
 62
     5
  6
CONTINUOUS
 10
-2.012134
 20
2.712406
  0
VERTEX
  8
PLAN_1
 62
     5
  6
CONTINUOUS
 10
-2.012134
 20
2.720811
  0
SEQEND
  8
0
  0
POLYLINE
  8
PLAN_1
 62
     5
  6
CONTINUOUS
 66
     1
 40
0.003000
 41
0.003000
  0
VERTEX
  8
PLAN_1
 62
     5
  6
CONTINUOUS
 10
-2.012134
 20
2.729217
  0
VERTEX
  8
PLAN_1
 62
     5
  6
CONTINUOUS
 10
-2.012134
 20
2.737622
  0
SEQEND
  8
0
  0
POLYLINE
  8
PLAN_1
 62
     5
  6
CONTINUOUS
 66
     1
 40
0.003000
 41
0.003000
  0
VERTEX
  8
PLAN_1
 62
     5
  6
CONTINUOUS
 10
-2.012134
 20
2.746028
  0
VERTEX
  8
PLAN_1
 62
     5
  6
CONTINUOUS
 10
-2.012134
 20
2.753969
  0
SEQEND
  8
0
  0
POLYLINE
  8
PLAN_1
 62
     5
  6
CONTINUOUS
 66
     1
 40
0.003000
 41
0.003000
  0
VERTEX
  8
PLAN_1
 62
     5
  6
CONTINUOUS
 10
-2.012134
 20
2.762374
  0
VERTEX
  8
PLAN_1
 62
     5
  6
CONTINUOUS
 10
-2.012134
 20
2.770780
  0
SEQEND
  8
0
  0
POLYLINE
  8
PLAN_1
 62
     5
  6
CONTINUOUS
 66
     1
 40
0.003000
 41
0.003000
  0
VERTEX
  8
PLAN_1
 62
     5
  6
CONTINUOUS
 10
-2.012134
 20
2.779185
  0
VERTEX
  8
PLAN_1
 62
     5
  6
CONTINUOUS
 10
-2.012134
 20
2.787591
  0
SEQEND
  8
0
  0
POLYLINE
  8
PLAN_1
 62
     5
  6
CONTINUOUS
 66
     1
 40
0.003000
 41
0.003000
  0
VERTEX
  8
PLAN_1
 62
     5
  6
CONTINUOUS
 10
-2.012134
 20
2.795996
  0
VERTEX
  8
PLAN_1
 62
     5
  6
CONTINUOUS
 10
-2.012134
 20
2.804402
  0
SEQEND
  8
0
  0
POLYLINE
  8
PLAN_1
 62
     5
  6
CONTINUOUS
 66
     1
 40
0.003000
 41
0.003000
  0
VERTEX
  8
PLAN_1
 62
     5
  6
CONTINUOUS
 10
-2.012134
 20
2.812343
  0
VERTEX
  8
PLAN_1
 62
     5
  6
CONTINUOUS
 10
-2.012134
 20
2.820748
  0
SEQEND
  8
0
  0
POLYLINE
  8
PLAN_1
 62
     5
  6
CONTINUOUS
 66
     1
 40
0.003000
 41
0.003000
  0
VERTEX
  8
PLAN_1
 62
     5
  6
CONTINUOUS
 10
-2.012134
 20
2.829154
  0
VERTEX
  8
PLAN_1
 62
     5
  6
CONTINUOUS
 10
-2.012134
 20
2.837559
  0
SEQEND
  8
0
  0
POLYLINE
  8
PLAN_1
 62
     5
  6
CONTINUOUS
 66
     1
 40
0.003000
 41
0.003000
  0
VERTEX
  8
PLAN_1
 62
     5
  6
CONTINUOUS
 10
-2.012134
 20
2.845965
  0
VERTEX
  8
PLAN_1
 62
     5
  6
CONTINUOUS
 10
-2.012134
 20
2.854370
  0
SEQEND
  8
0
  0
POLYLINE
  8
PLAN_1
 62
     5
  6
CONTINUOUS
 66
     1
 40
0.003000
 41
0.003000
  0
VERTEX
  8
PLAN_1
 62
     5
  6
CONTINUOUS
 10
-2.012134
 20
2.862311
  0
VERTEX
  8
PLAN_1
 62
     5
  6
CONTINUOUS
 10
-2.012134
 20
2.870717
  0
SEQEND
  8
0
  0
POLYLINE
  8
PLAN_1
 62
     5
  6
CONTINUOUS
 66
     1
 40
0.003000
 41
0.003000
  0
VERTEX
  8
PLAN_1
 62
     5
  6
CONTINUOUS
 10
-2.012134
 20
2.879122
  0
VERTEX
  8
PLAN_1
 62
     5
  6
CONTINUOUS
 10
-2.012134
 20
2.887528
  0
SEQEND
  8
0
  0
POLYLINE
  8
PLAN_1
 62
     5
  6
CONTINUOUS
 66
     1
 40
0.003000
 41
0.003000
  0
VERTEX
  8
PLAN_1
 62
     5
  6
CONTINUOUS
 10
-2.012134
 20
2.895933
  0
VERTEX
  8
PLAN_1
 62
     5
  6
CONTINUOUS
 10
-2.012134
 20
2.904339
  0
SEQEND
  8
0
  0
POLYLINE
  8
PLAN_1
 62
     5
  6
CONTINUOUS
 66
     1
 40
0.003000
 41
0.003000
  0
VERTEX
  8
PLAN_1
 62
     5
  6
CONTINUOUS
 10
-2.012134
 20
2.912280
  0
VERTEX
  8
PLAN_1
 62
     5
  6
CONTINUOUS
 10
-2.012134
 20
2.920685
  0
SEQEND
  8
0
  0
POLYLINE
  8
PLAN_1
 62
     5
  6
CONTINUOUS
 66
     1
 40
0.003000
 41
0.003000
  0
VERTEX
  8
PLAN_1
 62
     5
  6
CONTINUOUS
 10
-2.012134
 20
2.929091
  0
VERTEX
  8
PLAN_1
 62
     5
  6
CONTINUOUS
 10
-2.012134
 20
2.933760
  0
VERTEX
  8
PLAN_1
 62
     5
  6
CONTINUOUS
 10
-2.008398
 20
2.933760
  0
SEQEND
  8
0
  0
POLYLINE
  8
PLAN_1
 62
     5
  6
CONTINUOUS
 66
     1
 40
0.003000
 41
0.003000
  0
VERTEX
  8
PLAN_1
 62
     5
  6
CONTINUOUS
 10
-1.999988
 20
2.933760
  0
VERTEX
  8
PLAN_1
 62
     5
  6
CONTINUOUS
 10
-1.991583
 20
2.933760
  0
SEQEND
  8
0
  0
POLYLINE
  8
PLAN_1
 62
     5
  6
CONTINUOUS
 66
     1
 40
0.003000
 41
0.003000
  0
VERTEX
  8
PLAN_1
 62
     5
  6
CONTINUOUS
 10
-1.983646
 20
2.933760
  0
VERTEX
  8
PLAN_1
 62
     5
  6
CONTINUOUS
 10
-1.975240
 20
2.933760
  0
SEQEND
  8
0
  0
POLYLINE
  8
PLAN_1
 62
     5
  6
CONTINUOUS
 66
     1
 40
0.003000
 41
0.003000
  0
VERTEX
  8
PLAN_1
 62
     5
  6
CONTINUOUS
 10
-1.966835
 20
2.933760
  0
VERTEX
  8
PLAN_1
 62
     5
  6
CONTINUOUS
 10
-1.958425
 20
2.933760
  0
SEQEND
  8
0
  0
POLYLINE
  8
PLAN_1
 62
     5
  6
CONTINUOUS
 66
     1
 40
0.003000
 41
0.003000
  0
VERTEX
  8
PLAN_1
 62
     5
  6
CONTINUOUS
 10
-1.950020
 20
2.933760
  0
VERTEX
  8
PLAN_1
 62
     5
  6
CONTINUOUS
 10
-1.948154
 20
2.933760
  0
SEQEND
  8
0
  0
POLYLINE
  8
PLAN_1
 62
     5
  6
CONTINUOUS
 66
     1
 40
0.003000
 41
0.003000
  0
VERTEX
  8
PLAN_1
 62
     5
  6
CONTINUOUS
 10
-1.950020
 20
2.933760
  0
VERTEX
  8
PLAN_1
 62
     5
  6
CONTINUOUS
 10
-1.948154
 20
2.933760
  0
SEQEND
  8
0
  0
POLYLINE
  8
PLAN_1
  6
CONTINUOUS
 66
     1
 40
0.004201
 41
0.004201
  0
VERTEX
  8
PLAN_1
  6
CONTINUOUS
 10
-1.440059
 20
0.116354
  0
VERTEX
  8
PLAN_1
  6
CONTINUOUS
 10
-1.440524
 20
0.824791
  0
VERTEX
  8
PLAN_1
  6
CONTINUOUS
 10
-0.271626
 20
0.824791
  0
VERTEX
  8
PLAN_1
  6
CONTINUOUS
 10
-0.271626
 20
0.118224
  0
SEQEND
  8
0
  0
POLYLINE
  8
PLAN_1
  6
CONTINUOUS
 66
     1
 40
0.008406
 41
0.008406
  0
VERTEX
  8
PLAN_1
  6
CONTINUOUS
 10
-0.364559
 20
0.776693
  0
VERTEX
  8
PLAN_1
  6
CONTINUOUS
 10
-0.364559
 20
0.824791
  0
VERTEX
  8
PLAN_1
  6
CONTINUOUS
 10
-1.366272
 20
0.824791
  0
VERTEX
  8
PLAN_1
  6
CONTINUOUS
 10
-1.366272
 20
0.776693
  0
VERTEX
  8
PLAN_1
  6
CONTINUOUS
 10
-0.364559
 20
0.776693
  0
SEQEND
  8
0
  0
POLYLINE
  8
PLAN_1
  6
CONTINUOUS
 66
     1
 40
0.007004
 41
0.007004
  0
VERTEX
  8
PLAN_1
  6
CONTINUOUS
 10
-0.421067
 20
0.498827
  0
VERTEX
  8
PLAN_1
  6
CONTINUOUS
 10
-0.461228
 20
0.458665
  0
VERTEX
  8
PLAN_1
  6
CONTINUOUS
 10
-1.265866
 20
0.458665
  0
VERTEX
  8
PLAN_1
  6
CONTINUOUS
 10
-1.306496
 20
0.498827
  0
VERTEX
  8
PLAN_1
  6
CONTINUOUS
 10
-1.306496
 20
0.776693
  0
VERTEX
  8
PLAN_1
  6
CONTINUOUS
 10
-0.421067
 20
0.776693
  0
VERTEX
  8
PLAN_1
  6
CONTINUOUS
 10
-0.421067
 20
0.498827
  0
SEQEND
  8
0
  0
POLYLINE
  8
PLAN_1
  6
CONTINUOUS
 66
     1
 40
0.008406
 41
0.008406
  0
VERTEX
  8
PLAN_1
  6
CONTINUOUS
 10
-1.212630
 20
0.458665
  0
VERTEX
  8
PLAN_1
  6
CONTINUOUS
 10
-1.159858
 20
0.258791
  0
VERTEX
  8
PLAN_1
  6
CONTINUOUS
 10
-0.574709
 20
0.258791
  0
VERTEX
  8
PLAN_1
  6
CONTINUOUS
 10
-0.509327
 20
0.458665
  0
VERTEX
  8
PLAN_1
  6
CONTINUOUS
 10
-1.212630
 20
0.458665
  0
SEQEND
  8
0
  0
POLYLINE
  8
PLAN_1
  6
CONTINUOUS
 66
     1
 40
0.007004
 41
0.007004
  0
VERTEX
  8
PLAN_1
  6
CONTINUOUS
 10
-1.165461
 20
0.455862
  0
VERTEX
  8
PLAN_1
  6
CONTINUOUS
 10
-1.115028
 20
0.258791
  0
SEQEND
  8
0
  0
POLYLINE
  8
PLAN_1
  6
CONTINUOUS
 66
     1
 40
0.007004
 41
0.007004
  0
VERTEX
  8
PLAN_1
  6
CONTINUOUS
 10
-1.131839
 20
0.455862
  0
VERTEX
  8
PLAN_1
  6
CONTINUOUS
 10
-1.081402
 20
0.258791
  0
SEQEND
  8
0
  0
POLYLINE
  8
PLAN_1
  6
CONTINUOUS
 66
     1
 40
0.007004
 41
0.007004
  0
VERTEX
  8
PLAN_1
  6
CONTINUOUS
 10
-0.574709
 20
0.457732
  0
VERTEX
  8
PLAN_1
  6
CONTINUOUS
 10
-0.625610
 20
0.260657
  0
SEQEND
  8
0
  0
POLYLINE
  8
PLAN_1
  6
CONTINUOUS
 66
     1
 40
0.007004
 41
0.007004
  0
VERTEX
  8
PLAN_1
  6
CONTINUOUS
 10
-0.608799
 20
0.457732
  0
VERTEX
  8
PLAN_1
  6
CONTINUOUS
 10
-0.659236
 20
0.260657
  0
SEQEND
  8
0
  0
POLYLINE
  8
PLAN_1
  6
CONTINUOUS
 66
     1
 40
0.008406
 41
0.008406
  0
VERTEX
  8
PLAN_1
  6
CONTINUOUS
 10
-1.306496
 20
1.359508
  0
VERTEX
  8
PLAN_1
  6
CONTINUOUS
 10
-1.391957
 20
1.359508
  0
VERTEX
  8
PLAN_1
  6
CONTINUOUS
 10
-1.391957
 20
2.167417
  0
VERTEX
  8
PLAN_1
  6
CONTINUOUS
 10
-1.047780
 20
2.550354
  0
VERTEX
  8
PLAN_1
  6
CONTINUOUS
 10
-1.046846
 20
2.550354
  0
VERTEX
  8
PLAN_1
  6
CONTINUOUS
 10
-1.046846
 20
2.975791
  0
VERTEX
  8
PLAN_1
  6
CONTINUOUS
 10
-0.961850
 20
2.975791
  0
VERTEX
  8
PLAN_1
  6
CONTINUOUS
 10
-0.961850
 20
2.550354
  0
VERTEX
  8
PLAN_1
  6
CONTINUOUS
 10
-0.962319
 20
2.550354
  0
VERTEX
  8
PLAN_1
  6
CONTINUOUS
 10
-1.307429
 20
2.167417
  0
VERTEX
  8
PLAN_1
  6
CONTINUOUS
 10
-1.306496
 20
1.359508
  0
SEQEND
  8
0
  0
POLYLINE
  8
PLAN_1
  6
CONTINUOUS
 66
     1
 40
0.008406
 41
0.008406
  0
VERTEX
  8
PLAN_1
  6
CONTINUOUS
 10
-1.349461
 20
1.740110
  0
VERTEX
  8
PLAN_1
  6
CONTINUOUS
 10
-1.349461
 20
1.655118
  0
SEQEND
  8
0
  0
POLYLINE
  8
PLAN_1
  6
CONTINUOUS
 66
     1
 40
0.008406
 41
0.008406
  0
VERTEX
  8
PLAN_1
  6
CONTINUOUS
 10
-1.221969
 20
2.017043
  0
VERTEX
  8
PLAN_1
  6
CONTINUOUS
 10
-1.306965
 20
2.017043
  0
VERTEX
  8
PLAN_1
  6
CONTINUOUS
 10
-1.306965
 20
1.740110
  0
VERTEX
  8
PLAN_1
  6
CONTINUOUS
 10
-1.349461
 20
1.740110
  0
SEQEND
  8
0
  0
POLYLINE
  8
PLAN_1
  6
CONTINUOUS
 66
     1
 40
0.008406
 41
0.008406
  0
VERTEX
  8
PLAN_1
  6
CONTINUOUS
 10
-1.349461
 20
1.655118
  0
VERTEX
  8
PLAN_1
  6
CONTINUOUS
 10
-1.306965
 20
1.655118
  0
VERTEX
  8
PLAN_1
  6
CONTINUOUS
 10
-1.306965
 20
1.378189
  0
VERTEX
  8
PLAN_1
  6
CONTINUOUS
 10
-1.221969
 20
1.378189
  0
SEQEND
  8
0
  0
POLYLINE
  8
PLAN_1
  6
CONTINUOUS
 66
     1
 40
0.008406
 41
0.008406
  0
VERTEX
  8
PLAN_1
  6
CONTINUOUS
 10
-1.349925
 20
1.740110
  0
VERTEX
  8
PLAN_1
  6
CONTINUOUS
 10
-1.391024
 20
1.740110
  0
SEQEND
  8
0
  0
POLYLINE
  8
PLAN_1
  6
CONTINUOUS
 66
     1
 40
0.008406
 41
0.008406
  0
VERTEX
  8
PLAN_1
  6
CONTINUOUS
 10
-1.349925
 20
1.655583
  0
VERTEX
  8
PLAN_1
  6
CONTINUOUS
 10
-1.391024
 20
1.655583
  0
SEQEND
  8
0
  0
POLYLINE
  8
PLAN_1
  6
CONTINUOUS
 66
     1
 40
0.008406
 41
0.008406
  0
VERTEX
  8
PLAN_1
  6
CONTINUOUS
 10
-1.306496
 20
1.740110
  0
VERTEX
  8
PLAN_1
  6
CONTINUOUS
 10
-1.306496
 20
1.655118
  0
SEQEND
  8
0
  0
POLYLINE
  8
PLAN_1
 62
     5
  6
CONTINUOUS
 66
     1
 40
0.003000
 41
0.003000
  0
VERTEX
  8
PLAN_1
 62
     5
  6
CONTINUOUS
 10
-1.306496
 20
2.167417
  0
VERTEX
  8
PLAN_1
 62
     5
  6
CONTINUOUS
 10
-1.305563
 20
2.167417
  0
VERTEX
  8
PLAN_1
 62
     5
  6
CONTINUOUS
 10
-1.310232
 20
2.173020
  0
SEQEND
  8
0
  0
POLYLINE
  8
PLAN_1
 62
     5
  6
CONTINUOUS
 66
     1
 40
0.003000
 41
0.003000
  0
VERTEX
  8
PLAN_1
 62
     5
  6
CONTINUOUS
 10
-1.315835
 20
2.179091
  0
VERTEX
  8
PLAN_1
 62
     5
  6
CONTINUOUS
 10
-1.321441
 20
2.185161
  0
SEQEND
  8
0
  0
POLYLINE
  8
PLAN_1
 62
     5
  6
CONTINUOUS
 66
     1
 40
0.003000
 41
0.003000
  0
VERTEX
  8
PLAN_1
 62
     5
  6
CONTINUOUS
 10
-1.327043
 20
2.191701
  0
VERTEX
  8
PLAN_1
 62
     5
  6
CONTINUOUS
 10
-1.332650
 20
2.197772
  0
SEQEND
  8
0
  0
POLYLINE
  8
PLAN_1
 62
     5
  6
CONTINUOUS
 66
     1
 40
0.003000
 41
0.003000
  0
VERTEX
  8
PLAN_1
 62
     5
  6
CONTINUOUS
 10
-1.338252
 20
2.203843
  0
VERTEX
  8
PLAN_1
 62
     5
  6
CONTINUOUS
 10
-1.343854
 20
2.209913
  0
SEQEND
  8
0
  0
POLYLINE
  8
PLAN_1
 62
     5
  6
CONTINUOUS
 66
     1
 40
0.003000
 41
0.003000
  0
VERTEX
  8
PLAN_1
 62
     5
  6
CONTINUOUS
 10
-1.349461
 20
2.216449
  0
VERTEX
  8
PLAN_1
 62
     5
  6
CONTINUOUS
 10
-1.355063
 20
2.222520
  0
SEQEND
  8
0
  0
POLYLINE
  8
PLAN_1
 62
     5
  6
CONTINUOUS
 66
     1
 40
0.003000
 41
0.003000
  0
VERTEX
  8
PLAN_1
 62
     5
  6
CONTINUOUS
 10
-1.360669
 20
2.228594
  0
VERTEX
  8
PLAN_1
 62
     5
  6
CONTINUOUS
 10
-1.365807
 20
2.234665
  0
SEQEND
  8
0
  0
POLYLINE
  8
PLAN_1
 62
     5
  6
CONTINUOUS
 66
     1
 40
0.003000
 41
0.003000
  0
VERTEX
  8
PLAN_1
 62
     5
  6
CONTINUOUS
 10
-1.371409
 20
2.241201
  0
VERTEX
  8
PLAN_1
 62
     5
  6
CONTINUOUS
 10
-1.377012
 20
2.247272
  0
SEQEND
  8
0
  0
POLYLINE
  8
PLAN_1
 62
     5
  6
CONTINUOUS
 66
     1
 40
0.003000
 41
0.003000
  0
VERTEX
  8
PLAN_1
 62
     5
  6
CONTINUOUS
 10
-1.382618
 20
2.253343
  0
VERTEX
  8
PLAN_1
 62
     5
  6
CONTINUOUS
 10
-1.388220
 20
2.259413
  0
SEQEND
  8
0
  0
POLYLINE
  8
PLAN_1
 62
     5
  6
CONTINUOUS
 66
     1
 40
0.003000
 41
0.003000
  0
VERTEX
  8
PLAN_1
 62
     5
  6
CONTINUOUS
 10
-1.393827
 20
2.265953
  0
VERTEX
  8
PLAN_1
 62
     5
  6
CONTINUOUS
 10
-1.399429
 20
2.272024
  0
SEQEND
  8
0
  0
POLYLINE
  8
PLAN_1
 62
     5
  6
CONTINUOUS
 66
     1
 40
0.003000
 41
0.003000
  0
VERTEX
  8
PLAN_1
 62
     5
  6
CONTINUOUS
 10
-1.405031
 20
2.278094
  0
VERTEX
  8
PLAN_1
 62
     5
  6
CONTINUOUS
 10
-1.410638
 20
2.284165
  0
SEQEND
  8
0
  0
POLYLINE
  8
PLAN_1
 62
     5
  6
CONTINUOUS
 66
     1
 40
0.003000
 41
0.003000
  0
VERTEX
  8
PLAN_1
 62
     5
  6
CONTINUOUS
 10
-1.416240
 20
2.290705
  0
VERTEX
  8
PLAN_1
 62
     5
  6
CONTINUOUS
 10
-1.421846
 20
2.296776
  0
SEQEND
  8
0
  0
POLYLINE
  8
PLAN_1
 62
     5
  6
CONTINUOUS
 66
     1
 40
0.003000
 41
0.003000
  0
VERTEX
  8
PLAN_1
 62
     5
  6
CONTINUOUS
 10
-1.427449
 20
2.302846
  0
VERTEX
  8
PLAN_1
 62
     5
  6
CONTINUOUS
 10
-1.433051
 20
2.308917
  0
SEQEND
  8
0
  0
POLYLINE
  8
PLAN_1
 62
     5
  6
CONTINUOUS
 66
     1
 40
0.003000
 41
0.003000
  0
VERTEX
  8
PLAN_1
 62
     5
  6
CONTINUOUS
 10
-1.438657
 20
2.315453
  0
VERTEX
  8
PLAN_1
 62
     5
  6
CONTINUOUS
 10
-1.444260
 20
2.321524
  0
SEQEND
  8
0
  0
POLYLINE
  8
PLAN_1
 62
     5
  6
CONTINUOUS
 66
     1
 40
0.003000
 41
0.003000
  0
VERTEX
  8
PLAN_1
 62
     5
  6
CONTINUOUS
 10
-1.449398
 20
2.327594
  0
VERTEX
  8
PLAN_1
 62
     5
  6
CONTINUOUS
 10
-1.455004
 20
2.333669
  0
SEQEND
  8
0
  0
POLYLINE
  8
PLAN_1
 62
     5
  6
CONTINUOUS
 66
     1
 40
0.003000
 41
0.003000
  0
VERTEX
  8
PLAN_1
 62
     5
  6
CONTINUOUS
 10
-1.460606
 20
2.340205
  0
VERTEX
  8
PLAN_1
 62
     5
  6
CONTINUOUS
 10
-1.466209
 20
2.346276
  0
SEQEND
  8
0
  0
POLYLINE
  8
PLAN_1
 62
     5
  6
CONTINUOUS
 66
     1
 40
0.003000
 41
0.003000
  0
VERTEX
  8
PLAN_1
 62
     5
  6
CONTINUOUS
 10
-1.471815
 20
2.352346
  0
VERTEX
  8
PLAN_1
 62
     5
  6
CONTINUOUS
 10
-1.477417
 20
2.358417
  0
SEQEND
  8
0
  0
POLYLINE
  8
PLAN_1
 62
     5
  6
CONTINUOUS
 66
     1
 40
0.003000
 41
0.003000
  0
VERTEX
  8
PLAN_1
 62
     5
  6
CONTINUOUS
 10
-1.483024
 20
2.364957
  0
VERTEX
  8
PLAN_1
 62
     5
  6
CONTINUOUS
 10
-1.488626
 20
2.371028
  0
SEQEND
  8
0
  0
POLYLINE
  8
PLAN_1
 62
     5
  6
CONTINUOUS
 66
     1
 40
0.003000
 41
0.003000
  0
VERTEX
  8
PLAN_1
 62
     5
  6
CONTINUOUS
 10
-1.494228
 20
2.377098
  0
VERTEX
  8
PLAN_1
 62
     5
  6
CONTINUOUS
 10
-1.499835
 20
2.383169
  0
SEQEND
  8
0
  0
POLYLINE
  8
PLAN_1
 62
     5
  6
CONTINUOUS
 66
     1
 40
0.003000
 41
0.003000
  0
VERTEX
  8
PLAN_1
 62
     5
  6
CONTINUOUS
 10
-1.505437
 20
2.389709
  0
VERTEX
  8
PLAN_1
 62
     5
  6
CONTINUOUS
 10
-1.511043
 20
2.395780
  0
SEQEND
  8
0
  0
POLYLINE
  8
PLAN_1
 62
     5
  6
CONTINUOUS
 66
     1
 40
0.003000
 41
0.003000
  0
VERTEX
  8
PLAN_1
 62
     5
  6
CONTINUOUS
 10
-1.516646
 20
2.401850
  0
VERTEX
  8
PLAN_1
 62
     5
  6
CONTINUOUS
 10
-1.522248
 20
2.407921
  0
SEQEND
  8
0
  0
POLYLINE
  8
PLAN_1
 62
     5
  6
CONTINUOUS
 66
     1
 40
0.003000
 41
0.003000
  0
VERTEX
  8
PLAN_1
 62
     5
  6
CONTINUOUS
 10
-1.527854
 20
2.414457
  0
VERTEX
  8
PLAN_1
 62
     5
  6
CONTINUOUS
 10
-1.533457
 20
2.420528
  0
SEQEND
  8
0
  0
POLYLINE
  8
PLAN_1
 62
     5
  6
CONTINUOUS
 66
     1
 40
0.003000
 41
0.003000
  0
VERTEX
  8
PLAN_1
 62
     5
  6
CONTINUOUS
 10
-1.538594
 20
2.426598
  0
VERTEX
  8
PLAN_1
 62
     5
  6
CONTINUOUS
 10
-1.544197
 20
2.432673
  0
SEQEND
  8
0
  0
POLYLINE
  8
PLAN_1
 62
     5
  6
CONTINUOUS
 66
     1
 40
0.003000
 41
0.003000
  0
VERTEX
  8
PLAN_1
 62
     5
  6
CONTINUOUS
 10
-1.549803
 20
2.439209
  0
VERTEX
  8
PLAN_1
 62
     5
  6
CONTINUOUS
 10
-1.555406
 20
2.445280
  0
SEQEND
  8
0
  0
POLYLINE
  8
PLAN_1
 62
     5
  6
CONTINUOUS
 66
     1
 40
0.003000
 41
0.003000
  0
VERTEX
  8
PLAN_1
 62
     5
  6
CONTINUOUS
 10
-1.561012
 20
2.451350
  0
VERTEX
  8
PLAN_1
 62
     5
  6
CONTINUOUS
 10
-1.566614
 20
2.457421
  0
SEQEND
  8
0
  0
POLYLINE
  8
PLAN_1
 62
     5
  6
CONTINUOUS
 66
     1
 40
0.003000
 41
0.003000
  0
VERTEX
  8
PLAN_1
 62
     5
  6
CONTINUOUS
 10
-1.572220
 20
2.463961
  0
VERTEX
  8
PLAN_1
 62
     5
  6
CONTINUOUS
 10
-1.577823
 20
2.470031
  0
SEQEND
  8
0
  0
POLYLINE
  8
PLAN_1
 62
     5
  6
CONTINUOUS
 66
     1
 40
0.003000
 41
0.003000
  0
VERTEX
  8
PLAN_1
 62
     5
  6
CONTINUOUS
 10
-1.583425
 20
2.476102
  0
VERTEX
  8
PLAN_1
 62
     5
  6
CONTINUOUS
 10
-1.589031
 20
2.482173
  0
SEQEND
  8
0
  0
POLYLINE
  8
PLAN_1
 62
     5
  6
CONTINUOUS
 66
     1
 40
0.003000
 41
0.003000
  0
VERTEX
  8
PLAN_1
 62
     5
  6
CONTINUOUS
 10
-1.594634
 20
2.488713
  0
VERTEX
  8
PLAN_1
 62
     5
  6
CONTINUOUS
 10
-1.600240
 20
2.494783
  0
SEQEND
  8
0
  0
POLYLINE
  8
PLAN_1
 62
     5
  6
CONTINUOUS
 66
     1
 40
0.003000
 41
0.003000
  0
VERTEX
  8
PLAN_1
 62
     5
  6
CONTINUOUS
 10
-1.605843
 20
2.500854
  0
VERTEX
  8
PLAN_1
 62
     5
  6
CONTINUOUS
 10
-1.611445
 20
2.506925
  0
SEQEND
  8
0
  0
POLYLINE
  8
PLAN_1
 62
     5
  6
CONTINUOUS
 66
     1
 40
0.003000
 41
0.003000
  0
VERTEX
  8
PLAN_1
 62
     5
  6
CONTINUOUS
 10
-1.617051
 20
2.513461
  0
VERTEX
  8
PLAN_1
 62
     5
  6
CONTINUOUS
 10
-1.622654
 20
2.519531
  0
SEQEND
  8
0
  0
POLYLINE
  8
PLAN_1
 62
     5
  6
CONTINUOUS
 66
     1
 40
0.003000
 41
0.003000
  0
VERTEX
  8
PLAN_1
 62
     5
  6
CONTINUOUS
 10
-1.628260
 20
2.525602
  0
VERTEX
  8
PLAN_1
 62
     5
  6
CONTINUOUS
 10
-1.633862
 20
2.531673
  0
SEQEND
  8
0
  0
POLYLINE
  8
PLAN_1
 62
     5
  6
CONTINUOUS
 66
     1
 40
0.003000
 41
0.003000
  0
VERTEX
  8
PLAN_1
 62
     5
  6
CONTINUOUS
 10
-1.639000
 20
2.538213
  0
VERTEX
  8
PLAN_1
 62
     5
  6
CONTINUOUS
 10
-1.644602
 20
2.544283
  0
SEQEND
  8
0
  0
POLYLINE
  8
PLAN_1
 62
     5
  6
CONTINUOUS
 66
     1
 40
0.003000
 41
0.003000
  0
VERTEX
  8
PLAN_1
 62
     5
  6
CONTINUOUS
 10
-1.650673
 20
2.550354
  0
VERTEX
  8
PLAN_1
 62
     5
  6
CONTINUOUS
 10
-1.651142
 20
2.550354
  0
VERTEX
  8
PLAN_1
 62
     5
  6
CONTINUOUS
 10
-1.651142
 20
2.558295
  0
SEQEND
  8
0
  0
POLYLINE
  8
PLAN_1
 62
     5
  6
CONTINUOUS
 66
     1
 40
0.003000
 41
0.003000
  0
VERTEX
  8
PLAN_1
 62
     5
  6
CONTINUOUS
 10
-1.651142
 20
2.566232
  0
VERTEX
  8
PLAN_1
 62
     5
  6
CONTINUOUS
 10
-1.651142
 20
2.574638
  0
SEQEND
  8
0
  0
POLYLINE
  8
PLAN_1
 62
     5
  6
CONTINUOUS
 66
     1
 40
0.003000
 41
0.003000
  0
VERTEX
  8
PLAN_1
 62
     5
  6
CONTINUOUS
 10
-1.651142
 20
2.583043
  0
VERTEX
  8
PLAN_1
 62
     5
  6
CONTINUOUS
 10
-1.651142
 20
2.591453
  0
SEQEND
  8
0
  0
POLYLINE
  8
PLAN_1
 62
     5
  6
CONTINUOUS
 66
     1
 40
0.003000
 41
0.003000
  0
VERTEX
  8
PLAN_1
 62
     5
  6
CONTINUOUS
 10
-1.651142
 20
2.599858
  0
VERTEX
  8
PLAN_1
 62
     5
  6
CONTINUOUS
 10
-1.651142
 20
2.608264
  0
SEQEND
  8
0
  0
POLYLINE
  8
PLAN_1
 62
     5
  6
CONTINUOUS
 66
     1
 40
0.003000
 41
0.003000
  0
VERTEX
  8
PLAN_1
 62
     5
  6
CONTINUOUS
 10
-1.651142
 20
2.616201
  0
VERTEX
  8
PLAN_1
 62
     5
  6
CONTINUOUS
 10
-1.651142
 20
2.624606
  0
SEQEND
  8
0
  0
POLYLINE
  8
PLAN_1
 62
     5
  6
CONTINUOUS
 66
     1
 40
0.003000
 41
0.003000
  0
VERTEX
  8
PLAN_1
 62
     5
  6
CONTINUOUS
 10
-1.651142
 20
2.633016
  0
VERTEX
  8
PLAN_1
 62
     5
  6
CONTINUOUS
 10
-1.651142
 20
2.641421
  0
SEQEND
  8
0
  0
POLYLINE
  8
PLAN_1
 62
     5
  6
CONTINUOUS
 66
     1
 40
0.003000
 41
0.003000
  0
VERTEX
  8
PLAN_1
 62
     5
  6
CONTINUOUS
 10
-1.651142
 20
2.649827
  0
VERTEX
  8
PLAN_1
 62
     5
  6
CONTINUOUS
 10
-1.651142
 20
2.658232
  0
SEQEND
  8
0
  0
POLYLINE
  8
PLAN_1
 62
     5
  6
CONTINUOUS
 66
     1
 40
0.003000
 41
0.003000
  0
VERTEX
  8
PLAN_1
 62
     5
  6
CONTINUOUS
 10
-1.651142
 20
2.666169
  0
VERTEX
  8
PLAN_1
 62
     5
  6
CONTINUOUS
 10
-1.651142
 20
2.674579
  0
SEQEND
  8
0
  0
POLYLINE
  8
PLAN_1
 62
     5
  6
CONTINUOUS
 66
     1
 40
0.003000
 41
0.003000
  0
VERTEX
  8
PLAN_1
 62
     5
  6
CONTINUOUS
 10
-1.651142
 20
2.682984
  0
VERTEX
  8
PLAN_1
 62
     5
  6
CONTINUOUS
 10
-1.651142
 20
2.691390
  0
SEQEND
  8
0
  0
POLYLINE
  8
PLAN_1
 62
     5
  6
CONTINUOUS
 66
     1
 40
0.003000
 41
0.003000
  0
VERTEX
  8
PLAN_1
 62
     5
  6
CONTINUOUS
 10
-1.651142
 20
2.699795
  0
VERTEX
  8
PLAN_1
 62
     5
  6
CONTINUOUS
 10
-1.651142
 20
2.708201
  0
SEQEND
  8
0
  0
POLYLINE
  8
PLAN_1
 62
     5
  6
CONTINUOUS
 66
     1
 40
0.003000
 41
0.003000
  0
VERTEX
  8
PLAN_1
 62
     5
  6
CONTINUOUS
 10
-1.651142
 20
2.716142
  0
VERTEX
  8
PLAN_1
 62
     5
  6
CONTINUOUS
 10
-1.651142
 20
2.724547
  0
SEQEND
  8
0
  0
POLYLINE
  8
PLAN_1
 62
     5
  6
CONTINUOUS
 66
     1
 40
0.003000
 41
0.003000
  0
VERTEX
  8
PLAN_1
 62
     5
  6
CONTINUOUS
 10
-1.651142
 20
2.732953
  0
VERTEX
  8
PLAN_1
 62
     5
  6
CONTINUOUS
 10
-1.651142
 20
2.741358
  0
SEQEND
  8
0
  0
POLYLINE
  8
PLAN_1
 62
     5
  6
CONTINUOUS
 66
     1
 40
0.003000
 41
0.003000
  0
VERTEX
  8
PLAN_1
 62
     5
  6
CONTINUOUS
 10
-1.651142
 20
2.749764
  0
VERTEX
  8
PLAN_1
 62
     5
  6
CONTINUOUS
 10
-1.651142
 20
2.758169
  0
SEQEND
  8
0
  0
POLYLINE
  8
PLAN_1
 62
     5
  6
CONTINUOUS
 66
     1
 40
0.003000
 41
0.003000
  0
VERTEX
  8
PLAN_1
 62
     5
  6
CONTINUOUS
 10
-1.651142
 20
2.766110
  0
VERTEX
  8
PLAN_1
 62
     5
  6
CONTINUOUS
 10
-1.651142
 20
2.774516
  0
SEQEND
  8
0
  0
POLYLINE
  8
PLAN_1
 62
     5
  6
CONTINUOUS
 66
     1
 40
0.003000
 41
0.003000
  0
VERTEX
  8
PLAN_1
 62
     5
  6
CONTINUOUS
 10
-1.651142
 20
2.782921
  0
VERTEX
  8
PLAN_1
 62
     5
  6
CONTINUOUS
 10
-1.651142
 20
2.791327
  0
SEQEND
  8
0
  0
POLYLINE
  8
PLAN_1
 62
     5
  6
CONTINUOUS
 66
     1
 40
0.003000
 41
0.003000
  0
VERTEX
  8
PLAN_1
 62
     5
  6
CONTINUOUS
 10
-1.651142
 20
2.799732
  0
VERTEX
  8
PLAN_1
 62
     5
  6
CONTINUOUS
 10
-1.651142
 20
2.808138
  0
SEQEND
  8
0
  0
POLYLINE
  8
PLAN_1
 62
     5
  6
CONTINUOUS
 66
     1
 40
0.003000
 41
0.003000
  0
VERTEX
  8
PLAN_1
 62
     5
  6
CONTINUOUS
 10
-1.651142
 20
2.816543
  0
VERTEX
  8
PLAN_1
 62
     5
  6
CONTINUOUS
 10
-1.651142
 20
2.824484
  0
SEQEND
  8
0
  0
POLYLINE
  8
PLAN_1
 62
     5
  6
CONTINUOUS
 66
     1
 40
0.003000
 41
0.003000
  0
VERTEX
  8
PLAN_1
 62
     5
  6
CONTINUOUS
 10
-1.651142
 20
2.832890
  0
VERTEX
  8
PLAN_1
 62
     5
  6
CONTINUOUS
 10
-1.651142
 20
2.841295
  0
SEQEND
  8
0
  0
POLYLINE
  8
PLAN_1
 62
     5
  6
CONTINUOUS
 66
     1
 40
0.003000
 41
0.003000
  0
VERTEX
  8
PLAN_1
 62
     5
  6
CONTINUOUS
 10
-1.651142
 20
2.849701
  0
VERTEX
  8
PLAN_1
 62
     5
  6
CONTINUOUS
 10
-1.651142
 20
2.858106
  0
SEQEND
  8
0
  0
POLYLINE
  8
PLAN_1
 62
     5
  6
CONTINUOUS
 66
     1
 40
0.003000
 41
0.003000
  0
VERTEX
  8
PLAN_1
 62
     5
  6
CONTINUOUS
 10
-1.651142
 20
2.866512
  0
VERTEX
  8
PLAN_1
 62
     5
  6
CONTINUOUS
 10
-1.651142
 20
2.874453
  0
SEQEND
  8
0
  0
POLYLINE
  8
PLAN_1
 62
     5
  6
CONTINUOUS
 66
     1
 40
0.003000
 41
0.003000
  0
VERTEX
  8
PLAN_1
 62
     5
  6
CONTINUOUS
 10
-1.651142
 20
2.882858
  0
VERTEX
  8
PLAN_1
 62
     5
  6
CONTINUOUS
 10
-1.651142
 20
2.891264
  0
SEQEND
  8
0
  0
POLYLINE
  8
PLAN_1
 62
     5
  6
CONTINUOUS
 66
     1
 40
0.003000
 41
0.003000
  0
VERTEX
  8
PLAN_1
 62
     5
  6
CONTINUOUS
 10
-1.651142
 20
2.899669
  0
VERTEX
  8
PLAN_1
 62
     5
  6
CONTINUOUS
 10
-1.651142
 20
2.908075
  0
SEQEND
  8
0
  0
POLYLINE
  8
PLAN_1
 62
     5
  6
CONTINUOUS
 66
     1
 40
0.003000
 41
0.003000
  0
VERTEX
  8
PLAN_1
 62
     5
  6
CONTINUOUS
 10
-1.651142
 20
2.916484
  0
VERTEX
  8
PLAN_1
 62
     5
  6
CONTINUOUS
 10
-1.651142
 20
2.924421
  0
SEQEND
  8
0
  0
POLYLINE
  8
PLAN_1
 62
     5
  6
CONTINUOUS
 66
     1
 40
0.003000
 41
0.003000
  0
VERTEX
  8
PLAN_1
 62
     5
  6
CONTINUOUS
 10
-1.651142
 20
2.932827
  0
VERTEX
  8
PLAN_1
 62
     5
  6
CONTINUOUS
 10
-1.651142
 20
2.941232
  0
SEQEND
  8
0
  0
POLYLINE
  8
PLAN_1
 62
     5
  6
CONTINUOUS
 66
     1
 40
0.003000
 41
0.003000
  0
VERTEX
  8
PLAN_1
 62
     5
  6
CONTINUOUS
 10
-1.651142
 20
2.949638
  0
VERTEX
  8
PLAN_1
 62
     5
  6
CONTINUOUS
 10
-1.651142
 20
2.958047
  0
SEQEND
  8
0
  0
POLYLINE
  8
PLAN_1
 62
     5
  6
CONTINUOUS
 66
     1
 40
0.003000
 41
0.003000
  0
VERTEX
  8
PLAN_1
 62
     5
  6
CONTINUOUS
 10
-1.651142
 20
2.966453
  0
VERTEX
  8
PLAN_1
 62
     5
  6
CONTINUOUS
 10
-1.651142
 20
2.974390
  0
SEQEND
  8
0
  0
POLYLINE
  8
PLAN_1
 62
     5
  6
CONTINUOUS
 66
     1
 40
0.003000
 41
0.003000
  0
VERTEX
  8
PLAN_1
 62
     5
  6
CONTINUOUS
 10
-1.658146
 20
2.975791
  0
VERTEX
  8
PLAN_1
 62
     5
  6
CONTINUOUS
 10
-1.666087
 20
2.975791
  0
SEQEND
  8
0
  0
POLYLINE
  8
PLAN_1
 62
     5
  6
CONTINUOUS
 66
     1
 40
0.003000
 41
0.003000
  0
VERTEX
  8
PLAN_1
 62
     5
  6
CONTINUOUS
 10
-1.674492
 20
2.975791
  0
VERTEX
  8
PLAN_1
 62
     5
  6
CONTINUOUS
 10
-1.682898
 20
2.975791
  0
SEQEND
  8
0
  0
POLYLINE
  8
PLAN_1
 62
     5
  6
CONTINUOUS
 66
     1
 40
0.003000
 41
0.003000
  0
VERTEX
  8
PLAN_1
 62
     5
  6
CONTINUOUS
 10
-1.691303
 20
2.975791
  0
VERTEX
  8
PLAN_1
 62
     5
  6
CONTINUOUS
 10
-1.699709
 20
2.975791
  0
SEQEND
  8
0
  0
POLYLINE
  8
PLAN_1
 62
     5
  6
CONTINUOUS
 66
     1
 40
0.003000
 41
0.003000
  0
VERTEX
  8
PLAN_1
 62
     5
  6
CONTINUOUS
 10
-1.708114
 20
2.975791
  0
VERTEX
  8
PLAN_1
 62
     5
  6
CONTINUOUS
 10
-1.716055
 20
2.975791
  0
SEQEND
  8
0
  0
POLYLINE
  8
PLAN_1
 62
     5
  6
CONTINUOUS
 66
     1
 40
0.003000
 41
0.003000
  0
VERTEX
  8
PLAN_1
 62
     5
  6
CONTINUOUS
 10
-1.724461
 20
2.975791
  0
VERTEX
  8
PLAN_1
 62
     5
  6
CONTINUOUS
 10
-1.732866
 20
2.975791
  0
SEQEND
  8
0
  0
POLYLINE
  8
PLAN_1
 62
     5
  6
CONTINUOUS
 66
     1
 40
0.003000
 41
0.003000
  0
VERTEX
  8
PLAN_1
 62
     5
  6
CONTINUOUS
 10
-1.736134
 20
2.550354
  0
VERTEX
  8
PLAN_1
 62
     5
  6
CONTINUOUS
 10
-1.735201
 20
2.550354
  0
VERTEX
  8
PLAN_1
 62
     5
  6
CONTINUOUS
 10
-1.730531
 20
2.544752
  0
SEQEND
  8
0
  0
POLYLINE
  8
PLAN_1
 62
     5
  6
CONTINUOUS
 66
     1
 40
0.003000
 41
0.003000
  0
VERTEX
  8
PLAN_1
 62
     5
  6
CONTINUOUS
 10
-1.724929
 20
2.538213
  0
VERTEX
  8
PLAN_1
 62
     5
  6
CONTINUOUS
 10
-1.719323
 20
2.532142
  0
SEQEND
  8
0
  0
POLYLINE
  8
PLAN_1
 62
     5
  6
CONTINUOUS
 66
     1
 40
0.003000
 41
0.003000
  0
VERTEX
  8
PLAN_1
 62
     5
  6
CONTINUOUS
 10
-1.713720
 20
2.526071
  0
VERTEX
  8
PLAN_1
 62
     5
  6
CONTINUOUS
 10
-1.708114
 20
2.520000
  0
SEQEND
  8
0
  0
POLYLINE
  8
PLAN_1
 62
     5
  6
CONTINUOUS
 66
     1
 40
0.003000
 41
0.003000
  0
VERTEX
  8
PLAN_1
 62
     5
  6
CONTINUOUS
 10
-1.702512
 20
2.513461
  0
VERTEX
  8
PLAN_1
 62
     5
  6
CONTINUOUS
 10
-1.696909
 20
2.507390
  0
SEQEND
  8
0
  0
POLYLINE
  8
PLAN_1
 62
     5
  6
CONTINUOUS
 66
     1
 40
0.003000
 41
0.003000
  0
VERTEX
  8
PLAN_1
 62
     5
  6
CONTINUOUS
 10
-1.691303
 20
2.501319
  0
VERTEX
  8
PLAN_1
 62
     5
  6
CONTINUOUS
 10
-1.685701
 20
2.495248
  0
SEQEND
  8
0
  0
POLYLINE
  8
PLAN_1
 62
     5
  6
CONTINUOUS
 66
     1
 40
0.003000
 41
0.003000
  0
VERTEX
  8
PLAN_1
 62
     5
  6
CONTINUOUS
 10
-1.680094
 20
2.488713
  0
VERTEX
  8
PLAN_1
 62
     5
  6
CONTINUOUS
 10
-1.674492
 20
2.482642
  0
SEQEND
  8
0
  0
POLYLINE
  8
PLAN_1
 62
     5
  6
CONTINUOUS
 66
     1
 40
0.003000
 41
0.003000
  0
VERTEX
  8
PLAN_1
 62
     5
  6
CONTINUOUS
 10
-1.668886
 20
2.476571
  0
VERTEX
  8
PLAN_1
 62
     5
  6
CONTINUOUS
 10
-1.663283
 20
2.470500
  0
SEQEND
  8
0
  0
POLYLINE
  8
PLAN_1
 62
     5
  6
CONTINUOUS
 66
     1
 40
0.003000
 41
0.003000
  0
VERTEX
  8
PLAN_1
 62
     5
  6
CONTINUOUS
 10
-1.657681
 20
2.463961
  0
VERTEX
  8
PLAN_1
 62
     5
  6
CONTINUOUS
 10
-1.652075
 20
2.457890
  0
SEQEND
  8
0
  0
POLYLINE
  8
PLAN_1
 62
     5
  6
CONTINUOUS
 66
     1
 40
0.003000
 41
0.003000
  0
VERTEX
  8
PLAN_1
 62
     5
  6
CONTINUOUS
 10
-1.646937
 20
2.451819
  0
VERTEX
  8
PLAN_1
 62
     5
  6
CONTINUOUS
 10
-1.641335
 20
2.445748
  0
SEQEND
  8
0
  0
POLYLINE
  8
PLAN_1
 62
     5
  6
CONTINUOUS
 66
     1
 40
0.003000
 41
0.003000
  0
VERTEX
  8
PLAN_1
 62
     5
  6
CONTINUOUS
 10
-1.635732
 20
2.439209
  0
VERTEX
  8
PLAN_1
 62
     5
  6
CONTINUOUS
 10
-1.630126
 20
2.433138
  0
SEQEND
  8
0
  0
POLYLINE
  8
PLAN_1
 62
     5
  6
CONTINUOUS
 66
     1
 40
0.003000
 41
0.003000
  0
VERTEX
  8
PLAN_1
 62
     5
  6
CONTINUOUS
 10
-1.624524
 20
2.427067
  0
VERTEX
  8
PLAN_1
 62
     5
  6
CONTINUOUS
 10
-1.618917
 20
2.420996
  0
SEQEND
  8
0
  0
POLYLINE
  8
PLAN_1
 62
     5
  6
CONTINUOUS
 66
     1
 40
0.003000
 41
0.003000
  0
VERTEX
  8
PLAN_1
 62
     5
  6
CONTINUOUS
 10
-1.613315
 20
2.414457
  0
VERTEX
  8
PLAN_1
 62
     5
  6
CONTINUOUS
 10
-1.607713
 20
2.408386
  0
SEQEND
  8
0
  0
POLYLINE
  8
PLAN_1
 62
     5
  6
CONTINUOUS
 66
     1
 40
0.003000
 41
0.003000
  0
VERTEX
  8
PLAN_1
 62
     5
  6
CONTINUOUS
 10
-1.602106
 20
2.402315
  0
VERTEX
  8
PLAN_1
 62
     5
  6
CONTINUOUS
 10
-1.596504
 20
2.396244
  0
SEQEND
  8
0
  0
POLYLINE
  8
PLAN_1
 62
     5
  6
CONTINUOUS
 66
     1
 40
0.003000
 41
0.003000
  0
VERTEX
  8
PLAN_1
 62
     5
  6
CONTINUOUS
 10
-1.590898
 20
2.389709
  0
VERTEX
  8
PLAN_1
 62
     5
  6
CONTINUOUS
 10
-1.585295
 20
2.383638
  0
SEQEND
  8
0
  0
POLYLINE
  8
PLAN_1
 62
     5
  6
CONTINUOUS
 66
     1
 40
0.003000
 41
0.003000
  0
VERTEX
  8
PLAN_1
 62
     5
  6
CONTINUOUS
 10
-1.579689
 20
2.377567
  0
VERTEX
  8
PLAN_1
 62
     5
  6
CONTINUOUS
 10
-1.574087
 20
2.371496
  0
SEQEND
  8
0
  0
POLYLINE
  8
PLAN_1
 62
     5
  6
CONTINUOUS
 66
     1
 40
0.003000
 41
0.003000
  0
VERTEX
  8
PLAN_1
 62
     5
  6
CONTINUOUS
 10
-1.568484
 20
2.364957
  0
VERTEX
  8
PLAN_1
 62
     5
  6
CONTINUOUS
 10
-1.562878
 20
2.358886
  0
SEQEND
  8
0
  0
POLYLINE
  8
PLAN_1
 62
     5
  6
CONTINUOUS
 66
     1
 40
0.003000
 41
0.003000
  0
VERTEX
  8
PLAN_1
 62
     5
  6
CONTINUOUS
 10
-1.557740
 20
2.352815
  0
VERTEX
  8
PLAN_1
 62
     5
  6
CONTINUOUS
 10
-1.552138
 20
2.346744
  0
SEQEND
  8
0
  0
POLYLINE
  8
PLAN_1
 62
     5
  6
CONTINUOUS
 66
     1
 40
0.003000
 41
0.003000
  0
VERTEX
  8
PLAN_1
 62
     5
  6
CONTINUOUS
 10
-1.546535
 20
2.340205
  0
VERTEX
  8
PLAN_1
 62
     5
  6
CONTINUOUS
 10
-1.540929
 20
2.334134
  0
SEQEND
  8
0
  0
POLYLINE
  8
PLAN_1
 62
     5
  6
CONTINUOUS
 66
     1
 40
0.003000
 41
0.003000
  0
VERTEX
  8
PLAN_1
 62
     5
  6
CONTINUOUS
 10
-1.535327
 20
2.328063
  0
VERTEX
  8
PLAN_1
 62
     5
  6
CONTINUOUS
 10
-1.529720
 20
2.321992
  0
SEQEND
  8
0
  0
POLYLINE
  8
PLAN_1
 62
     5
  6
CONTINUOUS
 66
     1
 40
0.003000
 41
0.003000
  0
VERTEX
  8
PLAN_1
 62
     5
  6
CONTINUOUS
 10
-1.524118
 20
2.315453
  0
VERTEX
  8
PLAN_1
 62
     5
  6
CONTINUOUS
 10
-1.518516
 20
2.309382
  0
SEQEND
  8
0
  0
POLYLINE
  8
PLAN_1
 62
     5
  6
CONTINUOUS
 66
     1
 40
0.003000
 41
0.003000
  0
VERTEX
  8
PLAN_1
 62
     5
  6
CONTINUOUS
 10
-1.512909
 20
2.303311
  0
VERTEX
  8
PLAN_1
 62
     5
  6
CONTINUOUS
 10
-1.507307
 20
2.297240
  0
SEQEND
  8
0
  0
POLYLINE
  8
PLAN_1
 62
     5
  6
CONTINUOUS
 66
     1
 40
0.003000
 41
0.003000
  0
VERTEX
  8
PLAN_1
 62
     5
  6
CONTINUOUS
 10
-1.501701
 20
2.290705
  0
VERTEX
  8
PLAN_1
 62
     5
  6
CONTINUOUS
 10
-1.496098
 20
2.284634
  0
SEQEND
  8
0
  0
POLYLINE
  8
PLAN_1
 62
     5
  6
CONTINUOUS
 66
     1
 40
0.003000
 41
0.003000
  0
VERTEX
  8
PLAN_1
 62
     5
  6
CONTINUOUS
 10
-1.490492
 20
2.278563
  0
VERTEX
  8
PLAN_1
 62
     5
  6
CONTINUOUS
 10
-1.484890
 20
2.272492
  0
SEQEND
  8
0
  0
POLYLINE
  8
PLAN_1
 62
     5
  6
CONTINUOUS
 66
     1
 40
0.003000
 41
0.003000
  0
VERTEX
  8
PLAN_1
 62
     5
  6
CONTINUOUS
 10
-1.479287
 20
2.265953
  0
VERTEX
  8
PLAN_1
 62
     5
  6
CONTINUOUS
 10
-1.473681
 20
2.259882
  0
SEQEND
  8
0
  0
POLYLINE
  8
PLAN_1
 62
     5
  6
CONTINUOUS
 66
     1
 40
0.003000
 41
0.003000
  0
VERTEX
  8
PLAN_1
 62
     5
  6
CONTINUOUS
 10
-1.468543
 20
2.253811
  0
VERTEX
  8
PLAN_1
 62
     5
  6
CONTINUOUS
 10
-1.462941
 20
2.247740
  0
SEQEND
  8
0
  0
POLYLINE
  8
PLAN_1
 62
     5
  6
CONTINUOUS
 66
     1
 40
0.003000
 41
0.003000
  0
VERTEX
  8
PLAN_1
 62
     5
  6
CONTINUOUS
 10
-1.457339
 20
2.241201
  0
VERTEX
  8
PLAN_1
 62
     5
  6
CONTINUOUS
 10
-1.451732
 20
2.235130
  0
SEQEND
  8
0
  0
POLYLINE
  8
PLAN_1
 62
     5
  6
CONTINUOUS
 66
     1
 40
0.003000
 41
0.003000
  0
VERTEX
  8
PLAN_1
 62
     5
  6
CONTINUOUS
 10
-1.446130
 20
2.229059
  0
VERTEX
  8
PLAN_1
 62
     5
  6
CONTINUOUS
 10
-1.440524
 20
2.222988
  0
SEQEND
  8
0
  0
POLYLINE
  8
PLAN_1
 62
     5
  6
CONTINUOUS
 66
     1
 40
0.003000
 41
0.003000
  0
VERTEX
  8
PLAN_1
 62
     5
  6
CONTINUOUS
 10
-1.434921
 20
2.216449
  0
VERTEX
  8
PLAN_1
 62
     5
  6
CONTINUOUS
 10
-1.429319
 20
2.210378
  0
SEQEND
  8
0
  0
POLYLINE
  8
PLAN_1
 62
     5
  6
CONTINUOUS
 66
     1
 40
0.003000
 41
0.003000
  0
VERTEX
  8
PLAN_1
 62
     5
  6
CONTINUOUS
 10
-1.423713
 20
2.204307
  0
VERTEX
  8
PLAN_1
 62
     5
  6
CONTINUOUS
 10
-1.418110
 20
2.198236
  0
SEQEND
  8
0
  0
POLYLINE
  8
PLAN_1
 62
     5
  6
CONTINUOUS
 66
     1
 40
0.003000
 41
0.003000
  0
VERTEX
  8
PLAN_1
 62
     5
  6
CONTINUOUS
 10
-1.412504
 20
2.191701
  0
VERTEX
  8
PLAN_1
 62
     5
  6
CONTINUOUS
 10
-1.406902
 20
2.185630
  0
SEQEND
  8
0
  0
POLYLINE
  8
PLAN_1
 62
     5
  6
CONTINUOUS
 66
     1
 40
0.003000
 41
0.003000
  0
VERTEX
  8
PLAN_1
 62
     5
  6
CONTINUOUS
 10
-1.401295
 20
2.179559
  0
VERTEX
  8
PLAN_1
 62
     5
  6
CONTINUOUS
 10
-1.395693
 20
2.173488
  0
SEQEND
  8
0
  0
POLYLINE
  8
PLAN_1
  6
CONTINUOUS
 66
     1
 40
0.007004
 41
0.007004
  0
VERTEX
  8
PLAN_1
  6
CONTINUOUS
 10
-1.306496
 20
2.167417
  0
VERTEX
  8
PLAN_1
  6
CONTINUOUS
 10
-1.391488
 20
2.167417
  0
SEQEND
  8
0
  0
POLYLINE
  8
PLAN_1
  6
CONTINUOUS
 66
     1
 40
0.008406
 41
0.008406
  0
VERTEX
  8
PLAN_1
  6
CONTINUOUS
 10
-1.306496
 20
0.498827
  0
VERTEX
  8
PLAN_1
  6
CONTINUOUS
 10
-0.421067
 20
0.498827
  0
SEQEND
  8
0
  0
POLYLINE
  8
PLAN_1
 62
     2
  6
CONTINUOUS
 66
     1
 40
0.004201
 41
0.004201
  0
VERTEX
  8
PLAN_1
 62
     2
  6
CONTINUOUS
 10
-1.595567
 20
-0.039154
  0
VERTEX
  8
PLAN_1
 62
     2
  6
CONTINUOUS
 10
-0.301047
 20
-0.039154
  0
SEQEND
  8
0
  0
SOLID
  8
PLAN_1
 62
     2
 10
-0.271626
 20
-0.039154
 11
-0.330469
 21
-0.023276
 12
-0.271626
 22
-0.039154
 13
-0.330469
 23
-0.055031
  0
POLYLINE
  8
PLAN_1
 62
     2
  6
CONTINUOUS
 66
     1
 40
0.003000
 41
0.003000
  0
VERTEX
  8
PLAN_1
 62
     2
  6
CONTINUOUS
 10
-0.271626
 20
-0.039154
  0
VERTEX
  8
PLAN_1
 62
     2
  6
CONTINUOUS
 10
-0.330469
 20
-0.023276
  0
VERTEX
  8
PLAN_1
 62
     2
  6
CONTINUOUS
 10
-0.330469
 20
-0.055031
  0
VERTEX
  8
PLAN_1
 62
     2
  6
CONTINUOUS
 10
-0.271626
 20
-0.039154
  0
SEQEND
  8
0
  0
SOLID
  8
PLAN_1
 62
     2
 10
-1.624055
 20
-0.039154
 11
-1.565213
 21
-0.023276
 12
-1.624055
 22
-0.039154
 13
-1.565213
 23
-0.055031
  0
POLYLINE
  8
PLAN_1
 62
     2
  6
CONTINUOUS
 66
     1
 40
0.003000
 41
0.003000
  0
VERTEX
  8
PLAN_1
 62
     2
  6
CONTINUOUS
 10
-1.624055
 20
-0.039154
  0
VERTEX
  8
PLAN_1
 62
     2
  6
CONTINUOUS
 10
-1.565213
 20
-0.023276
  0
VERTEX
  8
PLAN_1
 62
     2
  6
CONTINUOUS
 10
-1.565213
 20
-0.055031
  0
VERTEX
  8
PLAN_1
 62
     2
  6
CONTINUOUS
 10
-1.624055
 20
-0.039154
  0
SEQEND
  8
0
  0
POLYLINE
  8
PLAN_1
 62
     2
  6
CONTINUOUS
 66
     1
 40
0.003000
 41
0.003000
  0
VERTEX
  8
PLAN_1
 62
     2
  6
CONTINUOUS
 10
-0.973992
 20
0.026224
  0
VERTEX
  8
PLAN_1
 62
     2
  6
CONTINUOUS
 10
-0.973528
 20
0.025756
  0
VERTEX
  8
PLAN_1
 62
     2
  6
CONTINUOUS
 10
-0.973059
 20
0.025756
  0
VERTEX
  8
PLAN_1
 62
     2
  6
CONTINUOUS
 10
-0.972591
 20
0.025756
  0
VERTEX
  8
PLAN_1
 62
     2
  6
CONTINUOUS
 10
-0.971657
 20
0.025756
  0
VERTEX
  8
PLAN_1
 62
     2
  6
CONTINUOUS
 10
-0.971189
 20
0.025756
  0
VERTEX
  8
PLAN_1
 62
     2
  6
CONTINUOUS
 10
-0.970724
 20
0.025756
  0
VERTEX
  8
PLAN_1
 62
     2
  6
CONTINUOUS
 10
-0.969791
 20
0.025756
  0
VERTEX
  8
PLAN_1
 62
     2
  6
CONTINUOUS
 10
-0.969323
 20
0.025756
  0
VERTEX
  8
PLAN_1
 62
     2
  6
CONTINUOUS
 10
-0.966988
 20
0.025756
  0
VERTEX
  8
PLAN_1
 62
     2
  6
CONTINUOUS
 10
-0.964185
 20
0.026224
  0
VERTEX
  8
PLAN_1
 62
     2
  6
CONTINUOUS
 10
-0.961850
 20
0.027157
  0
VERTEX
  8
PLAN_1
 62
     2
  6
CONTINUOUS
 10
-0.959984
 20
0.028559
  0
VERTEX
  8
PLAN_1
 62
     2
  6
CONTINUOUS
 10
-0.958114
 20
0.029961
  0
VERTEX
  8
PLAN_1
 62
     2
  6
CONTINUOUS
 10
-0.956713
 20
0.031827
  0
VERTEX
  8
PLAN_1
 62
     2
  6
CONTINUOUS
 10
-0.955780
 20
0.034630
  0
VERTEX
  8
PLAN_1
 62
     2
  6
CONTINUOUS
 10
-0.955311
 20
0.037898
  0
VERTEX
  8
PLAN_1
 62
     2
  6
CONTINUOUS
 10
-0.955780
 20
0.039299
  0
VERTEX
  8
PLAN_1
 62
     2
  6
CONTINUOUS
 10
-0.956248
 20
0.041634
  0
VERTEX
  8
PLAN_1
 62
     2
  6
CONTINUOUS
 10
-0.956713
 20
0.043504
  0
VERTEX
  8
PLAN_1
 62
     2
  6
CONTINUOUS
 10
-0.958114
 20
0.045370
  0
VERTEX
  8
PLAN_1
 62
     2
  6
CONTINUOUS
 10
-0.959984
 20
0.046772
  0
VERTEX
  8
PLAN_1
 62
     2
  6
CONTINUOUS
 10
-0.962319
 20
0.048173
  0
VERTEX
  8
PLAN_1
 62
     2
  6
CONTINUOUS
 10
-0.965118
 20
0.049106
  0
VERTEX
  8
PLAN_1
 62
     2
  6
CONTINUOUS
 10
-0.968854
 20
0.049106
  0
VERTEX
  8
PLAN_1
 62
     2
  6
CONTINUOUS
 10
-0.971189
 20
0.049106
  0
VERTEX
  8
PLAN_1
 62
     2
  6
CONTINUOUS
 10
-0.973528
 20
0.048642
  0
VERTEX
  8
PLAN_1
 62
     2
  6
CONTINUOUS
 10
-0.974925
 20
0.048173
  0
VERTEX
  8
PLAN_1
 62
     2
  6
CONTINUOUS
 10
-0.976795
 20
0.047705
  0
VERTEX
  8
PLAN_1
 62
     2
  6
CONTINUOUS
 10
-0.979130
 20
0.045839
  0
VERTEX
  8
PLAN_1
 62
     2
  6
CONTINUOUS
 10
-0.980996
 20
0.043504
  0
VERTEX
  8
PLAN_1
 62
     2
  6
CONTINUOUS
 10
-0.981933
 20
0.040701
  0
VERTEX
  8
PLAN_1
 62
     2
  6
CONTINUOUS
 10
-0.982866
 20
0.038366
  0
VERTEX
  8
PLAN_1
 62
     2
  6
CONTINUOUS
 10
-0.982866
 20
0.035563
  0
VERTEX
  8
PLAN_1
 62
     2
  6
CONTINUOUS
 10
-0.983335
 20
0.033697
  0
VERTEX
  8
PLAN_1
 62
     2
  6
CONTINUOUS
 10
-0.992205
 20
0.033697
  0
VERTEX
  8
PLAN_1
 62
     2
  6
CONTINUOUS
 10
-0.991740
 20
0.037898
  0
VERTEX
  8
PLAN_1
 62
     2
  6
CONTINUOUS
 10
-0.991272
 20
0.042102
  0
VERTEX
  8
PLAN_1
 62
     2
  6
CONTINUOUS
 10
-0.989870
 20
0.045839
  0
VERTEX
  8
PLAN_1
 62
     2
  6
CONTINUOUS
 10
-0.987535
 20
0.049575
  0
VERTEX
  8
PLAN_1
 62
     2
  6
CONTINUOUS
 10
-0.986134
 20
0.051441
  0
VERTEX
  8
PLAN_1
 62
     2
  6
CONTINUOUS
 10
-0.984268
 20
0.052843
  0
VERTEX
  8
PLAN_1
 62
     2
  6
CONTINUOUS
 10
-0.982398
 20
0.054244
  0
VERTEX
  8
PLAN_1
 62
     2
  6
CONTINUOUS
 10
-0.980531
 20
0.055177
  0
VERTEX
  8
PLAN_1
 62
     2
  6
CONTINUOUS
 10
-0.977728
 20
0.056114
  0
VERTEX
  8
PLAN_1
 62
     2
  6
CONTINUOUS
 10
-0.974925
 20
0.057047
  0
VERTEX
  8
PLAN_1
 62
     2
  6
CONTINUOUS
 10
-0.972126
 20
0.057512
  0
VERTEX
  8
PLAN_1
 62
     2
  6
CONTINUOUS
 10
-0.968390
 20
0.057512
  0
VERTEX
  8
PLAN_1
 62
     2
  6
CONTINUOUS
 10
-0.963720
 20
0.057047
  0
VERTEX
  8
PLAN_1
 62
     2
  6
CONTINUOUS
 10
-0.959047
 20
0.056114
  0
VERTEX
  8
PLAN_1
 62
     2
  6
CONTINUOUS
 10
-0.955311
 20
0.054244
  0
VERTEX
  8
PLAN_1
 62
     2
  6
CONTINUOUS
 10
-0.952043
 20
0.051909
  0
VERTEX
  8
PLAN_1
 62
     2
  6
CONTINUOUS
 10
-0.949240
 20
0.049106
  0
VERTEX
  8
PLAN_1
 62
     2
  6
CONTINUOUS
 10
-0.947374
 20
0.045839
  0
VERTEX
  8
PLAN_1
 62
     2
  6
CONTINUOUS
 10
-0.946441
 20
0.042102
  0
VERTEX
  8
PLAN_1
 62
     2
  6
CONTINUOUS
 10
-0.945972
 20
0.038366
  0
VERTEX
  8
PLAN_1
 62
     2
  6
CONTINUOUS
 10
-0.946441
 20
0.035098
  0
VERTEX
  8
PLAN_1
 62
     2
  6
CONTINUOUS
 10
-0.946906
 20
0.032295
  0
VERTEX
  8
PLAN_1
 62
     2
  6
CONTINUOUS
 10
-0.947843
 20
0.029961
  0
VERTEX
  8
PLAN_1
 62
     2
  6
CONTINUOUS
 10
-0.949240
 20
0.027626
  0
VERTEX
  8
PLAN_1
 62
     2
  6
CONTINUOUS
 10
-0.950642
 20
0.026224
  0
VERTEX
  8
PLAN_1
 62
     2
  6
CONTINUOUS
 10
-0.952043
 20
0.024823
  0
VERTEX
  8
PLAN_1
 62
     2
  6
CONTINUOUS
 10
-0.953913
 20
0.023890
  0
VERTEX
  8
PLAN_1
 62
     2
  6
CONTINUOUS
 10
-0.955311
 20
0.023421
  0
VERTEX
  8
PLAN_1
 62
     2
  6
CONTINUOUS
 10
-0.955311
 20
0.022957
  0
VERTEX
  8
PLAN_1
 62
     2
  6
CONTINUOUS
 10
-0.952976
 20
0.022020
  0
VERTEX
  8
PLAN_1
 62
     2
  6
CONTINUOUS
 10
-0.950642
 20
0.020622
  0
VERTEX
  8
PLAN_1
 62
     2
  6
CONTINUOUS
 10
-0.948307
 20
0.019220
  0
VERTEX
  8
PLAN_1
 62
     2
  6
CONTINUOUS
 10
-0.946441
 20
0.017350
  0
VERTEX
  8
PLAN_1
 62
     2
  6
CONTINUOUS
 10
-0.945039
 20
0.015016
  0
VERTEX
  8
PLAN_1
 62
     2
  6
CONTINUOUS
 10
-0.944106
 20
0.012213
  0
VERTEX
  8
PLAN_1
 62
     2
  6
CONTINUOUS
 10
-0.943638
 20
0.009413
  0
VERTEX
  8
PLAN_1
 62
     2
  6
CONTINUOUS
 10
-0.943169
 20
0.006142
  0
VERTEX
  8
PLAN_1
 62
     2
  6
CONTINUOUS
 10
-0.943638
 20
0.001472
  0
VERTEX
  8
PLAN_1
 62
     2
  6
CONTINUOUS
 10
-0.944571
 20
-0.002728
  0
VERTEX
  8
PLAN_1
 62
     2
  6
CONTINUOUS
 10
-0.946441
 20
-0.006933
  0
VERTEX
  8
PLAN_1
 62
     2
  6
CONTINUOUS
 10
-0.949240
 20
-0.010201
  0
VERTEX
  8
PLAN_1
 62
     2
  6
CONTINUOUS
 10
-0.951110
 20
-0.012071
  0
VERTEX
  8
PLAN_1
 62
     2
  6
CONTINUOUS
 10
-0.952976
 20
-0.013472
  0
VERTEX
  8
PLAN_1
 62
     2
  6
CONTINUOUS
 10
-0.955311
 20
-0.014406
  0
VERTEX
  8
PLAN_1
 62
     2
  6
CONTINUOUS
 10
-0.957650
 20
-0.015339
  0
VERTEX
  8
PLAN_1
 62
     2
  6
CONTINUOUS
 10
-0.959984
 20
-0.016272
  0
VERTEX
  8
PLAN_1
 62
     2
  6
CONTINUOUS
 10
-0.963252
 20
-0.017205
  0
VERTEX
  8
PLAN_1
 62
     2
  6
CONTINUOUS
 10
-0.966055
 20
-0.017205
  0
VERTEX
  8
PLAN_1
 62
     2
  6
CONTINUOUS
 10
-0.969323
 20
-0.017673
  0
VERTEX
  8
PLAN_1
 62
     2
  6
CONTINUOUS
 10
-0.971657
 20
-0.017673
  0
VERTEX
  8
PLAN_1
 62
     2
  6
CONTINUOUS
 10
-0.973528
 20
-0.017205
  0
VERTEX
  8
PLAN_1
 62
     2
  6
CONTINUOUS
 10
-0.975394
 20
-0.017205
  0
VERTEX
  8
PLAN_1
 62
     2
  6
CONTINUOUS
 10
-0.976795
 20
-0.016740
  0
VERTEX
  8
PLAN_1
 62
     2
  6
CONTINUOUS
 10
-0.978661
 20
-0.016272
  0
VERTEX
  8
PLAN_1
 62
     2
  6
CONTINUOUS
 10
-0.980063
 20
-0.015807
  0
VERTEX
  8
PLAN_1
 62
     2
  6
CONTINUOUS
 10
-0.981465
 20
-0.014870
  0
VERTEX
  8
PLAN_1
 62
     2
  6
CONTINUOUS
 10
-0.982866
 20
-0.014406
  0
VERTEX
  8
PLAN_1
 62
     2
  6
CONTINUOUS
 10
-0.985669
 20
-0.012535
  0
VERTEX
  8
PLAN_1
 62
     2
  6
CONTINUOUS
 10
-0.988004
 20
-0.010201
  0
VERTEX
  8
PLAN_1
 62
     2
  6
CONTINUOUS
 10
-0.989870
 20
-0.007866
  0
VERTEX
  8
PLAN_1
 62
     2
  6
CONTINUOUS
 10
-0.991272
 20
-0.005531
  0
VERTEX
  8
PLAN_1
 62
     2
  6
CONTINUOUS
 10
-0.992205
 20
-0.002264
  0
VERTEX
  8
PLAN_1
 62
     2
  6
CONTINUOUS
 10
-0.993142
 20
0.000539
  0
VERTEX
  8
PLAN_1
 62
     2
  6
CONTINUOUS
 10
-0.993606
 20
0.003807
  0
VERTEX
  8
PLAN_1
 62
     2
  6
CONTINUOUS
 10
-0.994075
 20
0.006610
  0
VERTEX
  8
PLAN_1
 62
     2
  6
CONTINUOUS
 10
-0.984268
 20
0.006610
  0
VERTEX
  8
PLAN_1
 62
     2
  6
CONTINUOUS
 10
-0.984268
 20
0.004276
  0
VERTEX
  8
PLAN_1
 62
     2
  6
CONTINUOUS
 10
-0.983799
 20
0.001472
  0
VERTEX
  8
PLAN_1
 62
     2
  6
CONTINUOUS
 10
-0.982866
 20
-0.001327
  0
VERTEX
  8
PLAN_1
 62
     2
  6
CONTINUOUS
 10
-0.981465
 20
-0.003665
  0
VERTEX
  8
PLAN_1
 62
     2
  6
CONTINUOUS
 10
-0.979598
 20
-0.006000
  0
VERTEX
  8
PLAN_1
 62
     2
  6
CONTINUOUS
 10
-0.976795
 20
-0.007866
  0
VERTEX
  8
PLAN_1
 62
     2
  6
CONTINUOUS
 10
-0.973528
 20
-0.008799
  0
VERTEX
  8
PLAN_1
 62
     2
  6
CONTINUOUS
 10
-0.968854
 20
-0.009268
  0
VERTEX
  8
PLAN_1
 62
     2
  6
CONTINUOUS
 10
-0.965587
 20
-0.009268
  0
VERTEX
  8
PLAN_1
 62
     2
  6
CONTINUOUS
 10
-0.962319
 20
-0.008335
  0
VERTEX
  8
PLAN_1
 62
     2
  6
CONTINUOUS
 10
-0.959516
 20
-0.006933
  0
VERTEX
  8
PLAN_1
 62
     2
  6
CONTINUOUS
 10
-0.957181
 20
-0.005531
  0
VERTEX
  8
PLAN_1
 62
     2
  6
CONTINUOUS
 10
-0.955311
 20
-0.003197
  0
VERTEX
  8
PLAN_1
 62
     2
  6
CONTINUOUS
 10
-0.953913
 20
-0.000862
  0
VERTEX
  8
PLAN_1
 62
     2
  6
CONTINUOUS
 10
-0.953445
 20
0.001941
  0
VERTEX
  8
PLAN_1
 62
     2
  6
CONTINUOUS
 10
-0.952976
 20
0.004744
  0
VERTEX
  8
PLAN_1
 62
     2
  6
CONTINUOUS
 10
-0.952976
 20
0.007079
  0
VERTEX
  8
PLAN_1
 62
     2
  6
CONTINUOUS
 10
-0.953445
 20
0.008945
  0
VERTEX
  8
PLAN_1
 62
     2
  6
CONTINUOUS
 10
-0.953913
 20
0.010815
  0
VERTEX
  8
PLAN_1
 62
     2
  6
CONTINUOUS
 10
-0.954846
 20
0.012213
  0
VERTEX
  8
PLAN_1
 62
     2
  6
CONTINUOUS
 10
-0.956713
 20
0.014551
  0
VERTEX
  8
PLAN_1
 62
     2
  6
CONTINUOUS
 10
-0.959047
 20
0.015949
  0
VERTEX
  8
PLAN_1
 62
     2
  6
CONTINUOUS
 10
-0.961850
 20
0.017350
  0
VERTEX
  8
PLAN_1
 62
     2
  6
CONTINUOUS
 10
-0.964654
 20
0.017819
  0
VERTEX
  8
PLAN_1
 62
     2
  6
CONTINUOUS
 10
-0.967457
 20
0.018287
  0
VERTEX
  8
PLAN_1
 62
     2
  6
CONTINUOUS
 10
-0.969791
 20
0.018287
  0
VERTEX
  8
PLAN_1
 62
     2
  6
CONTINUOUS
 10
-0.970724
 20
0.018287
  0
VERTEX
  8
PLAN_1
 62
     2
  6
CONTINUOUS
 10
-0.971189
 20
0.018287
  0
VERTEX
  8
PLAN_1
 62
     2
  6
CONTINUOUS
 10
-0.971657
 20
0.018287
  0
VERTEX
  8
PLAN_1
 62
     2
  6
CONTINUOUS
 10
-0.972126
 20
0.018287
  0
VERTEX
  8
PLAN_1
 62
     2
  6
CONTINUOUS
 10
-0.972591
 20
0.018287
  0
VERTEX
  8
PLAN_1
 62
     2
  6
CONTINUOUS
 10
-0.973059
 20
0.018287
  0
VERTEX
  8
PLAN_1
 62
     2
  6
CONTINUOUS
 10
-0.973528
 20
0.018287
  0
VERTEX
  8
PLAN_1
 62
     2
  6
CONTINUOUS
 10
-0.973992
 20
0.018287
  0
VERTEX
  8
PLAN_1
 62
     2
  6
CONTINUOUS
 10
-0.973992
 20
0.026224
  0
SEQEND
  8
0
  0
POLYLINE
  8
PLAN_1
 62
     2
  6
CONTINUOUS
 66
     1
 40
0.003000
 41
0.003000
  0
VERTEX
  8
PLAN_1
 62
     2
  6
CONTINUOUS
 10
-0.896004
 20
0.002409
  0
VERTEX
  8
PLAN_1
 62
     2
  6
CONTINUOUS
 10
-0.896004
 20
-0.015807
  0
VERTEX
  8
PLAN_1
 62
     2
  6
CONTINUOUS
 10
-0.904878
 20
-0.015807
  0
VERTEX
  8
PLAN_1
 62
     2
  6
CONTINUOUS
 10
-0.904878
 20
0.002409
  0
VERTEX
  8
PLAN_1
 62
     2
  6
CONTINUOUS
 10
-0.937098
 20
0.002409
  0
VERTEX
  8
PLAN_1
 62
     2
  6
CONTINUOUS
 10
-0.937098
 20
0.011280
  0
VERTEX
  8
PLAN_1
 62
     2
  6
CONTINUOUS
 10
-0.903476
 20
0.057512
  0
VERTEX
  8
PLAN_1
 62
     2
  6
CONTINUOUS
 10
-0.896004
 20
0.057512
  0
VERTEX
  8
PLAN_1
 62
     2
  6
CONTINUOUS
 10
-0.896004
 20
0.009878
  0
VERTEX
  8
PLAN_1
 62
     2
  6
CONTINUOUS
 10
-0.885264
 20
0.009878
  0
VERTEX
  8
PLAN_1
 62
     2
  6
CONTINUOUS
 10
-0.885264
 20
0.002409
  0
VERTEX
  8
PLAN_1
 62
     2
  6
CONTINUOUS
 10
-0.896004
 20
0.002409
  0
SEQEND
  8
0
  0
SOLID
  8
PLAN_1
 62
     2
 10
-0.928693
 20
0.009878
 11
-0.904878
 21
0.009878
 12
-0.905343
 22
0.043504
 13
-0.904878
 23
0.043504
  0
POLYLINE
  8
PLAN_1
 62
     2
  6
CONTINUOUS
 66
     1
 40
0.003000
 41
0.003000
  0
VERTEX
  8
PLAN_1
 62
     2
  6
CONTINUOUS
 10
-0.928693
 20
0.009878
  0
VERTEX
  8
PLAN_1
 62
     2
  6
CONTINUOUS
 10
-0.904878
 20
0.009878
  0
VERTEX
  8
PLAN_1
 62
     2
  6
CONTINUOUS
 10
-0.904878
 20
0.043504
  0
VERTEX
  8
PLAN_1
 62
     2
  6
CONTINUOUS
 10
-0.905343
 20
0.043504
  0
VERTEX
  8
PLAN_1
 62
     2
  6
CONTINUOUS
 10
-0.928693
 20
0.009878
  0
SEQEND
  8
0
  0
POLYLINE
  8
PLAN_1
 62
     2
  6
CONTINUOUS
 66
     1
 40
0.004201
 41
0.004201
  0
VERTEX
  8
PLAN_1
 62
     2
  6
CONTINUOUS
 10
-1.624055
 20
-0.062972
  0
VERTEX
  8
PLAN_1
 62
     2
  6
CONTINUOUS
 10
-1.624524
 20
1.567323
  0
SEQEND
  8
0
  0
POLYLINE
  8
PLAN_1
 62
     2
  6
CONTINUOUS
 66
     1
 40
0.004201
 41
0.004201
  0
VERTEX
  8
PLAN_1
 62
     2
  6
CONTINUOUS
 10
-0.271626
 20
-0.062972
  0
VERTEX
  8
PLAN_1
 62
     2
  6
CONTINUOUS
 10
-0.271626
 20
0.094406
  0
SEQEND
  8
0
  0
POLYLINE
  8
PLAN_1
 62
     2
  6
CONTINUOUS
 66
     1
 40
0.004201
 41
0.004201
  0
VERTEX
  8
PLAN_1
 62
     2
  6
CONTINUOUS
 10
-1.812724
 20
3.640331
  0
VERTEX
  8
PLAN_1
 62
     2
  6
CONTINUOUS
 10
-0.310386
 20
3.640331
  0
SEQEND
  8
0
  0
SOLID
  8
PLAN_1
 62
     2
 10
-0.280965
 20
3.640331
 11
-0.340276
 21
3.656209
 12
-0.280965
 22
3.640331
 13
-0.340276
 23
3.624453
  0
POLYLINE
  8
PLAN_1
 62
     2
  6
CONTINUOUS
 66
     1
 40
0.003000
 41
0.003000
  0
VERTEX
  8
PLAN_1
 62
     2
  6
CONTINUOUS
 10
-0.280965
 20
3.640331
  0
VERTEX
  8
PLAN_1
 62
     2
  6
CONTINUOUS
 10
-0.340276
 20
3.656209
  0
VERTEX
  8
PLAN_1
 62
     2
  6
CONTINUOUS
 10
-0.340276
 20
3.624453
  0
VERTEX
  8
PLAN_1
 62
     2
  6
CONTINUOUS
 10
-0.280965
 20
3.640331
  0
SEQEND
  8
0
  0
SOLID
  8
PLAN_1
 62
     2
 10
-1.842146
 20
3.640331
 11
-1.782835
 21
3.656209
 12
-1.842146
 22
3.640331
 13
-1.782835
 23
3.624453
  0
POLYLINE
  8
PLAN_1
 62
     2
  6
CONTINUOUS
 66
     1
 40
0.003000
 41
0.003000
  0
VERTEX
  8
PLAN_1
 62
     2
  6
CONTINUOUS
 10
-1.842146
 20
3.640331
  0
VERTEX
  8
PLAN_1
 62
     2
  6
CONTINUOUS
 10
-1.782835
 20
3.656209
  0
VERTEX
  8
PLAN_1
 62
     2
  6
CONTINUOUS
 10
-1.782835
 20
3.624453
  0
VERTEX
  8
PLAN_1
 62
     2
  6
CONTINUOUS
 10
-1.842146
 20
3.640331
  0
SEQEND
  8
0
  0
POLYLINE
  8
PLAN_1
 62
     2
  6
CONTINUOUS
 66
     1
 40
0.003000
 41
0.003000
  0
VERTEX
  8
PLAN_1
 62
     2
  6
CONTINUOUS
 10
-1.096346
 20
3.705713
  0
VERTEX
  8
PLAN_1
 62
     2
  6
CONTINUOUS
 10
-1.095413
 20
3.705244
  0
VERTEX
  8
PLAN_1
 62
     2
  6
CONTINUOUS
 10
-1.094945
 20
3.705244
  0
VERTEX
  8
PLAN_1
 62
     2
  6
CONTINUOUS
 10
-1.094480
 20
3.705244
  0
VERTEX
  8
PLAN_1
 62
     2
  6
CONTINUOUS
 10
-1.093543
 20
3.705244
  0
VERTEX
  8
PLAN_1
 62
     2
  6
CONTINUOUS
 10
-1.093079
 20
3.705244
  0
VERTEX
  8
PLAN_1
 62
     2
  6
CONTINUOUS
 10
-1.092610
 20
3.705244
  0
VERTEX
  8
PLAN_1
 62
     2
  6
CONTINUOUS
 10
-1.092142
 20
3.705244
  0
VERTEX
  8
PLAN_1
 62
     2
  6
CONTINUOUS
 10
-1.091209
 20
3.705244
  0
VERTEX
  8
PLAN_1
 62
     2
  6
CONTINUOUS
 10
-1.088874
 20
3.705244
  0
VERTEX
  8
PLAN_1
 62
     2
  6
CONTINUOUS
 10
-1.086071
 20
3.705713
  0
VERTEX
  8
PLAN_1
 62
     2
  6
CONTINUOUS
 10
-1.083736
 20
3.706646
  0
VERTEX
  8
PLAN_1
 62
     2
  6
CONTINUOUS
 10
-1.081870
 20
3.708047
  0
VERTEX
  8
PLAN_1
 62
     2
  6
CONTINUOUS
 10
-1.080000
 20
3.709449
  0
VERTEX
  8
PLAN_1
 62
     2
  6
CONTINUOUS
 10
-1.078602
 20
3.711315
  0
VERTEX
  8
PLAN_1
 62
     2
  6
CONTINUOUS
 10
-1.077665
 20
3.714118
  0
VERTEX
  8
PLAN_1
 62
     2
  6
CONTINUOUS
 10
-1.077201
 20
3.717386
  0
VERTEX
  8
PLAN_1
 62
     2
  6
CONTINUOUS
 10
-1.077665
 20
3.718787
  0
VERTEX
  8
PLAN_1
 62
     2
  6
CONTINUOUS
 10
-1.078134
 20
3.720654
  0
VERTEX
  8
PLAN_1
 62
     2
  6
CONTINUOUS
 10
-1.078602
 20
3.722988
  0
VERTEX
  8
PLAN_1
 62
     2
  6
CONTINUOUS
 10
-1.080000
 20
3.724858
  0
VERTEX
  8
PLAN_1
 62
     2
  6
CONTINUOUS
 10
-1.081870
 20
3.726260
  0
VERTEX
  8
PLAN_1
 62
     2
  6
CONTINUOUS
 10
-1.084205
 20
3.727661
  0
VERTEX
  8
PLAN_1
 62
     2
  6
CONTINUOUS
 10
-1.087472
 20
3.728594
  0
VERTEX
  8
PLAN_1
 62
     2
  6
CONTINUOUS
 10
-1.090744
 20
3.728594
  0
VERTEX
  8
PLAN_1
 62
     2
  6
CONTINUOUS
 10
-1.093079
 20
3.728594
  0
VERTEX
  8
PLAN_1
 62
     2
  6
CONTINUOUS
 10
-1.095413
 20
3.728126
  0
VERTEX
  8
PLAN_1
 62
     2
  6
CONTINUOUS
 10
-1.097280
 20
3.727661
  0
VERTEX
  8
PLAN_1
 62
     2
  6
CONTINUOUS
 10
-1.098681
 20
3.727193
  0
VERTEX
  8
PLAN_1
 62
     2
  6
CONTINUOUS
 10
-1.101016
 20
3.725327
  0
VERTEX
  8
PLAN_1
 62
     2
  6
CONTINUOUS
 10
-1.102886
 20
3.722988
  0
VERTEX
  8
PLAN_1
 62
     2
  6
CONTINUOUS
 10
-1.103819
 20
3.720189
  0
VERTEX
  8
PLAN_1
 62
     2
  6
CONTINUOUS
 10
-1.104752
 20
3.717854
  0
VERTEX
  8
PLAN_1
 62
     2
  6
CONTINUOUS
 10
-1.105220
 20
3.715051
  0
VERTEX
  8
PLAN_1
 62
     2
  6
CONTINUOUS
 10
-1.105220
 20
3.713181
  0
VERTEX
  8
PLAN_1
 62
     2
  6
CONTINUOUS
 10
-1.114094
 20
3.713181
  0
VERTEX
  8
PLAN_1
 62
     2
  6
CONTINUOUS
 10
-1.114094
 20
3.717386
  0
VERTEX
  8
PLAN_1
 62
     2
  6
CONTINUOUS
 10
-1.113157
 20
3.721122
  0
VERTEX
  8
PLAN_1
 62
     2
  6
CONTINUOUS
 10
-1.111756
 20
3.725327
  0
VERTEX
  8
PLAN_1
 62
     2
  6
CONTINUOUS
 10
-1.109421
 20
3.729059
  0
VERTEX
  8
PLAN_1
 62
     2
  6
CONTINUOUS
 10
-1.108020
 20
3.730929
  0
VERTEX
  8
PLAN_1
 62
     2
  6
CONTINUOUS
 10
-1.106622
 20
3.732331
  0
VERTEX
  8
PLAN_1
 62
     2
  6
CONTINUOUS
 10
-1.104752
 20
3.733732
  0
VERTEX
  8
PLAN_1
 62
     2
  6
CONTINUOUS
 10
-1.102417
 20
3.734665
  0
VERTEX
  8
PLAN_1
 62
     2
  6
CONTINUOUS
 10
-1.100083
 20
3.735598
  0
VERTEX
  8
PLAN_1
 62
     2
  6
CONTINUOUS
 10
-1.097280
 20
3.736531
  0
VERTEX
  8
PLAN_1
 62
     2
  6
CONTINUOUS
 10
-1.094012
 20
3.737000
  0
VERTEX
  8
PLAN_1
 62
     2
  6
CONTINUOUS
 10
-1.090744
 20
3.737000
  0
VERTEX
  8
PLAN_1
 62
     2
  6
CONTINUOUS
 10
-1.085606
 20
3.736531
  0
VERTEX
  8
PLAN_1
 62
     2
  6
CONTINUOUS
 10
-1.080937
 20
3.735598
  0
VERTEX
  8
PLAN_1
 62
     2
  6
CONTINUOUS
 10
-1.077201
 20
3.733732
  0
VERTEX
  8
PLAN_1
 62
     2
  6
CONTINUOUS
 10
-1.073929
 20
3.731398
  0
VERTEX
  8
PLAN_1
 62
     2
  6
CONTINUOUS
 10
-1.071594
 20
3.728594
  0
VERTEX
  8
PLAN_1
 62
     2
  6
CONTINUOUS
 10
-1.069728
 20
3.725327
  0
VERTEX
  8
PLAN_1
 62
     2
  6
CONTINUOUS
 10
-1.068327
 20
3.721591
  0
VERTEX
  8
PLAN_1
 62
     2
  6
CONTINUOUS
 10
-1.067858
 20
3.717854
  0
VERTEX
  8
PLAN_1
 62
     2
  6
CONTINUOUS
 10
-1.068327
 20
3.714583
  0
VERTEX
  8
PLAN_1
 62
     2
  6
CONTINUOUS
 10
-1.068795
 20
3.711783
  0
VERTEX
  8
PLAN_1
 62
     2
  6
CONTINUOUS
 10
-1.069728
 20
3.708980
  0
VERTEX
  8
PLAN_1
 62
     2
  6
CONTINUOUS
 10
-1.071130
 20
3.707110
  0
VERTEX
  8
PLAN_1
 62
     2
  6
CONTINUOUS
 10
-1.072531
 20
3.705713
  0
VERTEX
  8
PLAN_1
 62
     2
  6
CONTINUOUS
 10
-1.074398
 20
3.704311
  0
VERTEX
  8
PLAN_1
 62
     2
  6
CONTINUOUS
 10
-1.075799
 20
3.703378
  0
VERTEX
  8
PLAN_1
 62
     2
  6
CONTINUOUS
 10
-1.077201
 20
3.702441
  0
VERTEX
  8
PLAN_1
 62
     2
  6
CONTINUOUS
 10
-1.074866
 20
3.701508
  0
VERTEX
  8
PLAN_1
 62
     2
  6
CONTINUOUS
 10
-1.072531
 20
3.700106
  0
VERTEX
  8
PLAN_1
 62
     2
  6
CONTINUOUS
 10
-1.070193
 20
3.698705
  0
VERTEX
  8
PLAN_1
 62
     2
  6
CONTINUOUS
 10
-1.068795
 20
3.696839
  0
VERTEX
  8
PLAN_1
 62
     2
  6
CONTINUOUS
 10
-1.066925
 20
3.694504
  0
VERTEX
  8
PLAN_1
 62
     2
  6
CONTINUOUS
 10
-1.065992
 20
3.691701
  0
VERTEX
  8
PLAN_1
 62
     2
  6
CONTINUOUS
 10
-1.065524
 20
3.688898
  0
VERTEX
  8
PLAN_1
 62
     2
  6
CONTINUOUS
 10
-1.065059
 20
3.685630
  0
VERTEX
  8
PLAN_1
 62
     2
  6
CONTINUOUS
 10
-1.065524
 20
3.680961
  0
VERTEX
  8
PLAN_1
 62
     2
  6
CONTINUOUS
 10
-1.066457
 20
3.676756
  0
VERTEX
  8
PLAN_1
 62
     2
  6
CONTINUOUS
 10
-1.068795
 20
3.672555
  0
VERTEX
  8
PLAN_1
 62
     2
  6
CONTINUOUS
 10
-1.071130
 20
3.669283
  0
VERTEX
  8
PLAN_1
 62
     2
  6
CONTINUOUS
 10
-1.072996
 20
3.667417
  0
VERTEX
  8
PLAN_1
 62
     2
  6
CONTINUOUS
 10
-1.074866
 20
3.666016
  0
VERTEX
  8
PLAN_1
 62
     2
  6
CONTINUOUS
 10
-1.077201
 20
3.665083
  0
VERTEX
  8
PLAN_1
 62
     2
  6
CONTINUOUS
 10
-1.079535
 20
3.663681
  0
VERTEX
  8
PLAN_1
 62
     2
  6
CONTINUOUS
 10
-1.082339
 20
3.663213
  0
VERTEX
  8
PLAN_1
 62
     2
  6
CONTINUOUS
 10
-1.085138
 20
3.662280
  0
VERTEX
  8
PLAN_1
 62
     2
  6
CONTINUOUS
 10
-1.087941
 20
3.661815
  0
VERTEX
  8
PLAN_1
 62
     2
  6
CONTINUOUS
 10
-1.091677
 20
3.661815
  0
VERTEX
  8
PLAN_1
 62
     2
  6
CONTINUOUS
 10
-1.093543
 20
3.661815
  0
VERTEX
  8
PLAN_1
 62
     2
  6
CONTINUOUS
 10
-1.095413
 20
3.662280
  0
VERTEX
  8
PLAN_1
 62
     2
  6
CONTINUOUS
 10
-1.097280
 20
3.662280
  0
VERTEX
  8
PLAN_1
 62
     2
  6
CONTINUOUS
 10
-1.099150
 20
3.662748
  0
VERTEX
  8
PLAN_1
 62
     2
  6
CONTINUOUS
 10
-1.100551
 20
3.663213
  0
VERTEX
  8
PLAN_1
 62
     2
  6
CONTINUOUS
 10
-1.101949
 20
3.663681
  0
VERTEX
  8
PLAN_1
 62
     2
  6
CONTINUOUS
 10
-1.103819
 20
3.664614
  0
VERTEX
  8
PLAN_1
 62
     2
  6
CONTINUOUS
 10
-1.105220
 20
3.665083
  0
VERTEX
  8
PLAN_1
 62
     2
  6
CONTINUOUS
 10
-1.107555
 20
3.666949
  0
VERTEX
  8
PLAN_1
 62
     2
  6
CONTINUOUS
 10
-1.109890
 20
3.668819
  0
VERTEX
  8
PLAN_1
 62
     2
  6
CONTINUOUS
 10
-1.111756
 20
3.671622
  0
VERTEX
  8
PLAN_1
 62
     2
  6
CONTINUOUS
 10
-1.113157
 20
3.673957
  0
VERTEX
  8
PLAN_1
 62
     2
  6
CONTINUOUS
 10
-1.114559
 20
3.676756
  0
VERTEX
  8
PLAN_1
 62
     2
  6
CONTINUOUS
 10
-1.115028
 20
3.680028
  0
VERTEX
  8
PLAN_1
 62
     2
  6
CONTINUOUS
 10
-1.115492
 20
3.683295
  0
VERTEX
  8
PLAN_1
 62
     2
  6
CONTINUOUS
 10
-1.115961
 20
3.686098
  0
VERTEX
  8
PLAN_1
 62
     2
  6
CONTINUOUS
 10
-1.106622
 20
3.686098
  0
VERTEX
  8
PLAN_1
 62
     2
  6
CONTINUOUS
 10
-1.106154
 20
3.683764
  0
VERTEX
  8
PLAN_1
 62
     2
  6
CONTINUOUS
 10
-1.105685
 20
3.680961
  0
VERTEX
  8
PLAN_1
 62
     2
  6
CONTINUOUS
 10
-1.104752
 20
3.678157
  0
VERTEX
  8
PLAN_1
 62
     2
  6
CONTINUOUS
 10
-1.103819
 20
3.675823
  0
VERTEX
  8
PLAN_1
 62
     2
  6
CONTINUOUS
 10
-1.101484
 20
3.673488
  0
VERTEX
  8
PLAN_1
 62
     2
  6
CONTINUOUS
 10
-1.099150
 20
3.671622
  0
VERTEX
  8
PLAN_1
 62
     2
  6
CONTINUOUS
 10
-1.095413
 20
3.670685
  0
VERTEX
  8
PLAN_1
 62
     2
  6
CONTINUOUS
 10
-1.090744
 20
3.670220
  0
VERTEX
  8
PLAN_1
 62
     2
  6
CONTINUOUS
 10
-1.087472
 20
3.670220
  0
VERTEX
  8
PLAN_1
 62
     2
  6
CONTINUOUS
 10
-1.084205
 20
3.671154
  0
VERTEX
  8
PLAN_1
 62
     2
  6
CONTINUOUS
 10
-1.081870
 20
3.672555
  0
VERTEX
  8
PLAN_1
 62
     2
  6
CONTINUOUS
 10
-1.079535
 20
3.673957
  0
VERTEX
  8
PLAN_1
 62
     2
  6
CONTINUOUS
 10
-1.077665
 20
3.676291
  0
VERTEX
  8
PLAN_1
 62
     2
  6
CONTINUOUS
 10
-1.076264
 20
3.678626
  0
VERTEX
  8
PLAN_1
 62
     2
  6
CONTINUOUS
 10
-1.075331
 20
3.681425
  0
VERTEX
  8
PLAN_1
 62
     2
  6
CONTINUOUS
 10
-1.074866
 20
3.684228
  0
VERTEX
  8
PLAN_1
 62
     2
  6
CONTINUOUS
 10
-1.074866
 20
3.686563
  0
VERTEX
  8
PLAN_1
 62
     2
  6
CONTINUOUS
 10
-1.075331
 20
3.688433
  0
VERTEX
  8
PLAN_1
 62
     2
  6
CONTINUOUS
 10
-1.075799
 20
3.689835
  0
VERTEX
  8
PLAN_1
 62
     2
  6
CONTINUOUS
 10
-1.076732
 20
3.691701
  0
VERTEX
  8
PLAN_1
 62
     2
  6
CONTINUOUS
 10
-1.078602
 20
3.694035
  0
VERTEX
  8
PLAN_1
 62
     2
  6
CONTINUOUS
 10
-1.080937
 20
3.695437
  0
VERTEX
  8
PLAN_1
 62
     2
  6
CONTINUOUS
 10
-1.083736
 20
3.696839
  0
VERTEX
  8
PLAN_1
 62
     2
  6
CONTINUOUS
 10
-1.086539
 20
3.697303
  0
VERTEX
  8
PLAN_1
 62
     2
  6
CONTINUOUS
 10
-1.089343
 20
3.697772
  0
VERTEX
  8
PLAN_1
 62
     2
  6
CONTINUOUS
 10
-1.092142
 20
3.697772
  0
VERTEX
  8
PLAN_1
 62
     2
  6
CONTINUOUS
 10
-1.092610
 20
3.697772
  0
VERTEX
  8
PLAN_1
 62
     2
  6
CONTINUOUS
 10
-1.093079
 20
3.697772
  0
VERTEX
  8
PLAN_1
 62
     2
  6
CONTINUOUS
 10
-1.093543
 20
3.697772
  0
VERTEX
  8
PLAN_1
 62
     2
  6
CONTINUOUS
 10
-1.094012
 20
3.697772
  0
VERTEX
  8
PLAN_1
 62
     2
  6
CONTINUOUS
 10
-1.094480
 20
3.697772
  0
VERTEX
  8
PLAN_1
 62
     2
  6
CONTINUOUS
 10
-1.094945
 20
3.697772
  0
VERTEX
  8
PLAN_1
 62
     2
  6
CONTINUOUS
 10
-1.095413
 20
3.697772
  0
VERTEX
  8
PLAN_1
 62
     2
  6
CONTINUOUS
 10
-1.096346
 20
3.697772
  0
VERTEX
  8
PLAN_1
 62
     2
  6
CONTINUOUS
 10
-1.096346
 20
3.705713
  0
SEQEND
  8
0
  0
POLYLINE
  8
PLAN_1
 62
     2
  6
CONTINUOUS
 66
     1
 40
0.003000
 41
0.003000
  0
VERTEX
  8
PLAN_1
 62
     2
  6
CONTINUOUS
 10
-1.057587
 20
3.735598
  0
VERTEX
  8
PLAN_1
 62
     2
  6
CONTINUOUS
 10
-1.007150
 20
3.735598
  0
VERTEX
  8
PLAN_1
 62
     2
  6
CONTINUOUS
 10
-1.007150
 20
3.727661
  0
VERTEX
  8
PLAN_1
 62
     2
  6
CONTINUOUS
 10
-1.010417
 20
3.723925
  0
VERTEX
  8
PLAN_1
 62
     2
  6
CONTINUOUS
 10
-1.014154
 20
3.718787
  0
VERTEX
  8
PLAN_1
 62
     2
  6
CONTINUOUS
 10
-1.018358
 20
3.712717
  0
VERTEX
  8
PLAN_1
 62
     2
  6
CONTINUOUS
 10
-1.023028
 20
3.705244
  0
VERTEX
  8
PLAN_1
 62
     2
  6
CONTINUOUS
 10
-1.027232
 20
3.696370
  0
VERTEX
  8
PLAN_1
 62
     2
  6
CONTINUOUS
 10
-1.031433
 20
3.686563
  0
VERTEX
  8
PLAN_1
 62
     2
  6
CONTINUOUS
 10
-1.033303
 20
3.681425
  0
VERTEX
  8
PLAN_1
 62
     2
  6
CONTINUOUS
 10
-1.034701
 20
3.675823
  0
VERTEX
  8
PLAN_1
 62
     2
  6
CONTINUOUS
 10
-1.036102
 20
3.669752
  0
VERTEX
  8
PLAN_1
 62
     2
  6
CONTINUOUS
 10
-1.037039
 20
3.663681
  0
VERTEX
  8
PLAN_1
 62
     2
  6
CONTINUOUS
 10
-1.047311
 20
3.663681
  0
VERTEX
  8
PLAN_1
 62
     2
  6
CONTINUOUS
 10
-1.045909
 20
3.671622
  0
VERTEX
  8
PLAN_1
 62
     2
  6
CONTINUOUS
 10
-1.043575
 20
3.680028
  0
VERTEX
  8
PLAN_1
 62
     2
  6
CONTINUOUS
 10
-1.040307
 20
3.687965
  0
VERTEX
  8
PLAN_1
 62
     2
  6
CONTINUOUS
 10
-1.036571
 20
3.696370
  0
VERTEX
  8
PLAN_1
 62
     2
  6
CONTINUOUS
 10
-1.032366
 20
3.704776
  0
VERTEX
  8
PLAN_1
 62
     2
  6
CONTINUOUS
 10
-1.027697
 20
3.712717
  0
VERTEX
  8
PLAN_1
 62
     2
  6
CONTINUOUS
 10
-1.022559
 20
3.719720
  0
VERTEX
  8
PLAN_1
 62
     2
  6
CONTINUOUS
 10
-1.017425
 20
3.726260
  0
VERTEX
  8
PLAN_1
 62
     2
  6
CONTINUOUS
 10
-1.057587
 20
3.726260
  0
VERTEX
  8
PLAN_1
 62
     2
  6
CONTINUOUS
 10
-1.057587
 20
3.735598
  0
SEQEND
  8
0
  0
POLYLINE
  8
PLAN_1
 62
     2
  6
CONTINUOUS
 66
     1
 40
0.004201
 41
0.004201
  0
VERTEX
  8
PLAN_1
 62
     2
  6
CONTINUOUS
 10
-0.824087
 20
3.482953
  0
VERTEX
  8
PLAN_1
 62
     2
  6
CONTINUOUS
 10
-0.311787
 20
3.482953
  0
SEQEND
  8
0
  0
SOLID
  8
PLAN_1
 62
     2
 10
-0.282366
 20
3.482953
 11
-0.341209
 21
3.498831
 12
-0.282366
 22
3.482953
 13
-0.341209
 23
3.467543
  0
POLYLINE
  8
PLAN_1
 62
     2
  6
CONTINUOUS
 66
     1
 40
0.003000
 41
0.003000
  0
VERTEX
  8
PLAN_1
 62
     2
  6
CONTINUOUS
 10
-0.282366
 20
3.482953
  0
VERTEX
  8
PLAN_1
 62
     2
  6
CONTINUOUS
 10
-0.341209
 20
3.498831
  0
VERTEX
  8
PLAN_1
 62
     2
  6
CONTINUOUS
 10
-0.341209
 20
3.467543
  0
VERTEX
  8
PLAN_1
 62
     2
  6
CONTINUOUS
 10
-0.282366
 20
3.482953
  0
SEQEND
  8
0
  0
SOLID
  8
PLAN_1
 62
     2
 10
-0.853508
 20
3.482953
 11
-0.794665
 21
3.498831
 12
-0.853508
 22
3.482953
 13
-0.794665
 23
3.467543
  0
POLYLINE
  8
PLAN_1
 62
     2
  6
CONTINUOUS
 66
     1
 40
0.003000
 41
0.003000
  0
VERTEX
  8
PLAN_1
 62
     2
  6
CONTINUOUS
 10
-0.853508
 20
3.482953
  0
VERTEX
  8
PLAN_1
 62
     2
  6
CONTINUOUS
 10
-0.794665
 20
3.498831
  0
VERTEX
  8
PLAN_1
 62
     2
  6
CONTINUOUS
 10
-0.794665
 20
3.467543
  0
VERTEX
  8
PLAN_1
 62
     2
  6
CONTINUOUS
 10
-0.853508
 20
3.482953
  0
SEQEND
  8
0
  0
POLYLINE
  8
PLAN_1
 62
     2
  6
CONTINUOUS
 66
     1
 40
0.003000
 41
0.003000
  0
VERTEX
  8
PLAN_1
 62
     2
  6
CONTINUOUS
 10
-0.588717
 20
3.506768
  0
VERTEX
  8
PLAN_1
 62
     2
  6
CONTINUOUS
 10
-0.598059
 20
3.506768
  0
VERTEX
  8
PLAN_1
 62
     2
  6
CONTINUOUS
 10
-0.598059
 20
3.558606
  0
VERTEX
  8
PLAN_1
 62
     2
  6
CONTINUOUS
 10
-0.615339
 20
3.558606
  0
VERTEX
  8
PLAN_1
 62
     2
  6
CONTINUOUS
 10
-0.615339
 20
3.566079
  0
VERTEX
  8
PLAN_1
 62
     2
  6
CONTINUOUS
 10
-0.611134
 20
3.566079
  0
VERTEX
  8
PLAN_1
 62
     2
  6
CONTINUOUS
 10
-0.607866
 20
3.566547
  0
VERTEX
  8
PLAN_1
 62
     2
  6
CONTINUOUS
 10
-0.604594
 20
3.567480
  0
VERTEX
  8
PLAN_1
 62
     2
  6
CONTINUOUS
 10
-0.602260
 20
3.568882
  0
VERTEX
  8
PLAN_1
 62
     2
  6
CONTINUOUS
 10
-0.599925
 20
3.570280
  0
VERTEX
  8
PLAN_1
 62
     2
  6
CONTINUOUS
 10
-0.598524
 20
3.572618
  0
VERTEX
  8
PLAN_1
 62
     2
  6
CONTINUOUS
 10
-0.596657
 20
3.575886
  0
VERTEX
  8
PLAN_1
 62
     2
  6
CONTINUOUS
 10
-0.595724
 20
3.579622
  0
VERTEX
  8
PLAN_1
 62
     2
  6
CONTINUOUS
 10
-0.588717
 20
3.579622
  0
VERTEX
  8
PLAN_1
 62
     2
  6
CONTINUOUS
 10
-0.588717
 20
3.506768
  0
SEQEND
  8
0
  0
POLYLINE
  8
PLAN_1
 62
     2
  6
CONTINUOUS
 66
     1
 40
0.003000
 41
0.003000
  0
VERTEX
  8
PLAN_1
 62
     2
  6
CONTINUOUS
 10
-0.552760
 20
3.549268
  0
VERTEX
  8
PLAN_1
 62
     2
  6
CONTINUOUS
 10
-0.551358
 20
3.550201
  0
VERTEX
  8
PLAN_1
 62
     2
  6
CONTINUOUS
 10
-0.549957
 20
3.551134
  0
VERTEX
  8
PLAN_1
 62
     2
  6
CONTINUOUS
 10
-0.548555
 20
3.551602
  0
VERTEX
  8
PLAN_1
 62
     2
  6
CONTINUOUS
 10
-0.546689
 20
3.552535
  0
VERTEX
  8
PLAN_1
 62
     2
  6
CONTINUOUS
 10
-0.544819
 20
3.553004
  0
VERTEX
  8
PLAN_1
 62
     2
  6
CONTINUOUS
 10
-0.542953
 20
3.553469
  0
VERTEX
  8
PLAN_1
 62
     2
  6
CONTINUOUS
 10
-0.541083
 20
3.553937
  0
VERTEX
  8
PLAN_1
 62
     2
  6
CONTINUOUS
 10
-0.538283
 20
3.553937
  0
VERTEX
  8
PLAN_1
 62
     2
  6
CONTINUOUS
 10
-0.534079
 20
3.553469
  0
VERTEX
  8
PLAN_1
 62
     2
  6
CONTINUOUS
 10
-0.529878
 20
3.552067
  0
VERTEX
  8
PLAN_1
 62
     2
  6
CONTINUOUS
 10
-0.525673
 20
3.550201
  0
VERTEX
  8
PLAN_1
 62
     2
  6
CONTINUOUS
 10
-0.521937
 20
3.547866
  0
VERTEX
  8
PLAN_1
 62
     2
  6
CONTINUOUS
 10
-0.520535
 20
3.545996
  0
VERTEX
  8
PLAN_1
 62
     2
  6
CONTINUOUS
 10
-0.519134
 20
3.544594
  0
VERTEX
  8
PLAN_1
 62
     2
  6
CONTINUOUS
 10
-0.517736
 20
3.542728
  0
VERTEX
  8
PLAN_1
 62
     2
  6
CONTINUOUS
 10
-0.516335
 20
3.540394
  0
VERTEX
  8
PLAN_1
 62
     2
  6
CONTINUOUS
 10
-0.515866
 20
3.538059
  0
VERTEX
  8
PLAN_1
 62
     2
  6
CONTINUOUS
 10
-0.514933
 20
3.535724
  0
VERTEX
  8
PLAN_1
 62
     2
  6
CONTINUOUS
 10
-0.514465
 20
3.533390
  0
VERTEX
  8
PLAN_1
 62
     2
  6
CONTINUOUS
 10
-0.514465
 20
3.530587
  0
VERTEX
  8
PLAN_1
 62
     2
  6
CONTINUOUS
 10
-0.514465
 20
3.526850
  0
VERTEX
  8
PLAN_1
 62
     2
  6
CONTINUOUS
 10
-0.515398
 20
3.523114
  0
VERTEX
  8
PLAN_1
 62
     2
  6
CONTINUOUS
 10
-0.516799
 20
3.518909
  0
VERTEX
  8
PLAN_1
 62
     2
  6
CONTINUOUS
 10
-0.519134
 20
3.514709
  0
VERTEX
  8
PLAN_1
 62
     2
  6
CONTINUOUS
 10
-0.520535
 20
3.512374
  0
VERTEX
  8
PLAN_1
 62
     2
  6
CONTINUOUS
 10
-0.522406
 20
3.510504
  0
VERTEX
  8
PLAN_1
 62
     2
  6
CONTINUOUS
 10
-0.524740
 20
3.509106
  0
VERTEX
  8
PLAN_1
 62
     2
  6
CONTINUOUS
 10
-0.527075
 20
3.507705
  0
VERTEX
  8
PLAN_1
 62
     2
  6
CONTINUOUS
 10
-0.529878
 20
3.506303
  0
VERTEX
  8
PLAN_1
 62
     2
  6
CONTINUOUS
 10
-0.533146
 20
3.505370
  0
VERTEX
  8
PLAN_1
 62
     2
  6
CONTINUOUS
 10
-0.536882
 20
3.504902
  0
VERTEX
  8
PLAN_1
 62
     2
  6
CONTINUOUS
 10
-0.541083
 20
3.504902
  0
VERTEX
  8
PLAN_1
 62
     2
  6
CONTINUOUS
 10
-0.544819
 20
3.504902
  0
VERTEX
  8
PLAN_1
 62
     2
  6
CONTINUOUS
 10
-0.548555
 20
3.505370
  0
VERTEX
  8
PLAN_1
 62
     2
  6
CONTINUOUS
 10
-0.552291
 20
3.506768
  0
VERTEX
  8
PLAN_1
 62
     2
  6
CONTINUOUS
 10
-0.555563
 20
3.508638
  0
VERTEX
  8
PLAN_1
 62
     2
  6
CONTINUOUS
 10
-0.557429
 20
3.510039
  0
VERTEX
  8
PLAN_1
 62
     2
  6
CONTINUOUS
 10
-0.558831
 20
3.511441
  0
VERTEX
  8
PLAN_1
 62
     2
  6
CONTINUOUS
 10
-0.560232
 20
3.512839
  0
VERTEX
  8
PLAN_1
 62
     2
  6
CONTINUOUS
 10
-0.561634
 20
3.514709
  0
VERTEX
  8
PLAN_1
 62
     2
  6
CONTINUOUS
 10
-0.562567
 20
3.517043
  0
VERTEX
  8
PLAN_1
 62
     2
  6
CONTINUOUS
 10
-0.563500
 20
3.519378
  0
VERTEX
  8
PLAN_1
 62
     2
  6
CONTINUOUS
 10
-0.563969
 20
3.522181
  0
VERTEX
  8
PLAN_1
 62
     2
  6
CONTINUOUS
 10
-0.564433
 20
3.524984
  0
VERTEX
  8
PLAN_1
 62
     2
  6
CONTINUOUS
 10
-0.555094
 20
3.524984
  0
VERTEX
  8
PLAN_1
 62
     2
  6
CONTINUOUS
 10
-0.554626
 20
3.521713
  0
VERTEX
  8
PLAN_1
 62
     2
  6
CONTINUOUS
 10
-0.553693
 20
3.519378
  0
VERTEX
  8
PLAN_1
 62
     2
  6
CONTINUOUS
 10
-0.551827
 20
3.517512
  0
VERTEX
  8
PLAN_1
 62
     2
  6
CONTINUOUS
 10
-0.549957
 20
3.515642
  0
VERTEX
  8
PLAN_1
 62
     2
  6
CONTINUOUS
 10
-0.548091
 20
3.514240
  0
VERTEX
  8
PLAN_1
 62
     2
  6
CONTINUOUS
 10
-0.545287
 20
3.513307
  0
VERTEX
  8
PLAN_1
 62
     2
  6
CONTINUOUS
 10
-0.542484
 20
3.512839
  0
VERTEX
  8
PLAN_1
 62
     2
  6
CONTINUOUS
 10
-0.539685
 20
3.512839
  0
VERTEX
  8
PLAN_1
 62
     2
  6
CONTINUOUS
 10
-0.536413
 20
3.512839
  0
VERTEX
  8
PLAN_1
 62
     2
  6
CONTINUOUS
 10
-0.533146
 20
3.513776
  0
VERTEX
  8
PLAN_1
 62
     2
  6
CONTINUOUS
 10
-0.530811
 20
3.515642
  0
VERTEX
  8
PLAN_1
 62
     2
  6
CONTINUOUS
 10
-0.528476
 20
3.517512
  0
VERTEX
  8
PLAN_1
 62
     2
  6
CONTINUOUS
 10
-0.526606
 20
3.519846
  0
VERTEX
  8
PLAN_1
 62
     2
  6
CONTINUOUS
 10
-0.525205
 20
3.523114
  0
VERTEX
  8
PLAN_1
 62
     2
  6
CONTINUOUS
 10
-0.524740
 20
3.525917
  0
VERTEX
  8
PLAN_1
 62
     2
  6
CONTINUOUS
 10
-0.524272
 20
3.529185
  0
VERTEX
  8
PLAN_1
 62
     2
  6
CONTINUOUS
 10
-0.524740
 20
3.532921
  0
VERTEX
  8
PLAN_1
 62
     2
  6
CONTINUOUS
 10
-0.525673
 20
3.536189
  0
VERTEX
  8
PLAN_1
 62
     2
  6
CONTINUOUS
 10
-0.527075
 20
3.538992
  0
VERTEX
  8
PLAN_1
 62
     2
  6
CONTINUOUS
 10
-0.528941
 20
3.541327
  0
VERTEX
  8
PLAN_1
 62
     2
  6
CONTINUOUS
 10
-0.531280
 20
3.543197
  0
VERTEX
  8
PLAN_1
 62
     2
  6
CONTINUOUS
 10
-0.534079
 20
3.544594
  0
VERTEX
  8
PLAN_1
 62
     2
  6
CONTINUOUS
 10
-0.537350
 20
3.545531
  0
VERTEX
  8
PLAN_1
 62
     2
  6
CONTINUOUS
 10
-0.540618
 20
3.545531
  0
VERTEX
  8
PLAN_1
 62
     2
  6
CONTINUOUS
 10
-0.542484
 20
3.545531
  0
VERTEX
  8
PLAN_1
 62
     2
  6
CONTINUOUS
 10
-0.544354
 20
3.545063
  0
VERTEX
  8
PLAN_1
 62
     2
  6
CONTINUOUS
 10
-0.546220
 20
3.544594
  0
VERTEX
  8
PLAN_1
 62
     2
  6
CONTINUOUS
 10
-0.548091
 20
3.543661
  0
VERTEX
  8
PLAN_1
 62
     2
  6
CONTINUOUS
 10
-0.549492
 20
3.542728
  0
VERTEX
  8
PLAN_1
 62
     2
  6
CONTINUOUS
 10
-0.551358
 20
3.541795
  0
VERTEX
  8
PLAN_1
 62
     2
  6
CONTINUOUS
 10
-0.552760
 20
3.540394
  0
VERTEX
  8
PLAN_1
 62
     2
  6
CONTINUOUS
 10
-0.554161
 20
3.538524
  0
VERTEX
  8
PLAN_1
 62
     2
  6
CONTINUOUS
 10
-0.562098
 20
3.538992
  0
VERTEX
  8
PLAN_1
 62
     2
  6
CONTINUOUS
 10
-0.556496
 20
3.578220
  0
VERTEX
  8
PLAN_1
 62
     2
  6
CONTINUOUS
 10
-0.518669
 20
3.578220
  0
VERTEX
  8
PLAN_1
 62
     2
  6
CONTINUOUS
 10
-0.518669
 20
3.569346
  0
VERTEX
  8
PLAN_1
 62
     2
  6
CONTINUOUS
 10
-0.549492
 20
3.569346
  0
VERTEX
  8
PLAN_1
 62
     2
  6
CONTINUOUS
 10
-0.552760
 20
3.549268
  0
SEQEND
  8
0
  0
POLYLINE
  8
PLAN_1
 62
     2
  6
CONTINUOUS
 66
     1
 40
0.004201
 41
0.004201
  0
VERTEX
  8
PLAN_1
 62
     2
  6
CONTINUOUS
 10
-1.189748
 20
3.325575
  0
VERTEX
  8
PLAN_1
 62
     2
  6
CONTINUOUS
 10
-0.719476
 20
3.325575
  0
SEQEND
  8
0
  0
SOLID
  8
PLAN_1
 62
     2
 10
-0.962319
 20
3.325575
 11
-1.021626
 21
3.341453
 12
-0.962319
 22
3.325575
 13
-1.021626
 23
3.309697
  0
POLYLINE
  8
PLAN_1
 62
     2
  6
CONTINUOUS
 66
     1
 40
0.003000
 41
0.003000
  0
VERTEX
  8
PLAN_1
 62
     2
  6
CONTINUOUS
 10
-0.962319
 20
3.325575
  0
VERTEX
  8
PLAN_1
 62
     2
  6
CONTINUOUS
 10
-1.021626
 20
3.341453
  0
VERTEX
  8
PLAN_1
 62
     2
  6
CONTINUOUS
 10
-1.021626
 20
3.309697
  0
VERTEX
  8
PLAN_1
 62
     2
  6
CONTINUOUS
 10
-0.962319
 20
3.325575
  0
SEQEND
  8
0
  0
SOLID
  8
PLAN_1
 62
     2
 10
-0.748898
 20
3.325575
 11
-0.690059
 21
3.341453
 12
-0.748898
 22
3.325575
 13
-0.690059
 23
3.309697
  0
POLYLINE
  8
PLAN_1
 62
     2
  6
CONTINUOUS
 66
     1
 40
0.003000
 41
0.003000
  0
VERTEX
  8
PLAN_1
 62
     2
  6
CONTINUOUS
 10
-0.748898
 20
3.325575
  0
VERTEX
  8
PLAN_1
 62
     2
  6
CONTINUOUS
 10
-0.690059
 20
3.341453
  0
VERTEX
  8
PLAN_1
 62
     2
  6
CONTINUOUS
 10
-0.690059
 20
3.309697
  0
VERTEX
  8
PLAN_1
 62
     2
  6
CONTINUOUS
 10
-0.748898
 20
3.325575
  0
SEQEND
  8
0
  0
POLYLINE
  8
PLAN_1
 62
     2
  6
CONTINUOUS
 66
     1
 40
0.003000
 41
0.003000
  0
VERTEX
  8
PLAN_1
 62
     2
  6
CONTINUOUS
 10
-1.170598
 20
3.391886
  0
VERTEX
  8
PLAN_1
 62
     2
  6
CONTINUOUS
 10
-1.169197
 20
3.392823
  0
VERTEX
  8
PLAN_1
 62
     2
  6
CONTINUOUS
 10
-1.167799
 20
3.393756
  0
VERTEX
  8
PLAN_1
 62
     2
  6
CONTINUOUS
 10
-1.166398
 20
3.394224
  0
VERTEX
  8
PLAN_1
 62
     2
  6
CONTINUOUS
 10
-1.164528
 20
3.395157
  0
VERTEX
  8
PLAN_1
 62
     2
  6
CONTINUOUS
 10
-1.162661
 20
3.395622
  0
VERTEX
  8
PLAN_1
 62
     2
  6
CONTINUOUS
 10
-1.160791
 20
3.396091
  0
VERTEX
  8
PLAN_1
 62
     2
  6
CONTINUOUS
 10
-1.158457
 20
3.396091
  0
VERTEX
  8
PLAN_1
 62
     2
  6
CONTINUOUS
 10
-1.156122
 20
3.396559
  0
VERTEX
  8
PLAN_1
 62
     2
  6
CONTINUOUS
 10
-1.151921
 20
3.396091
  0
VERTEX
  8
PLAN_1
 62
     2
  6
CONTINUOUS
 10
-1.147717
 20
3.394689
  0
VERTEX
  8
PLAN_1
 62
     2
  6
CONTINUOUS
 10
-1.143512
 20
3.392823
  0
VERTEX
  8
PLAN_1
 62
     2
  6
CONTINUOUS
 10
-1.139776
 20
3.390488
  0
VERTEX
  8
PLAN_1
 62
     2
  6
CONTINUOUS
 10
-1.138378
 20
3.388618
  0
VERTEX
  8
PLAN_1
 62
     2
  6
CONTINUOUS
 10
-1.136976
 20
3.387217
  0
VERTEX
  8
PLAN_1
 62
     2
  6
CONTINUOUS
 10
-1.135575
 20
3.384882
  0
VERTEX
  8
PLAN_1
 62
     2
  6
CONTINUOUS
 10
-1.134173
 20
3.383016
  0
VERTEX
  8
PLAN_1
 62
     2
  6
CONTINUOUS
 10
-1.133705
 20
3.380681
  0
VERTEX
  8
PLAN_1
 62
     2
  6
CONTINUOUS
 10
-1.132772
 20
3.378346
  0
VERTEX
  8
PLAN_1
 62
     2
  6
CONTINUOUS
 10
-1.132307
 20
3.375543
  0
VERTEX
  8
PLAN_1
 62
     2
  6
CONTINUOUS
 10
-1.132307
 20
3.373209
  0
VERTEX
  8
PLAN_1
 62
     2
  6
CONTINUOUS
 10
-1.132307
 20
3.369472
  0
VERTEX
  8
PLAN_1
 62
     2
  6
CONTINUOUS
 10
-1.133240
 20
3.365736
  0
VERTEX
  8
PLAN_1
 62
     2
  6
CONTINUOUS
 10
-1.134642
 20
3.361067
  0
VERTEX
  8
PLAN_1
 62
     2
  6
CONTINUOUS
 10
-1.136976
 20
3.356862
  0
VERTEX
  8
PLAN_1
 62
     2
  6
CONTINUOUS
 10
-1.138378
 20
3.354996
  0
VERTEX
  8
PLAN_1
 62
     2
  6
CONTINUOUS
 10
-1.140244
 20
3.353126
  0
VERTEX
  8
PLAN_1
 62
     2
  6
CONTINUOUS
 10
-1.142579
 20
3.351724
  0
VERTEX
  8
PLAN_1
 62
     2
  6
CONTINUOUS
 10
-1.144913
 20
3.350323
  0
VERTEX
  8
PLAN_1
 62
     2
  6
CONTINUOUS
 10
-1.147717
 20
3.348925
  0
VERTEX
  8
PLAN_1
 62
     2
  6
CONTINUOUS
 10
-1.150984
 20
3.347988
  0
VERTEX
  8
PLAN_1
 62
     2
  6
CONTINUOUS
 10
-1.154720
 20
3.347524
  0
VERTEX
  8
PLAN_1
 62
     2
  6
CONTINUOUS
 10
-1.158925
 20
3.347524
  0
VERTEX
  8
PLAN_1
 62
     2
  6
CONTINUOUS
 10
-1.162661
 20
3.347524
  0
VERTEX
  8
PLAN_1
 62
     2
  6
CONTINUOUS
 10
-1.166398
 20
3.347988
  0
VERTEX
  8
PLAN_1
 62
     2
  6
CONTINUOUS
 10
-1.170134
 20
3.349390
  0
VERTEX
  8
PLAN_1
 62
     2
  6
CONTINUOUS
 10
-1.173402
 20
3.351260
  0
VERTEX
  8
PLAN_1
 62
     2
  6
CONTINUOUS
 10
-1.175268
 20
3.352661
  0
VERTEX
  8
PLAN_1
 62
     2
  6
CONTINUOUS
 10
-1.176669
 20
3.354059
  0
VERTEX
  8
PLAN_1
 62
     2
  6
CONTINUOUS
 10
-1.178071
 20
3.355461
  0
VERTEX
  8
PLAN_1
 62
     2
  6
CONTINUOUS
 10
-1.179472
 20
3.357331
  0
VERTEX
  8
PLAN_1
 62
     2
  6
CONTINUOUS
 10
-1.180406
 20
3.359665
  0
VERTEX
  8
PLAN_1
 62
     2
  6
CONTINUOUS
 10
-1.181339
 20
3.362000
  0
VERTEX
  8
PLAN_1
 62
     2
  6
CONTINUOUS
 10
-1.181807
 20
3.364335
  0
VERTEX
  8
PLAN_1
 62
     2
  6
CONTINUOUS
 10
-1.182276
 20
3.367602
  0
VERTEX
  8
PLAN_1
 62
     2
  6
CONTINUOUS
 10
-1.172933
 20
3.367602
  0
VERTEX
  8
PLAN_1
 62
     2
  6
CONTINUOUS
 10
-1.172469
 20
3.364335
  0
VERTEX
  8
PLAN_1
 62
     2
  6
CONTINUOUS
 10
-1.171067
 20
3.362000
  0
VERTEX
  8
PLAN_1
 62
     2
  6
CONTINUOUS
 10
-1.169665
 20
3.359665
  0
VERTEX
  8
PLAN_1
 62
     2
  6
CONTINUOUS
 10
-1.167799
 20
3.358264
  0
VERTEX
  8
PLAN_1
 62
     2
  6
CONTINUOUS
 10
-1.165929
 20
3.356862
  0
VERTEX
  8
PLAN_1
 62
     2
  6
CONTINUOUS
 10
-1.163126
 20
3.355929
  0
VERTEX
  8
PLAN_1
 62
     2
  6
CONTINUOUS
 10
-1.160327
 20
3.355461
  0
VERTEX
  8
PLAN_1
 62
     2
  6
CONTINUOUS
 10
-1.157524
 20
3.354996
  0
VERTEX
  8
PLAN_1
 62
     2
  6
CONTINUOUS
 10
-1.154256
 20
3.355461
  0
VERTEX
  8
PLAN_1
 62
     2
  6
CONTINUOUS
 10
-1.150984
 20
3.356394
  0
VERTEX
  8
PLAN_1
 62
     2
  6
CONTINUOUS
 10
-1.148650
 20
3.358264
  0
VERTEX
  8
PLAN_1
 62
     2
  6
CONTINUOUS
 10
-1.146315
 20
3.360130
  0
VERTEX
  8
PLAN_1
 62
     2
  6
CONTINUOUS
 10
-1.144449
 20
3.362469
  0
VERTEX
  8
PLAN_1
 62
     2
  6
CONTINUOUS
 10
-1.143047
 20
3.365268
  0
VERTEX
  8
PLAN_1
 62
     2
  6
CONTINUOUS
 10
-1.142114
 20
3.368539
  0
VERTEX
  8
PLAN_1
 62
     2
  6
CONTINUOUS
 10
-1.142114
 20
3.371807
  0
VERTEX
  8
PLAN_1
 62
     2
  6
CONTINUOUS
 10
-1.142579
 20
3.375543
  0
VERTEX
  8
PLAN_1
 62
     2
  6
CONTINUOUS
 10
-1.143512
 20
3.378811
  0
VERTEX
  8
PLAN_1
 62
     2
  6
CONTINUOUS
 10
-1.144913
 20
3.381614
  0
VERTEX
  8
PLAN_1
 62
     2
  6
CONTINUOUS
 10
-1.146783
 20
3.383949
  0
VERTEX
  8
PLAN_1
 62
     2
  6
CONTINUOUS
 10
-1.149118
 20
3.385815
  0
VERTEX
  8
PLAN_1
 62
     2
  6
CONTINUOUS
 10
-1.151921
 20
3.387217
  0
VERTEX
  8
PLAN_1
 62
     2
  6
CONTINUOUS
 10
-1.155189
 20
3.387685
  0
VERTEX
  8
PLAN_1
 62
     2
  6
CONTINUOUS
 10
-1.158457
 20
3.388154
  0
VERTEX
  8
PLAN_1
 62
     2
  6
CONTINUOUS
 10
-1.160327
 20
3.388154
  0
VERTEX
  8
PLAN_1
 62
     2
  6
CONTINUOUS
 10
-1.162193
 20
3.387685
  0
VERTEX
  8
PLAN_1
 62
     2
  6
CONTINUOUS
 10
-1.164063
 20
3.387217
  0
VERTEX
  8
PLAN_1
 62
     2
  6
CONTINUOUS
 10
-1.165929
 20
3.386283
  0
VERTEX
  8
PLAN_1
 62
     2
  6
CONTINUOUS
 10
-1.167331
 20
3.385350
  0
VERTEX
  8
PLAN_1
 62
     2
  6
CONTINUOUS
 10
-1.169197
 20
3.383949
  0
VERTEX
  8
PLAN_1
 62
     2
  6
CONTINUOUS
 10
-1.170598
 20
3.383016
  0
VERTEX
  8
PLAN_1
 62
     2
  6
CONTINUOUS
 10
-1.172000
 20
3.381146
  0
VERTEX
  8
PLAN_1
 62
     2
  6
CONTINUOUS
 10
-1.179941
 20
3.381614
  0
VERTEX
  8
PLAN_1
 62
     2
  6
CONTINUOUS
 10
-1.174335
 20
3.420843
  0
VERTEX
  8
PLAN_1
 62
     2
  6
CONTINUOUS
 10
-1.136508
 20
3.420843
  0
VERTEX
  8
PLAN_1
 62
     2
  6
CONTINUOUS
 10
-1.136508
 20
3.411969
  0
VERTEX
  8
PLAN_1
 62
     2
  6
CONTINUOUS
 10
-1.167331
 20
3.411969
  0
VERTEX
  8
PLAN_1
 62
     2
  6
CONTINUOUS
 10
-1.170598
 20
3.391886
  0
SEQEND
  8
0
  0
POLYLINE
  8
PLAN_1
 62
     2
  6
CONTINUOUS
 66
     1
 40
0.003000
 41
0.003000
  0
VERTEX
  8
PLAN_1
 62
     2
  6
CONTINUOUS
 10
-1.118764
 20
3.360130
  0
VERTEX
  8
PLAN_1
 62
     2
  6
CONTINUOUS
 10
-1.108020
 20
3.360130
  0
VERTEX
  8
PLAN_1
 62
     2
  6
CONTINUOUS
 10
-1.108020
 20
3.350323
  0
VERTEX
  8
PLAN_1
 62
     2
  6
CONTINUOUS
 10
-1.108488
 20
3.345189
  0
VERTEX
  8
PLAN_1
 62
     2
  6
CONTINUOUS
 10
-1.109421
 20
3.341453
  0
VERTEX
  8
PLAN_1
 62
     2
  6
CONTINUOUS
 10
-1.110823
 20
3.338650
  0
VERTEX
  8
PLAN_1
 62
     2
  6
CONTINUOUS
 10
-1.112693
 20
3.336783
  0
VERTEX
  8
PLAN_1
 62
     2
  6
CONTINUOUS
 10
-1.114559
 20
3.335382
  0
VERTEX
  8
PLAN_1
 62
     2
  6
CONTINUOUS
 10
-1.116429
 20
3.334445
  0
VERTEX
  8
PLAN_1
 62
     2
  6
CONTINUOUS
 10
-1.117827
 20
3.333980
  0
VERTEX
  8
PLAN_1
 62
     2
  6
CONTINUOUS
 10
-1.118764
 20
3.333980
  0
VERTEX
  8
PLAN_1
 62
     2
  6
CONTINUOUS
 10
-1.118764
 20
3.338650
  0
VERTEX
  8
PLAN_1
 62
     2
  6
CONTINUOUS
 10
-1.117362
 20
3.339118
  0
VERTEX
  8
PLAN_1
 62
     2
  6
CONTINUOUS
 10
-1.115961
 20
3.340051
  0
VERTEX
  8
PLAN_1
 62
     2
  6
CONTINUOUS
 10
-1.115028
 20
3.340984
  0
VERTEX
  8
PLAN_1
 62
     2
  6
CONTINUOUS
 10
-1.114559
 20
3.342386
  0
VERTEX
  8
PLAN_1
 62
     2
  6
CONTINUOUS
 10
-1.114094
 20
3.343787
  0
VERTEX
  8
PLAN_1
 62
     2
  6
CONTINUOUS
 10
-1.113626
 20
3.345654
  0
VERTEX
  8
PLAN_1
 62
     2
  6
CONTINUOUS
 10
-1.113157
 20
3.347524
  0
VERTEX
  8
PLAN_1
 62
     2
  6
CONTINUOUS
 10
-1.113157
 20
3.349390
  0
VERTEX
  8
PLAN_1
 62
     2
  6
CONTINUOUS
 10
-1.118764
 20
3.349390
  0
VERTEX
  8
PLAN_1
 62
     2
  6
CONTINUOUS
 10
-1.118764
 20
3.360130
  0
SEQEND
  8
0
  0
POLYLINE
  8
PLAN_1
 62
     2
  6
CONTINUOUS
 66
     1
 40
0.003000
 41
0.003000
  0
VERTEX
  8
PLAN_1
 62
     2
  6
CONTINUOUS
 10
-1.083736
 20
3.391886
  0
VERTEX
  8
PLAN_1
 62
     2
  6
CONTINUOUS
 10
-1.082339
 20
3.392823
  0
VERTEX
  8
PLAN_1
 62
     2
  6
CONTINUOUS
 10
-1.080937
 20
3.393756
  0
VERTEX
  8
PLAN_1
 62
     2
  6
CONTINUOUS
 10
-1.079535
 20
3.394224
  0
VERTEX
  8
PLAN_1
 62
     2
  6
CONTINUOUS
 10
-1.077665
 20
3.395157
  0
VERTEX
  8
PLAN_1
 62
     2
  6
CONTINUOUS
 10
-1.075799
 20
3.395622
  0
VERTEX
  8
PLAN_1
 62
     2
  6
CONTINUOUS
 10
-1.073929
 20
3.396091
  0
VERTEX
  8
PLAN_1
 62
     2
  6
CONTINUOUS
 10
-1.072063
 20
3.396091
  0
VERTEX
  8
PLAN_1
 62
     2
  6
CONTINUOUS
 10
-1.069260
 20
3.396559
  0
VERTEX
  8
PLAN_1
 62
     2
  6
CONTINUOUS
 10
-1.065059
 20
3.396091
  0
VERTEX
  8
PLAN_1
 62
     2
  6
CONTINUOUS
 10
-1.060854
 20
3.394689
  0
VERTEX
  8
PLAN_1
 62
     2
  6
CONTINUOUS
 10
-1.056654
 20
3.392823
  0
VERTEX
  8
PLAN_1
 62
     2
  6
CONTINUOUS
 10
-1.052917
 20
3.390488
  0
VERTEX
  8
PLAN_1
 62
     2
  6
CONTINUOUS
 10
-1.051516
 20
3.388618
  0
VERTEX
  8
PLAN_1
 62
     2
  6
CONTINUOUS
 10
-1.050114
 20
3.387217
  0
VERTEX
  8
PLAN_1
 62
     2
  6
CONTINUOUS
 10
-1.048713
 20
3.384882
  0
VERTEX
  8
PLAN_1
 62
     2
  6
CONTINUOUS
 10
-1.047311
 20
3.383016
  0
VERTEX
  8
PLAN_1
 62
     2
  6
CONTINUOUS
 10
-1.046846
 20
3.380681
  0
VERTEX
  8
PLAN_1
 62
     2
  6
CONTINUOUS
 10
-1.045909
 20
3.378346
  0
VERTEX
  8
PLAN_1
 62
     2
  6
CONTINUOUS
 10
-1.045445
 20
3.375543
  0
VERTEX
  8
PLAN_1
 62
     2
  6
CONTINUOUS
 10
-1.045445
 20
3.373209
  0
VERTEX
  8
PLAN_1
 62
     2
  6
CONTINUOUS
 10
-1.045445
 20
3.369472
  0
VERTEX
  8
PLAN_1
 62
     2
  6
CONTINUOUS
 10
-1.046378
 20
3.365736
  0
VERTEX
  8
PLAN_1
 62
     2
  6
CONTINUOUS
 10
-1.047780
 20
3.361067
  0
VERTEX
  8
PLAN_1
 62
     2
  6
CONTINUOUS
 10
-1.050114
 20
3.356862
  0
VERTEX
  8
PLAN_1
 62
     2
  6
CONTINUOUS
 10
-1.051516
 20
3.354996
  0
VERTEX
  8
PLAN_1
 62
     2
  6
CONTINUOUS
 10
-1.053382
 20
3.353126
  0
VERTEX
  8
PLAN_1
 62
     2
  6
CONTINUOUS
 10
-1.055717
 20
3.351724
  0
VERTEX
  8
PLAN_1
 62
     2
  6
CONTINUOUS
 10
-1.058051
 20
3.350323
  0
VERTEX
  8
PLAN_1
 62
     2
  6
CONTINUOUS
 10
-1.060854
 20
3.348925
  0
VERTEX
  8
PLAN_1
 62
     2
  6
CONTINUOUS
 10
-1.064122
 20
3.347988
  0
VERTEX
  8
PLAN_1
 62
     2
  6
CONTINUOUS
 10
-1.067858
 20
3.347524
  0
VERTEX
  8
PLAN_1
 62
     2
  6
CONTINUOUS
 10
-1.072063
 20
3.347524
  0
VERTEX
  8
PLAN_1
 62
     2
  6
CONTINUOUS
 10
-1.075799
 20
3.347524
  0
VERTEX
  8
PLAN_1
 62
     2
  6
CONTINUOUS
 10
-1.079535
 20
3.347988
  0
VERTEX
  8
PLAN_1
 62
     2
  6
CONTINUOUS
 10
-1.083272
 20
3.349390
  0
VERTEX
  8
PLAN_1
 62
     2
  6
CONTINUOUS
 10
-1.086539
 20
3.351260
  0
VERTEX
  8
PLAN_1
 62
     2
  6
CONTINUOUS
 10
-1.088409
 20
3.352661
  0
VERTEX
  8
PLAN_1
 62
     2
  6
CONTINUOUS
 10
-1.089807
 20
3.354059
  0
VERTEX
  8
PLAN_1
 62
     2
  6
CONTINUOUS
 10
-1.091209
 20
3.355461
  0
VERTEX
  8
PLAN_1
 62
     2
  6
CONTINUOUS
 10
-1.092610
 20
3.357331
  0
VERTEX
  8
PLAN_1
 62
     2
  6
CONTINUOUS
 10
-1.093543
 20
3.359665
  0
VERTEX
  8
PLAN_1
 62
     2
  6
CONTINUOUS
 10
-1.094480
 20
3.362000
  0
VERTEX
  8
PLAN_1
 62
     2
  6
CONTINUOUS
 10
-1.094945
 20
3.364335
  0
VERTEX
  8
PLAN_1
 62
     2
  6
CONTINUOUS
 10
-1.095413
 20
3.367602
  0
VERTEX
  8
PLAN_1
 62
     2
  6
CONTINUOUS
 10
-1.086071
 20
3.367602
  0
VERTEX
  8
PLAN_1
 62
     2
  6
CONTINUOUS
 10
-1.085606
 20
3.364335
  0
VERTEX
  8
PLAN_1
 62
     2
  6
CONTINUOUS
 10
-1.084673
 20
3.362000
  0
VERTEX
  8
PLAN_1
 62
     2
  6
CONTINUOUS
 10
-1.082803
 20
3.359665
  0
VERTEX
  8
PLAN_1
 62
     2
  6
CONTINUOUS
 10
-1.080937
 20
3.358264
  0
VERTEX
  8
PLAN_1
 62
     2
  6
CONTINUOUS
 10
-1.079067
 20
3.356862
  0
VERTEX
  8
PLAN_1
 62
     2
  6
CONTINUOUS
 10
-1.076264
 20
3.355929
  0
VERTEX
  8
PLAN_1
 62
     2
  6
CONTINUOUS
 10
-1.073465
 20
3.355461
  0
VERTEX
  8
PLAN_1
 62
     2
  6
CONTINUOUS
 10
-1.070661
 20
3.354996
  0
VERTEX
  8
PLAN_1
 62
     2
  6
CONTINUOUS
 10
-1.067394
 20
3.355461
  0
VERTEX
  8
PLAN_1
 62
     2
  6
CONTINUOUS
 10
-1.064122
 20
3.356394
  0
VERTEX
  8
PLAN_1
 62
     2
  6
CONTINUOUS
 10
-1.061787
 20
3.358264
  0
VERTEX
  8
PLAN_1
 62
     2
  6
CONTINUOUS
 10
-1.059453
 20
3.360130
  0
VERTEX
  8
PLAN_1
 62
     2
  6
CONTINUOUS
 10
-1.057587
 20
3.362469
  0
VERTEX
  8
PLAN_1
 62
     2
  6
CONTINUOUS
 10
-1.056185
 20
3.365268
  0
VERTEX
  8
PLAN_1
 62
     2
  6
CONTINUOUS
 10
-1.055717
 20
3.368539
  0
VERTEX
  8
PLAN_1
 62
     2
  6
CONTINUOUS
 10
-1.055252
 20
3.371807
  0
VERTEX
  8
PLAN_1
 62
     2
  6
CONTINUOUS
 10
-1.055717
 20
3.375543
  0
VERTEX
  8
PLAN_1
 62
     2
  6
CONTINUOUS
 10
-1.056654
 20
3.378811
  0
VERTEX
  8
PLAN_1
 62
     2
  6
CONTINUOUS
 10
-1.058051
 20
3.381614
  0
VERTEX
  8
PLAN_1
 62
     2
  6
CONTINUOUS
 10
-1.059921
 20
3.383949
  0
VERTEX
  8
PLAN_1
 62
     2
  6
CONTINUOUS
 10
-1.062256
 20
3.385815
  0
VERTEX
  8
PLAN_1
 62
     2
  6
CONTINUOUS
 10
-1.065059
 20
3.387217
  0
VERTEX
  8
PLAN_1
 62
     2
  6
CONTINUOUS
 10
-1.068327
 20
3.387685
  0
VERTEX
  8
PLAN_1
 62
     2
  6
CONTINUOUS
 10
-1.071594
 20
3.388154
  0
VERTEX
  8
PLAN_1
 62
     2
  6
CONTINUOUS
 10
-1.073465
 20
3.388154
  0
VERTEX
  8
PLAN_1
 62
     2
  6
CONTINUOUS
 10
-1.075331
 20
3.387685
  0
VERTEX
  8
PLAN_1
 62
     2
  6
CONTINUOUS
 10
-1.077201
 20
3.387217
  0
VERTEX
  8
PLAN_1
 62
     2
  6
CONTINUOUS
 10
-1.079067
 20
3.386283
  0
VERTEX
  8
PLAN_1
 62
     2
  6
CONTINUOUS
 10
-1.080469
 20
3.385350
  0
VERTEX
  8
PLAN_1
 62
     2
  6
CONTINUOUS
 10
-1.082339
 20
3.383949
  0
VERTEX
  8
PLAN_1
 62
     2
  6
CONTINUOUS
 10
-1.083736
 20
3.383016
  0
VERTEX
  8
PLAN_1
 62
     2
  6
CONTINUOUS
 10
-1.085138
 20
3.381146
  0
VERTEX
  8
PLAN_1
 62
     2
  6
CONTINUOUS
 10
-1.093079
 20
3.381614
  0
VERTEX
  8
PLAN_1
 62
     2
  6
CONTINUOUS
 10
-1.087472
 20
3.420843
  0
VERTEX
  8
PLAN_1
 62
     2
  6
CONTINUOUS
 10
-1.049646
 20
3.420843
  0
VERTEX
  8
PLAN_1
 62
     2
  6
CONTINUOUS
 10
-1.049646
 20
3.411969
  0
VERTEX
  8
PLAN_1
 62
     2
  6
CONTINUOUS
 10
-1.080469
 20
3.411969
  0
VERTEX
  8
PLAN_1
 62
     2
  6
CONTINUOUS
 10
-1.083736
 20
3.391886
  0
SEQEND
  8
0
  0
POLYLINE
  8
PLAN_1
 62
     2
  6
CONTINUOUS
 66
     1
 40
0.004201
 41
0.004201
  0
VERTEX
  8
PLAN_1
 62
     2
  6
CONTINUOUS
 10
-0.962319
 20
3.192012
  0
VERTEX
  8
PLAN_1
 62
     2
  6
CONTINUOUS
 10
-0.962319
 20
3.349390
  0
SEQEND
  8
0
  0
POLYLINE
  8
PLAN_1
 62
     2
  6
CONTINUOUS
 66
     1
 40
0.004201
 41
0.004201
  0
VERTEX
  8
PLAN_1
 62
     2
  6
CONTINUOUS
 10
-0.748898
 20
3.192012
  0
VERTEX
  8
PLAN_1
 62
     2
  6
CONTINUOUS
 10
-0.748898
 20
3.349390
  0
SEQEND
  8
0
  0
POLYLINE
  8
PLAN_1
 62
     2
  6
CONTINUOUS
 66
     1
 40
0.004201
 41
0.004201
  0
VERTEX
  8
PLAN_1
 62
     2
  6
CONTINUOUS
 10
-0.853508
 20
3.192480
  0
VERTEX
  8
PLAN_1
 62
     2
  6
CONTINUOUS
 10
-0.853508
 20
3.302689
  0
SEQEND
  8
0
  0
POLYLINE
  8
PLAN_1
 62
     2
  6
CONTINUOUS
 66
     1
 40
0.004201
 41
0.004201
  0
VERTEX
  8
PLAN_1
 62
     2
  6
CONTINUOUS
 10
-0.853508
 20
3.347524
  0
VERTEX
  8
PLAN_1
 62
     2
  6
CONTINUOUS
 10
-0.853508
 20
3.506768
  0
SEQEND
  8
0
  0
POLYLINE
  8
PLAN_1
 62
     2
  6
CONTINUOUS
 66
     1
 40
0.004201
 41
0.004201
  0
VERTEX
  8
PLAN_1
 62
     2
  6
CONTINUOUS
 10
-0.280965
 20
3.665547
  0
VERTEX
  8
PLAN_1
 62
     2
  6
CONTINUOUS
 10
-0.280965
 20
1.956331
  0
SEQEND
  8
0
  0
POLYLINE
  8
PLAN_1
 62
     2
  6
CONTINUOUS
 66
     1
 40
0.004201
 41
0.004201
  0
VERTEX
  8
PLAN_1
 62
     2
  6
CONTINUOUS
 10
-1.842146
 20
3.192012
  0
VERTEX
  8
PLAN_1
 62
     2
  6
CONTINUOUS
 10
-1.842146
 20
3.663681
  0
SEQEND
  8
0
  0
ENDSEC
  0
EOF
