999
DXF file: C:\Users\sesa63760\Dev\_Creo\CAD\MCADID0000385_3D-CAD\drw0001_1.dxf
999
Pro/ENGINEER 2019471 by Parametric Technology Corporation
  0
SECTION
  2
HEADER
  9
$ACADVER
  1
AC1024
  9
$DWGCODEPAGE
  3
ANSI_1252
  9
$EXTMAX
 10
272.5235628079
 20
385.4261816855
 30
0.0
  9
$EXTMIN
 10
0.0
 20
0.0
 30
0.0
  9
$LIMMIN
 10
0.0
 20
0.0
  9
$LIMMAX
 10
272.5235628079
 20
385.4261816855
  9
$VIEWCTR
 10
136.261781404
 20
192.7130908428
  9
$VIEWSIZE
 40
385.4261816855
  9
$CLAYER
  8
0
  9
$LTSCALE
 40
25.1240770284
  9
$CELTYPE
  6
BYLAYER
  9
$DIMSCALE
 40
1.0
  9
$DIMASZ
 40
3.2443281287
  9
$DIMEXO
 40
1.0
  9
$DIMDLI
 40
17.3584532196
  9
$DIMEXE
 40
1.0
  9
$DIMCEN
 40
4.1112126046
  9
$DIMLFAC
 40
1.0
  9
$DIMBLK
  1
_FILLED
  9
$DIMALT
 70
0
  9
$DIMALTF
 40
0.0393700787
  9
$DIMTXT
 40
4.5420593801
  9
$DIMTOL
 70
1
  9
$DIMLIM
 70
0
  9
$DIMTFAC
 40
1.0
  9
$DIMTP
 40
0.01
  9
$DIMTM
 40
0.01
  9
$DIMGAP
 40
0.625
  9
$DIMDSEP
 70
46
  9
$AUNITS
 70
0
  9
$PDMODE
 70
3
  9
$PDSIZE
 40
0.3125
  9
$HANDSEED
  5
345
  9
$TILEMODE
 70
1
  9
$MEASUREMENT
 70
1
  9
$INSUNITS
 70
4
  0
ENDSEC
  0
SECTION
  2
CLASSES
  0
CLASS
  1
ACDBDICTIONARYWDFLT
  2
AcDbDictionaryWithDefault
  3
AutoCAD 2000
 90
0
 91
1
280
0
281
0
  0
CLASS
  1
ACDBPLACEHOLDER
  2
AcDbPlaceHolder
  3
AutoCAD 2000
 90
0
 91
1
280
0
281
0
  0
CLASS
  1
LAYOUT
  2
AcDbLayout
  3
AutoCAD 2000
 90
0
 91
0
280
0
281
0
  0
ENDSEC
  0
SECTION
  2
TABLES
  0
TABLE
  2
VPORT
  5
8
100
AcDbSymbolTable
 70
2
  0
VPORT
  5
1F4
100
AcDbSymbolTableRecord
100
AcDbViewportTableRecord
  2
*ACTIVE
 70
0
 10
0.0
 20
0.0
 11
1.0
 21
1.0
 12
136.261781404
 22
192.7130908428
 13
0.0
 23
0.0
 14
1.0
 24
1.0
 15
0.0
 25
0.0
 16
0.0
 26
0.0
 36
1.0
 17
0.0
 27
0.0
 37
0.0
 40
385.4261816855
 41
0.7070707071
 42
50.0
 43
0.0
 44
0.0
 50
0.0
 51
0.0
 71
0
 72
100
 73
1
 74
1
 75
0
 76
0
 77
0
 78
0
  0
ENDTAB
  0
TABLE
  2
LTYPE
  5
5
100
AcDbSymbolTable
 70
6
  0
LTYPE
  5
14
100
AcDbSymbolTableRecord
100
AcDbLinetypeTableRecord
  2
BYBLOCK
 70
0
  3

 72
65
 73
0
 40
0.0
  0
LTYPE
  5
15
100
AcDbSymbolTableRecord
100
AcDbLinetypeTableRecord
  2
BYLAYER
 70
0
  3

 72
65
 73
0
 40
0.0
  0
LTYPE
  5
16
100
AcDbSymbolTableRecord
100
AcDbLinetypeTableRecord
  2
CONTINUOUS
 70
64
  3
Solid line
 72
65
 73
0
 40
0.0
  0
LTYPE
  5
1F5
100
AcDbSymbolTableRecord
100
AcDbLinetypeTableRecord
  2
CENTER
 70
64
  3
____ _ ____ _ ____ _ ____ _ ____ _ ____ _ ____
 72
65
 73
4
 40
0.6
 49
0.375
 74
0
 49
-0.075
 74
0
 49
0.075
 74
0
 49
-0.075
 74
0
  0
LTYPE
  5
1F6
100
AcDbSymbolTableRecord
100
AcDbLinetypeTableRecord
  2
HIDDEN
 70
64
  3
- - - - - - - - - - - - - - - - - - - -
 72
65
 73
2
 40
0.2
 49
0.1
 74
0
 49
-0.1
 74
0
  0
LTYPE
  5
1F7
100
AcDbSymbolTableRecord
100
AcDbLinetypeTableRecord
  2
PHANTOM
 70
64
  3
_____ _ _ _____ _ _ _____ _ _ _____
 72
65
 73
6
 40
0.8
 49
0.45
 74
0
 49
-0.05
 74
0
 49
0.1
 74
0
 49
-0.05
 74
0
 49
0.1
 74
0
 49
-0.05
 74
0
  0
LTYPE
  5
1F8
100
AcDbSymbolTableRecord
100
AcDbLinetypeTableRecord
  2
DOT
 70
64
  3
. . . . . . . . . . . . . . . . . . . .
 72
65
 73
2
 40
0.2
 49
0.1
 74
0
 49
-0.1
 74
0
  0
LTYPE
  5
1F9
100
AcDbSymbolTableRecord
100
AcDbLinetypeTableRecord
  2
DASHED
 70
64
  3
- - - - - - - - - - - - - - - - - - - -
 72
65
 73
2
 40
0.2
 49
0.1
 74
0
 49
-0.1
 74
0
  0
ENDTAB
  0
TABLE
  2
LAYER
  5
2
100
AcDbSymbolTable
 70
36
  0
LAYER
  5
10
100
AcDbSymbolTableRecord
100
AcDbLayerTableRecord
  2
0
 70
0
 62
7
  6
CONTINUOUS
370
-3
390
F
  0
LAYER
  5
1FA
100
AcDbSymbolTableRecord
100
AcDbLayerTableRecord
  2
DEFAULT_1
 70
0
 62
7
  6
CENTER
370
-3
390
F
  0
LAYER
  5
1FB
100
AcDbSymbolTableRecord
100
AcDbLayerTableRecord
  2
DEFAULT_2
 70
0
 62
8
  6
HIDDEN
370
-3
390
F
  0
LAYER
  5
1FC
100
AcDbSymbolTableRecord
100
AcDbLayerTableRecord
  2
DEFAULT_3
 70
0
 62
7
  6
PHANTOM
370
-3
390
F
  0
LAYER
  5
1FD
100
AcDbSymbolTableRecord
100
AcDbLayerTableRecord
  2
00_COMPONENTS
 70
0
 62
7
  6
CONTINUOUS
370
-3
390
F
  0
LAYER
  5
1FE
100
AcDbSymbolTableRecord
100
AcDbLayerTableRecord
  2
01_1_DEFAULT_DATUMS
 70
0
 62
7
  6
CONTINUOUS
370
-3
390
F
  0
LAYER
  5
1FF
100
AcDbSymbolTableRecord
100
AcDbLayerTableRecord
  2
01_PLANES
 70
0
 62
7
  6
CONTINUOUS
370
-3
390
F
  0
LAYER
  5
200
100
AcDbSymbolTableRecord
100
AcDbLayerTableRecord
  2
02_COORD_SYS
 70
0
 62
7
  6
CONTINUOUS
370
-3
390
F
  0
LAYER
  5
201
100
AcDbSymbolTableRecord
100
AcDbLayerTableRecord
  2
03_AXES
 70
0
 62
7
  6
CONTINUOUS
370
-3
390
F
  0
LAYER
  5
202
100
AcDbSymbolTableRecord
100
AcDbLayerTableRecord
  2
04_POINTS
 70
0
 62
7
  6
CONTINUOUS
370
-3
390
F
  0
LAYER
  5
203
100
AcDbSymbolTableRecord
100
AcDbLayerTableRecord
  2
05_CURVES
 70
0
 62
7
  6
CONTINUOUS
370
-3
390
F
  0
LAYER
  5
204
100
AcDbSymbolTableRecord
100
AcDbLayerTableRecord
  2
06_SURFS
 70
0
 62
7
  6
CONTINUOUS
370
-3
390
F
  0
LAYER
  5
205
100
AcDbSymbolTableRecord
100
AcDbLayerTableRecord
  2
07_COSMETICS
 70
0
 62
7
  6
CONTINUOUS
370
-3
390
F
  0
LAYER
  5
206
100
AcDbSymbolTableRecord
100
AcDbLayerTableRecord
  2
10_NOTES
 70
0
 62
7
  6
CONTINUOUS
370
-3
390
F
  0
LAYER
  5
207
100
AcDbSymbolTableRecord
100
AcDbLayerTableRecord
  2
11_NOTES_PUB
 70
0
 62
7
  6
CONTINUOUS
370
-3
390
F
  0
LAYER
  5
208
100
AcDbSymbolTableRecord
100
AcDbLayerTableRecord
  2
13_REF_GTOL
 70
0
 62
7
  6
CONTINUOUS
370
-3
390
F
  0
LAYER
  5
209
100
AcDbSymbolTableRecord
100
AcDbLayerTableRecord
  2
16_MISC
 70
0
 62
7
  6
CONTINUOUS
370
-3
390
F
  0
LAYER
  5
20A
100
AcDbSymbolTableRecord
100
AcDbLayerTableRecord
  2
17_NO_PRINT
 70
0
 62
7
  6
CONTINUOUS
370
-3
390
F
  0
LAYER
  5
20B
100
AcDbSymbolTableRecord
100
AcDbLayerTableRecord
  2
18_DATUM_CAMS_JOINTS
 70
0
 62
7
  6
CONTINUOUS
370
-3
390
F
  0
LAYER
  5
20C
100
AcDbSymbolTableRecord
100
AcDbLayerTableRecord
  2
19_DATUM_FUNCTIONAL
 70
0
 62
7
  6
CONTINUOUS
370
-3
390
F
  0
LAYER
  5
20D
100
AcDbSymbolTableRecord
100
AcDbLayerTableRecord
  2
20_DATUM_KINEMATIC_SCHEME
 70
0
 62
7
  6
CONTINUOUS
370
-3
390
F
  0
ENDTAB
  0
TABLE
  2
STYLE
  5
3
100
AcDbSymbolTable
 70
1
  0
STYLE
  5
11
100
AcDbSymbolTableRecord
100
AcDbTextStyleTableRecord
  2
STANDARD
 70
0
 40
0.0
 41
0.8
 50
0.0
 71
0
 42
0.2
  3
txt
  4

  0
STYLE
  5
20E
100
AcDbSymbolTableRecord
100
AcDbTextStyleTableRecord
  2
TEXTSTYLE_1
 70
0
 40
0.0
 41
0.8
 50
0.0
 71
0
 42
0.2
  3
gdt
  4

  0
ENDTAB
  0
TABLE
  2
VIEW
  5
6
100
AcDbSymbolTable
 70
0
  0
ENDTAB
  0
TABLE
  2
UCS
  5
7
100
AcDbSymbolTable
 70
0
  0
ENDTAB
  0
TABLE
  2
APPID
  5
9
100
AcDbSymbolTable
 70
1
  0
APPID
  5
20F
100
AcDbSymbolTableRecord
100
AcDbRegAppTableRecord
  2
ACAD
 70
0
  0
ENDTAB
  0
TABLE
  2
BLOCK_RECORD
  5
1
100
AcDbSymbolTable
 70
0
  0
BLOCK_RECORD
  5
210
100
AcDbSymbolTableRecord
100
AcDbBlockTableRecord
  2
*Model_Space
  0
BLOCK_RECORD
  5
211
100
AcDbSymbolTableRecord
100
AcDbBlockTableRecord
  2
*Paper_Space
  0
BLOCK_RECORD
  5
212
100
AcDbSymbolTableRecord
100
AcDbBlockTableRecord
  2
_FILLED
  0
ENDTAB
  0
TABLE
  2
DIMSTYLE
  5
A
100
AcDbSymbolTable
 70
1
100
AcDbDimStyleTable
 71
0
  0
DIMSTYLE
105
213
100
AcDbSymbolTableRecord
100
AcDbDimStyleTableRecord
  2
STANDARD
 70
0
  3

  4

 40
1.0
 41
3.2443281287
 42
1.0
 43
0.38
 44
1.0
 45
0.0
 46
0.0
 47
0.01
 48
0.01
140
4.5420593801
141
0.09
142
0.0
143
25.4
144
1.0
145
0.0
146
1.0
147
0.625
 71
1
 72
0
 73
0
 74
0
 75
0
 76
0
 77
1
 78
8
 79
2
170
0
171
1
172
0
173
0
174
0
175
0
176
0
177
0
178
0
270
2
179
2
271
2
272
2
273
2
274
2
275
0
280
0
281
0
282
0
283
1
284
8
285
0
286
0
287
3
288
0
340
11
278
46
341
212
342
212
343
212
344
212
  0
ENDTAB
  0
ENDSEC
  0
SECTION
  2
BLOCKS
  0
BLOCK
  5
20
100
AcDbEntity
  8
0
100
AcDbBlockBegin
  2
*Model_Space
 70
0
 10
0.0
 20
0.0
 30
0.0
  3
*Model_Space
  1

  0
ENDBLK
  5
21
100
AcDbEntity
  8
0
100
AcDbBlockEnd
  0
BLOCK
  5
1C
100
AcDbEntity
  8
0
100
AcDbBlockBegin
  2
*Paper_Space
 70
0
 10
0.0
 20
0.0
 30
0.0
  3
*Paper_Space
  1

  0
ENDBLK
  5
1D
100
AcDbEntity
  8
0
100
AcDbBlockEnd
  0
BLOCK
  5
214
100
AcDbEntity
  8
0
100
AcDbBlockBegin
  2
_FILLED
 70
64
 10
0.0
 20
0.0
  3
_FILLED
  1

  0
SOLID
  5
215
100
AcDbEntity
  8
0
  6
BYBLOCK
 62
0
100
AcDbTrace
 10
0.0
 20
0.0
 11
-1.0
 21
0.25
 12
-1.0
 22
-0.25
 13
-1.0
 23
-0.25
  0
ENDBLK
  5
216
100
AcDbEntity
  8
0
  6
BYBLOCK
 62
0
100
AcDbBlockEnd
  0
ENDSEC
  0
SECTION
  2
ENTITIES
  0
LINE
  5
217
100
AcDbEntity
  8
0
100
AcDbLine
 62
7
  6
CONTINUOUS
 10
32.3011033577
 20
178.8870046342
 11
32.3011033577
 21
194.5398174464
  0
LINE
  5
218
100
AcDbEntity
  8
0
100
AcDbLine
 62
7
  6
CONTINUOUS
 10
36.8973165712
 20
191.886252542
 11
36.8973165712
 21
176.2334397298
  0
LINE
  5
219
100
AcDbEntity
  8
0
100
AcDbLine
 62
7
  6
CONTINUOUS
 10
32.0066130606
 20
208.7128369896
 11
34.4224842141
 21
228.206878557
  0
LINE
  5
21A
100
AcDbEntity
  8
0
100
AcDbLine
 62
7
  6
CONTINUOUS
 10
39.0186974276
 20
225.5533136526
 11
36.6028262741
 21
206.0592720853
  0
LINE
  5
21B
100
AcDbEntity
  8
0
100
AcDbLine
 62
7
  6
CONTINUOUS
 10
41.5151357306
 20
235.5331334932
 11
41.3802930758
 21
244.3755957847
  0
LINE
  5
21C
100
AcDbEntity
  8
0
100
AcDbLine
 62
7
  6
CONTINUOUS
 10
44.2124390273
 20
242.4995386371
 11
44.2087319764
 21
242.7426327667
  0
LINE
  5
21D
100
AcDbEntity
  8
0
100
AcDbLine
 62
7
  6
CONTINUOUS
 10
41.3802930758
 20
244.3755957847
 11
41.3802930758
 21
248.6042121785
  0
LINE
  5
21E
100
AcDbEntity
  8
0
100
AcDbLine
 62
7
  6
CONTINUOUS
 10
44.2087319764
 20
242.7426327667
 11
44.2087319764
 21
246.9710349725
  0
LINE
  5
21F
100
AcDbEntity
  8
0
100
AcDbLine
 62
7
  6
CONTINUOUS
 10
44.9505427816
 20
253.2415992537
 11
65.5360861121
 21
265.1265972931
  0
LINE
  5
220
100
AcDbEntity
  8
0
100
AcDbLine
 62
7
  6
CONTINUOUS
 10
68.3188800478
 20
258.160107299
 11
52.3751948957
 21
248.9550713312
  0
LINE
  5
221
100
AcDbEntity
  8
0
100
AcDbLine
 62
7
  6
CONTINUOUS
 10
48.8120162282
 20
244.3272789383
 11
48.8120162282
 21
240.0800862651
  0
LINE
  5
222
100
AcDbEntity
  8
0
100
AcDbLine
 62
7
  6
CONTINUOUS
 10
35.5692527176
 20
230.8013222809
 11
38.2054203985
 21
232.323305316
  0
LINE
  5
223
100
AcDbEntity
  8
0
100
AcDbLine
 62
7
  6
CONTINUOUS
 10
65.1817055771
 20
175.5566223612
 11
65.1817055771
 21
175.2555075752
  0
LINE
  5
224
100
AcDbEntity
  8
0
100
AcDbLine
 62
7
  6
CONTINUOUS
 10
67.3030864335
 20
209.2236834718
 11
64.88721528
 21
189.7296419044
  0
LINE
  5
225
100
AcDbEntity
  8
0
100
AcDbLine
 62
7
  6
CONTINUOUS
 10
42.8016336119
 20
229.6697404116
 11
40.1654659311
 21
228.1477573765
  0
LINE
  5
226
100
AcDbEntity
  8
0
100
AcDbLine
 62
7
  6
CONTINUOUS
 10
176.1906128385
 20
82.8314896946
 11
166.2910766864
 21
88.5468602579
  0
LINE
  5
227
100
AcDbEntity
  8
0
100
AcDbLine
 62
7
  6
CONTINUOUS
 10
174.4301581123
 20
86.722671951
 11
164.5306219602
 21
92.4380425143
  0
LINE
  5
228
100
AcDbEntity
  8
0
100
AcDbLine
 62
7
  6
CONTINUOUS
 10
67.3030864335
 20
160.5872991939
 11
64.88721528
 21
177.2917496913
  0
LINE
  5
229
100
AcDbEntity
  8
0
100
AcDbLine
 62
7
  6
CONTINUOUS
 10
71.247183446
 20
283.5404902048
 11
71.247183446
 21
276.0070093441
  0
LINE
  5
22A
100
AcDbEntity
  8
0
100
AcDbLine
 62
7
  6
CONTINUOUS
 10
75.5323170137
 20
258.8034180484
 11
75.5323170137
 21
246.566724117
  0
LINE
  5
22B
100
AcDbEntity
  8
0
100
AcDbLine
 62
7
  6
CONTINUOUS
 10
77.0964052341
 20
227.9976487575
 11
77.0964052341
 21
223.7504560843
  0
LINE
  5
22C
100
AcDbEntity
  8
0
100
AcDbLine
 62
7
  6
CONTINUOUS
 10
119.0000032995
 20
254.7611604783
 11
115.8097814956
 21
252.9192960555
  0
LINE
  5
22D
100
AcDbEntity
  8
0
100
AcDbLine
 62
7
  6
CONTINUOUS
 10
84.667645872
 20
234.939482995
 11
80.6595839016
 21
232.6254411504
  0
LINE
  5
22E
100
AcDbEntity
  8
0
100
AcDbLine
 62
7
  6
CONTINUOUS
 10
33.6673716217
 20
177.2021718512
 11
53.8782913999
 21
165.5336558538
  0
LINE
  5
22F
100
AcDbEntity
  8
0
100
AcDbLine
 62
7
  6
CONTINUOUS
 10
48.6875036384
 20
169.4265260458
 11
32.3011033577
 21
178.8870046342
  0
LINE
  5
230
100
AcDbEntity
  8
0
100
AcDbLine
 62
7
  6
CONTINUOUS
 10
68.4498549369
 20
159.3170217742
 11
164.5306219602
 21
103.8460199911
  0
LINE
  5
231
100
AcDbEntity
  8
0
100
AcDbLine
 62
7
  6
CONTINUOUS
 10
164.5306219602
 20
104.4542252847
 11
67.3030864335
 21
160.5872991939
  0
LINE
  5
232
100
AcDbEntity
  8
0
100
AcDbLine
 62
7
  6
CONTINUOUS
 10
84.667645872
 20
231.3643494632
 11
84.667645872
 21
235.120260582
  0
LINE
  5
233
100
AcDbEntity
  8
0
100
AcDbLine
 62
7
  6
CONTINUOUS
 10
85.5463343604
 20
230.1396170016
 11
85.5463343604
 21
233.8955281204
  0
LINE
  5
234
100
AcDbEntity
  8
0
100
AcDbLine
 62
7
  6
CONTINUOUS
 10
85.767645872
 20
235.120260582
 11
85.767645872
 21
236.1473321732
  0
LINE
  5
235
100
AcDbEntity
  8
0
100
AcDbLine
 62
7
  6
CONTINUOUS
 10
71.0860226178
 20
213.3401102308
 11
68.4498549369
 21
211.8181271957
  0
LINE
  5
236
100
AcDbEntity
  8
0
100
AcDbLine
 62
7
  6
CONTINUOUS
 10
185.3286491027
 20
99.4750464714
 11
187.8035331407
 21
98.0462038306
  0
LINE
  5
237
100
AcDbEntity
  8
0
100
AcDbLine
 62
7
  6
CONTINUOUS
 10
174.4301581123
 20
112.1823110018
 11
164.5306219602
 21
117.897681565
  0
LINE
  5
238
100
AcDbEntity
  8
0
100
AcDbLine
 62
7
  6
CONTINUOUS
 10
32.3011033577
 20
194.5398174464
 11
65.1341895864
 21
175.5840551105
  0
LINE
  5
239
100
AcDbEntity
  8
0
100
AcDbLine
 62
7
  6
CONTINUOUS
 10
64.88721528
 20
177.2917496913
 11
174.1356678152
 21
114.2185531179
  0
LINE
  5
23A
100
AcDbEntity
  8
0
100
AcDbLine
 62
7
  6
CONTINUOUS
 10
91.9103277747
 20
246.4673469249
 11
91.9103277747
 21
232.344285123
  0
LINE
  5
23B
100
AcDbEntity
  8
0
100
AcDbLine
 62
7
  6
CONTINUOUS
 10
103.9311695504
 20
225.730723228
 11
118.0732462947
 21
233.8956063055
  0
LINE
  5
23C
100
AcDbEntity
  8
0
100
AcDbLine
 62
7
  6
CONTINUOUS
 10
118.0732462947
 20
230.1396951867
 11
103.9311695504
 21
221.9748121092
  0
LINE
  5
23D
100
AcDbEntity
  8
0
100
AcDbLine
 62
7
  6
CONTINUOUS
 10
174.1356678152
 20
126.6564453311
 11
32.0066130606
 21
208.7128369896
  0
LINE
  5
23E
100
AcDbEntity
  8
0
100
AcDbLine
 62
7
  6
CONTINUOUS
 10
99.6885288633
 20
225.73071303
 11
99.6885288633
 21
221.9748019112
  0
LINE
  5
23F
100
AcDbEntity
  8
0
100
AcDbLine
 62
7
  6
CONTINUOUS
 10
99.909840375
 20
226.9554454916
 11
99.909840375
 21
228.1801991173
  0
LINE
  5
240
100
AcDbEntity
  8
0
100
AcDbLine
 62
7
  6
CONTINUOUS
 10
103.709840375
 20
226.9554454916
 11
103.709840375
 21
228.1801991173
  0
LINE
  5
241
100
AcDbEntity
  8
0
100
AcDbLine
 62
7
  6
CONTINUOUS
 10
103.9311695504
 20
221.9748121092
 11
103.9311695504
 21
225.730723228
  0
LINE
  5
242
100
AcDbEntity
  8
0
100
AcDbLine
 62
7
  6
CONTINUOUS
 10
164.5306219602
 20
134.7481040853
 11
174.4301581123
 21
129.032733522
  0
LINE
  5
243
100
AcDbEntity
  8
0
100
AcDbLine
 62
7
  6
CONTINUOUS
 10
110.1598136979
 20
263.7125432502
 11
110.1598136979
 21
286.6046771735
  0
LINE
  5
244
100
AcDbEntity
  8
0
100
AcDbLine
 62
7
  6
CONTINUOUS
 10
115.8097814956
 20
238.0597032772
 11
115.8097814956
 21
261.0038064513
  0
LINE
  5
245
100
AcDbEntity
  8
0
100
AcDbLine
 62
7
  6
CONTINUOUS
 10
117.8519171193
 20
235.120328569
 11
117.8519171193
 21
236.3450821947
  0
LINE
  5
246
100
AcDbEntity
  8
0
100
AcDbLine
 62
7
  6
CONTINUOUS
 10
118.0732462947
 20
233.8956063055
 11
118.0732462947
 21
230.1396951867
  0
LINE
  5
247
100
AcDbEntity
  8
0
100
AcDbLine
 62
7
  6
CONTINUOUS
 10
118.9519171193
 20
231.3644174502
 11
118.9519171193
 21
235.120328569
  0
LINE
  5
248
100
AcDbEntity
  8
0
100
AcDbLine
 62
7
  6
CONTINUOUS
 10
33.0613281204
 20
227.1774218273
 11
34.2125375093
 21
226.5127858129
  0
LINE
  5
249
100
AcDbEntity
  8
0
100
AcDbLine
 62
7
  6
CONTINUOUS
 10
34.4224842141
 20
228.206878557
 11
164.5306219602
 21
153.0906095626
  0
LINE
  5
24A
100
AcDbEntity
  8
0
100
AcDbLine
 62
7
  6
CONTINUOUS
 10
203.2247845918
 20
131.2892728603
 11
202.8712297293
 21
131.4933932376
  0
LINE
  5
24B
100
AcDbEntity
  8
0
100
AcDbLine
 62
7
  6
CONTINUOUS
 10
231.9056060099
 20
116.4628085093
 11
204.3283267291
 21
132.3841979356
  0
LINE
  5
24C
100
AcDbEntity
  8
0
100
AcDbLine
 62
7
  6
CONTINUOUS
 10
164.5306219602
 20
156.3471254126
 11
35.5692527176
 21
230.8013222809
  0
LINE
  5
24D
100
AcDbEntity
  8
0
100
AcDbLine
 62
7
  6
CONTINUOUS
 10
36.5612687358
 20
233.2396339391
 11
38.1769266231
 21
232.3068545253
  0
LINE
  5
24E
100
AcDbEntity
  8
0
100
AcDbLine
 62
7
  6
CONTINUOUS
 10
38.2054203985
 20
232.323305316
 11
174.4301581123
 21
153.6758701556
  0
LINE
  5
24F
100
AcDbEntity
  8
0
100
AcDbLine
 62
7
  6
CONTINUOUS
 10
65.1817055771
 20
175.2555075752
 11
48.6875036384
 21
169.4265260458
  0
LINE
  5
250
100
AcDbEntity
  8
0
100
AcDbLine
 62
7
  6
CONTINUOUS
 10
229.5844458288
 20
133.6829025241
 11
212.6138124253
 21
143.4806806326
  0
LINE
  5
251
100
AcDbEntity
  8
0
100
AcDbLine
 62
7
  6
CONTINUOUS
 10
180.4405407286
 20
164.0862160092
 11
44.2158030148
 21
242.7336511695
  0
LINE
  5
252
100
AcDbEntity
  8
0
100
AcDbLine
 62
7
  6
CONTINUOUS
 10
41.3802930758
 20
244.3755957847
 11
44.2087319764
 21
242.7426327667
  0
LINE
  5
253
100
AcDbEntity
  8
0
100
AcDbLine
 62
7
  6
CONTINUOUS
 10
212.6138124253
 20
145.9188563094
 11
229.5844458288
 21
136.1210782009
  0
LINE
  5
254
100
AcDbEntity
  8
0
100
AcDbLine
 62
7
  6
CONTINUOUS
 10
241.4054448231
 20
132.9173842413
 11
234.7057573405
 21
136.7853631076
  0
LINE
  5
255
100
AcDbEntity
  8
0
100
AcDbLine
 62
7
  6
CONTINUOUS
 10
213.8981053269
 20
148.7983948277
 11
213.8281655424
 21
148.8387736676
  0
LINE
  5
256
100
AcDbEntity
  8
0
100
AcDbLine
 62
7
  6
CONTINUOUS
 10
41.3802930758
 20
248.6039979905
 11
44.2087319764
 21
246.9710349725
  0
LINE
  5
257
100
AcDbEntity
  8
0
100
AcDbLine
 62
7
  6
CONTINUOUS
 10
44.2158030148
 20
246.9808438427
 11
174.2190827147
 21
171.9251132999
  0
LINE
  5
258
100
AcDbEntity
  8
0
100
AcDbLine
 62
7
  6
CONTINUOUS
 10
233.8270688521
 20
138.5705431241
 11
216.8564354486
 21
148.3683212326
  0
LINE
  5
259
100
AcDbEntity
  8
0
100
AcDbLine
 62
7
  6
CONTINUOUS
 10
214.2245979545
 20
150.3419394974
 11
213.871043092
 21
150.5460598747
  0
LINE
  5
25A
100
AcDbEntity
  8
0
100
AcDbLine
 62
7
  6
CONTINUOUS
 10
180.0085002847
 20
175.2676151403
 11
44.9505427816
 21
253.2415992537
  0
LINE
  5
25B
100
AcDbEntity
  8
0
100
AcDbLine
 62
7
  6
CONTINUOUS
 10
99.6885288633
 20
221.9748019112
 11
85.5463343604
 21
230.1396170016
  0
LINE
  5
25C
100
AcDbEntity
  8
0
100
AcDbLine
 62
7
  6
CONTINUOUS
 10
85.5463343604
 20
233.8955281204
 11
99.6885288633
 21
225.73071303
  0
LINE
  5
25D
100
AcDbEntity
  8
0
100
AcDbLine
 62
7
  6
CONTINUOUS
 10
91.9103277747
 20
232.344285123
 11
78.9444025889
 21
240.3717272587
  0
LINE
  5
25E
100
AcDbEntity
  8
0
100
AcDbLine
 62
7
  6
CONTINUOUS
 10
157.5185892742
 20
123.8122108491
 11
159.9344604277
 21
107.1077603518
  0
LINE
  5
25F
100
AcDbEntity
  8
0
100
AcDbLine
 62
7
  6
CONTINUOUS
 10
67.7754900502
 20
258.4738265632
 11
75.5323170137
 21
253.9955217406
  0
LINE
  5
260
100
AcDbEntity
  8
0
100
AcDbLine
 62
7
  6
CONTINUOUS
 10
115.7920762792
 20
261.0298193651
 11
115.8088744843
 21
261.0042711861
  0
LINE
  5
261
100
AcDbEntity
  8
0
100
AcDbLine
 62
7
  6
CONTINUOUS
 10
164.5306219602
 20
92.4380425143
 11
164.5306219602
 21
117.897681565
  0
LINE
  5
262
100
AcDbEntity
  8
0
100
AcDbLine
 62
7
  6
CONTINUOUS
 10
164.5306219602
 20
134.7481040853
 11
164.5306219602
 21
159.3912407189
  0
LINE
  5
263
100
AcDbEntity
  8
0
100
AcDbLine
 62
7
  6
CONTINUOUS
 10
169.7277792284
 20
174.5181099153
 11
169.7277792284
 21
170.2709172422
  0
LINE
  5
264
100
AcDbEntity
  8
0
100
AcDbLine
 62
7
  6
CONTINUOUS
 10
159.9344604277
 20
155.7441446296
 11
157.5185892742
 21
136.2501030623
  0
LINE
  5
265
100
AcDbEntity
  8
0
100
AcDbLine
 62
7
  6
CONTINUOUS
 10
211.6313772938
 20
201.2816216361
 11
173.2909578958
 21
179.1459023083
  0
LINE
  5
266
100
AcDbEntity
  8
0
100
AcDbLine
 62
7
  6
CONTINUOUS
 10
118.0732286309
 20
236.3450610306
 11
117.8066127775
 21
236.4989882831
  0
LINE
  5
267
100
AcDbEntity
  8
0
100
AcDbLine
 62
7
  6
CONTINUOUS
 10
115.8768834501
 20
237.6130928253
 11
115.7578723232
 21
237.681802377
  0
LINE
  5
268
100
AcDbEntity
  8
0
100
AcDbLine
 62
7
  6
CONTINUOUS
 10
110.1421084814
 20
286.6306900874
 11
110.1589066866
 21
286.6051419083
  0
LINE
  5
269
100
AcDbEntity
  8
0
100
AcDbLine
 62
7
  6
CONTINUOUS
 10
174.1356678152
 20
114.2185531179
 11
174.4301581123
 21
112.1823110018
  0
LINE
  5
26A
100
AcDbEntity
  8
0
100
AcDbLine
 62
7
  6
CONTINUOUS
 10
174.4301581123
 20
153.6758701556
 11
174.4301581123
 21
129.032733522
  0
LINE
  5
26B
100
AcDbEntity
  8
0
100
AcDbLine
 62
7
  6
CONTINUOUS
 10
174.4301581123
 20
112.1823110018
 11
174.4301581123
 21
86.722671951
  0
LINE
  5
26C
100
AcDbEntity
  8
0
100
AcDbLine
 62
7
  6
CONTINUOUS
 10
170.5410045765
 20
169.8015865724
 11
180.0085002847
 21
175.2676151403
  0
LINE
  5
26D
100
AcDbEntity
  8
0
100
AcDbLine
 62
7
  6
CONTINUOUS
 10
218.3489196827
 20
197.4033344681
 11
227.8164153909
 21
202.869363036
  0
LINE
  5
26E
100
AcDbEntity
  8
0
100
AcDbLine
 62
7
  6
CONTINUOUS
 10
163.7173966121
 20
159.8605713887
 11
161.0812289312
 21
158.3385883535
  0
LINE
  5
26F
100
AcDbEntity
  8
0
100
AcDbLine
 62
7
  6
CONTINUOUS
 10
232.8278431689
 20
181.7479251318
 11
235.3027272069
 21
180.319082491
  0
LINE
  5
270
100
AcDbEntity
  8
0
100
AcDbLine
 62
7
  6
CONTINUOUS
 10
63.1861868401
 20
283.4623361536
 11
71.247183446
 21
278.8084228789
  0
LINE
  5
271
100
AcDbEntity
  8
0
100
AcDbLine
 62
7
  6
CONTINUOUS
 10
174.4301581123
 20
129.032733522
 11
174.1356678152
 21
126.6564453311
  0
LINE
  5
272
100
AcDbEntity
  8
0
100
AcDbLine
 62
7
  6
CONTINUOUS
 10
237.7159515429
 20
197.1539924727
 11
180.4405407286
 21
164.0862160092
  0
LINE
  5
273
100
AcDbEntity
  8
0
100
AcDbLine
 62
7
  6
CONTINUOUS
 10
91.4979335109
 20
272.6014524455
 11
115.7939102071
 21
261.0289458974
  0
LINE
  5
274
100
AcDbEntity
  8
0
100
AcDbLine
 62
7
  6
CONTINUOUS
 10
115.8097814956
 20
256.6029942277
 11
218.3489196827
 21
197.4033344681
  0
LINE
  5
275
100
AcDbEntity
  8
0
100
AcDbLine
 62
7
  6
CONTINUOUS
 10
79.2752949294
 20
278.392523502
 11
88.7310000735
 21
272.9333930937
  0
LINE
  5
276
100
AcDbEntity
  8
0
100
AcDbLine
 62
7
  6
CONTINUOUS
 10
219.6858594476
 20
198.1752123938
 11
115.8097814956
 21
258.1467372245
  0
LINE
  5
277
100
AcDbEntity
  8
0
100
AcDbLine
 62
7
  6
CONTINUOUS
 10
227.8164153909
 20
202.869363036
 11
237.7159515429
 21
197.1539924727
  0
LINE
  5
278
100
AcDbEntity
  8
0
100
AcDbLine
 62
7
  6
CONTINUOUS
 10
241.9658794331
 20
197.5749794915
 11
232.066343281
 21
203.2903500548
  0
LINE
  5
279
100
AcDbEntity
  8
0
100
AcDbLine
 62
7
  6
CONTINUOUS
 10
87.2621851634
 20
297.5287110692
 11
110.1439424093
 21
286.6298166197
  0
LINE
  5
27A
100
AcDbEntity
  8
0
100
AcDbLine
 62
7
  6
CONTINUOUS
 10
74.6859917193
 20
303.3810330925
 11
84.2467320903
 21
297.8612619395
  0
LINE
  5
27B
100
AcDbEntity
  8
0
100
AcDbLine
 62
7
  6
CONTINUOUS
 10
211.7351239369
 20
144.9064796095
 11
211.7351239369
 21
147.143588771
  0
LINE
  5
27C
100
AcDbEntity
  8
0
100
AcDbLine
 62
7
  6
CONTINUOUS
 10
212.6138124253
 20
143.4806806326
 11
212.6138124253
 21
145.9188563094
  0
LINE
  5
27D
100
AcDbEntity
  8
0
100
AcDbLine
 62
7
  6
CONTINUOUS
 10
229.5844458288
 20
136.1210782009
 11
229.5844458288
 21
133.6829025241
  0
LINE
  5
27E
100
AcDbEntity
  8
0
100
AcDbLine
 62
7
  6
CONTINUOUS
 10
234.7057573405
 20
135.108701501
 11
234.7057573405
 21
137.3458106625
  0
LINE
  5
27F
100
AcDbEntity
  8
0
100
AcDbLine
 62
7
  6
CONTINUOUS
 10
237.3626351416
 20
128.201067223
 11
238.5736765758
 21
128.6422836373
  0
LINE
  5
280
100
AcDbEntity
  8
0
100
AcDbLine
 62
7
  6
CONTINUOUS
 10
243.3730177577
 20
127.7519887198
 11
243.3730118698
 21
128.5684804271
  0
LINE
  5
281
100
AcDbEntity
  8
0
100
AcDbLine
 62
7
  6
CONTINUOUS
 10
243.7263341592
 20
126.7305990304
 11
243.7263341592
 21
147.944070847
  0
LINE
  5
282
100
AcDbEntity
  8
0
100
AcDbLine
 62
7
  6
CONTINUOUS
 10
243.7263341592
 20
169.0406606014
 11
243.7263341592
 21
193.6837972351
  0
LINE
  5
283
100
AcDbEntity
  8
0
100
AcDbLine
 62
7
  6
CONTINUOUS
 10
233.8774185555
 20
138.534607425
 11
233.8831726418
 21
138.5524427297
  0
LINE
  5
284
100
AcDbEntity
  8
0
100
AcDbLine
 62
7
  6
CONTINUOUS
 10
234.0123719598
 20
138.5214622084
 11
234.0193458369
 21
138.5392768453
  0
LINE
  5
285
100
AcDbEntity
  8
0
100
AcDbLine
 62
7
  6
CONTINUOUS
 10
237.3626351416
 20
117.3415850752
 11
236.6555254165
 21
116.9333234126
  0
LINE
  5
286
100
AcDbEntity
  8
0
100
AcDbLine
 62
7
  6
CONTINUOUS
 10
180.4405407286
 20
83.2524767133
 11
206.239352002
 21
98.1473384365
  0
LINE
  5
287
100
AcDbEntity
  8
0
100
AcDbLine
 62
7
  6
CONTINUOUS
 10
216.8725228547
 20
104.2863658456
 11
237.7159515429
 21
116.3202531769
  0
ARC
  5
288
100
AcDbEntity
  8
0
100
AcDbCircle
 62
7
  6
CONTINUOUS
 10
116.505732748
 20
194.4593771895
 40
92.603967744
100
AcDbArc
 50
140.5970709474
 51
144.2187384308
  0
ARC
  5
289
100
AcDbEntity
  8
0
100
AcDbCircle
 62
7
  6
CONTINUOUS
 10
123.8030226559
 20
190.2734276009
 40
92.4417107665
100
AcDbArc
 50
140.5951317542
 51
144.2157688581
  0
ARC
  5
28A
100
AcDbEntity
  8
0
100
AcDbCircle
 62
7
  6
CONTINUOUS
 10
244.7187856562
 20
120.4642585778
 40
92.4417107667
100
AcDbArc
 50
140.5951317542
 51
144.2157688581
  0
ARC
  5
28B
100
AcDbEntity
  8
0
100
AcDbCircle
 62
7
  6
CONTINUOUS
 10
152.0874116619
 20
173.94379742
 40
92.4417107666
100
AcDbArc
 50
140.5951317542
 51
144.2157688581
  0
ARC
  5
28C
100
AcDbEntity
  8
0
100
AcDbCircle
 62
7
  6
CONTINUOUS
 10
123.6103722227
 20
189.7136616546
 40
91.8707358193
100
AcDbArc
 50
155.2695584256
 51
157.0386835079
  0
ARC
  5
28D
100
AcDbEntity
  8
0
100
AcDbCircle
 62
7
  6
CONTINUOUS
 10
151.8947612287
 20
173.3840314737
 40
91.8707358194
100
AcDbArc
 50
155.2695584256
 51
157.0386835079
  0
ARC
  5
28E
100
AcDbEntity
  8
0
100
AcDbCircle
 62
7
  6
CONTINUOUS
 10
244.5261352231
 20
119.9044926315
 40
91.8707358196
100
AcDbArc
 50
155.2695584256
 51
157.0386835079
  0
ARC
  5
28F
100
AcDbEntity
  8
0
100
AcDbCircle
 62
7
  6
CONTINUOUS
 10
123.2169890202
 20
190.7246454542
 40
91.7024661206
100
AcDbArc
 50
140.5805332459
 51
144.2303673665
  0
ARC
  5
290
100
AcDbEntity
  8
0
100
AcDbCircle
 62
7
  6
CONTINUOUS
 10
151.5013780261
 20
174.3950152734
 40
91.7024661207
100
AcDbArc
 50
140.5805332459
 51
144.2303673665
  0
ARC
  5
291
100
AcDbEntity
  8
0
100
AcDbCircle
 62
7
  6
CONTINUOUS
 10
244.1327520203
 20
120.9154764313
 40
91.7024661205
100
AcDbArc
 50
140.5805332459
 51
144.2303673665
  0
ARC
  5
292
100
AcDbEntity
  8
0
100
AcDbCircle
 62
7
  6
CONTINUOUS
 10
118.7438443027
 20
192.4867081991
 40
91.5752277506
100
AcDbArc
 50
155.2667037646
 51
157.041538169
  0
ARC
  5
293
100
AcDbEntity
  8
0
100
AcDbCircle
 62
7
  6
CONTINUOUS
 10
123.3400575165
 20
189.8331432946
 40
91.575227751
100
AcDbArc
 50
155.2667037646
 51
157.041538169
  0
ARC
  5
294
100
AcDbEntity
  8
0
100
AcDbCircle
 62
7
  6
CONTINUOUS
 10
151.6244465223
 20
173.5035131138
 40
91.5752277509
100
AcDbArc
 50
155.2667037646
 51
157.041538169
  0
ARC
  5
295
100
AcDbEntity
  8
0
100
AcDbCircle
 62
7
  6
CONTINUOUS
 10
244.2558205156
 20
120.0239742721
 40
91.5752277499
100
AcDbArc
 50
155.2667037645
 51
157.041538169
  0
ARC
  5
296
100
AcDbEntity
  8
0
100
AcDbCircle
 62
7
  6
CONTINUOUS
 10
113.5255446777
 20
183.2531513774
 40
49.0510343523
100
AcDbArc
 50
177.9337160121
 51
179.6680989586
  0
ARC
  5
297
100
AcDbEntity
  8
0
100
AcDbCircle
 62
7
  6
CONTINUOUS
 10
109.8640218669
 20
183.2691230638
 40
45.3894807572
100
AcDbArc
 50
179.661485938
 51
183.4587820595
  0
ARC
  5
298
100
AcDbEntity
  8
0
100
AcDbCircle
 62
7
  6
CONTINUOUS
 10
105.6709745547
 20
183.0515245711
 40
41.190958965
100
AcDbArc
 50
183.508532417
 51
185.8027472469
  0
ARC
  5
299
100
AcDbEntity
  8
0
100
AcDbCircle
 62
7
  6
CONTINUOUS
 10
102.9708753287
 20
182.7852262486
 40
38.4777724375
100
AcDbArc
 50
185.8147447057
 51
188.2613811792
  0
ARC
  5
29A
100
AcDbEntity
  8
0
100
AcDbCircle
 62
7
  6
CONTINUOUS
 10
216.0771364213
 20
160.4605028535
 40
28.906389826
100
AcDbArc
 50
13.5132999468
 51
17.6004801971
  0
ARC
  5
29B
100
AcDbEntity
  8
0
100
AcDbCircle
 62
7
  6
CONTINUOUS
 10
54.5392962317
 20
189.1433272305
 40
21.861030205
100
AcDbArc
 50
216.1955802865
 51
221.8831446356
  0
ARC
  5
29C
100
AcDbEntity
  8
0
100
AcDbCircle
 62
7
  6
CONTINUOUS
 10
49.737945649
 20
191.6305416934
 40
21.5972499608
100
AcDbArc
 50
216.1608183839
 51
221.9179065382
  0
ARC
  5
29D
100
AcDbEntity
  8
0
100
AcDbCircle
 62
7
  6
CONTINUOUS
 10
54.3341588625
 20
188.976976789
 40
21.5972499609
100
AcDbArc
 50
216.1608183839
 51
221.9179065382
  0
ARC
  5
29E
100
AcDbEntity
  8
0
100
AcDbCircle
 62
7
  6
CONTINUOUS
 10
69.8178301058
 20
179.8459947306
 40
21.4222300025
100
AcDbArc
 50
218.8999897598
 51
221.9211191675
  0
ARC
  5
29F
100
AcDbEntity
  8
0
100
AcDbCircle
 62
7
  6
CONTINUOUS
 10
101.7797783907
 20
248.4822367881
 40
20.2889995366
100
AcDbArc
 50
264.7080697438
 51
264.8226151372
  0
ARC
  5
2A0
100
AcDbEntity
  8
0
100
AcDbCircle
 62
7
  6
CONTINUOUS
 10
82.8869871458
 20
173.5032062875
 40
20.2405191994
100
AcDbArc
 50
219.6518742586
 51
224.4976866028
  0
ARC
  5
2A1
100
AcDbEntity
  8
0
100
AcDbCircle
 62
7
  6
CONTINUOUS
 10
175.5183611401
 20
120.0236674454
 40
20.2405191994
100
AcDbArc
 50
219.6518742586
 51
224.4976866028
  0
ARC
  5
2A2
100
AcDbEntity
  8
0
100
AcDbCircle
 62
7
  6
CONTINUOUS
 10
175.3859936085
 20
119.9041699925
 40
20.0623522382
100
AcDbArc
 50
219.630344242
 51
224.5192166194
  0
ARC
  5
2A3
100
AcDbEntity
  8
0
100
AcDbCircle
 62
7
  6
CONTINUOUS
 10
82.7546196143
 20
173.3837088347
 40
20.0623522383
100
AcDbArc
 50
219.630344242
 51
224.5192166194
  0
ARC
  5
2A4
100
AcDbEntity
  8
0
100
AcDbCircle
 62
7
  6
CONTINUOUS
 10
62.6107740539
 20
225.1734567732
 40
14.6938012942
100
AcDbArc
 50
328.9530049242
 51
331.0468068461
  0
ARC
  5
2A5
100
AcDbEntity
  8
0
100
AcDbCircle
 62
7
  6
CONTINUOUS
 10
34.4350847478
 20
241.4379802111
 40
14.5671121887
100
AcDbArc
 50
322.5413270576
 51
330.0081404155
  0
ARC
  5
2A6
100
AcDbEntity
  8
0
100
AcDbCircle
 62
7
  6
CONTINUOUS
 10
62.7539288249
 20
225.0846153696
 40
14.5253352499
100
AcDbArc
 50
322.5714938109
 51
328.9620127178
  0
ARC
  5
2A7
100
AcDbEntity
  8
0
100
AcDbCircle
 62
7
  6
CONTINUOUS
 10
34.5536167913
 20
241.3839962638
 40
14.4374720854
100
AcDbArc
 50
329.9585489263
 51
337.492520726
  0
ARC
  5
2A8
100
AcDbEntity
  8
0
100
AcDbCircle
 62
7
  6
CONTINUOUS
 10
62.8774746267
 20
225.0368594536
 40
14.394311284
100
AcDbArc
 50
331.0086597098
 51
337.4579017559
  0
ARC
  5
2A9
100
AcDbEntity
  8
0
100
AcDbCircle
 62
7
  6
CONTINUOUS
 10
244.8749350213
 20
120.1059995303
 40
13.4922614465
100
AcDbArc
 50
140.0894923514
 51
140.2478987549
  0
ARC
  5
2AA
100
AcDbEntity
  8
0
100
AcDbCircle
 62
7
  6
CONTINUOUS
 10
35.6396781057
 20
240.9463922593
 40
13.2666249162
100
AcDbArc
 50
337.4429533983
 51
343.4019975051
  0
ARC
  5
2AB
100
AcDbEntity
  8
0
100
AcDbCircle
 62
7
  6
CONTINUOUS
 10
205.0834613116
 20
134.50210601
 40
3.7118658107
100
AcDbArc
 50
232.9373310487
 51
233.6577703092
  0
ARC
  5
2AC
100
AcDbEntity
  8
0
100
AcDbCircle
 62
7
  6
CONTINUOUS
 10
212.3716137011
 20
147.1258467482
 40
3.7118424108
100
AcDbArc
 50
66.343255996
 51
67.0612748653
  0
ARC
  5
2AD
100
AcDbEntity
  8
0
100
AcDbCircle
 62
7
  6
CONTINUOUS
 10
205.0677403093
 20
134.4804318797
 40
3.6850911062
100
AcDbArc
 50
233.6549544951
 51
239.9927397116
  0
ARC
  5
2AE
100
AcDbEntity
  8
0
100
AcDbCircle
 62
7
  6
CONTINUOUS
 10
212.3825151269
 20
147.1502805652
 40
3.6850876083
100
AcDbArc
 50
60.008379467
 51
66.3460718696
  0
ARC
  5
2AF
100
AcDbEntity
  8
0
100
AcDbCircle
 62
7
  6
CONTINUOUS
 10
2972.5244761209
 20
6986.5479343763
 40
7419.2136604491
100
AcDbArc
 50
246.8343852764
 51
246.9567290301
  0
SPLINE
  5
2B0
100
AcDbEntity
  8
0
100
AcDbSpline
 62
7
  6
CONTINUOUS
 70
0
 71
3
 72
15
 73
11
 74
0
 42
0.0000001
 43
0.0000001
 44
0.0000000001
 40
0.0
 40
0.0
 40
0.0
 40
0.0
 40
0.1141570263
 40
0.2373234952
 40
0.3669733665
 40
0.4999978784
 40
0.6330240589
 40
0.7626748092
 40
0.8858462163
 40
1.0
 40
1.0
 40
1.0
 40
1.0
 10
237.3626351416
 20
117.3415850752
 30
0.0
 10
237.7741053516
 20
117.5791460936
 30
0.0
 10
238.5868136075
 20
118.1488355405
 30
0.0
 10
239.7050286473
 20
119.1950619959
 30
0.0
 10
240.7355580725
 20
120.4317299408
 30
0.0
 10
241.6395451174
 20
121.8125375035
 30
0.0
 10
242.3833574999
 20
123.2858241833
 30
0.0
 10
242.9390939515
 20
124.7966522919
 30
0.0
 10
243.2859923027
 20
126.2881917108
 30
0.0
 10
243.3730045133
 20
127.2768679128
 30
0.0
 10
243.3730002112
 20
127.751978581
 30
0.0
  0
SPLINE
  5
2B1
100
AcDbEntity
  8
0
100
AcDbSpline
 62
7
  6
CONTINUOUS
 70
0
 71
3
 72
11
 73
7
 74
0
 42
0.0000001
 43
0.0000001
 44
0.0000000001
 40
0.0
 40
0.0
 40
0.0
 40
0.0
 40
0.2282464853
 40
0.478538365
 40
0.7400162646
 40
1.0
 40
1.0
 40
1.0
 40
1.0
 10
216.8564354486
 20
148.3683212326
 30
0.0
 10
216.6519442097
 20
148.4863816335
 30
0.0
 10
216.1922811452
 20
148.6814515566
 30
0.0
 10
215.4417579194
 20
148.8482537976
 30
0.0
 10
214.6416342378
 20
148.8956571667
 30
0.0
 10
214.1019257439
 20
148.8441572209
 30
0.0
 10
213.8372748916
 20
148.796218965
 30
0.0
  0
SPLINE
  5
2B2
100
AcDbEntity
  8
0
100
AcDbSpline
 62
7
  6
CONTINUOUS
 70
0
 71
3
 72
14
 73
10
 74
0
 42
0.0000001
 43
0.0000001
 44
0.0000000001
 40
0.0
 40
0.0
 40
0.0
 40
0.0
 40
0.3063877497
 40
0.4467297539
 40
0.5764762662
 40
0.6952333537
 40
0.8037428442
 40
0.9041427049
 40
1.0
 40
1.0
 40
1.0
 40
1.0
 10
213.8372748916
 20
148.796218965
 30
0.0
 10
213.5482426155
 20
148.7438643131
 30
0.0
 10
213.1312419337
 20
148.6286288478
 30
0.0
 10
212.6320116973
 20
148.388787386
 30
0.0
 10
212.3196199623
 20
148.1828591156
 30
0.0
 10
212.0661656469
 20
147.9502908346
 30
0.0
 10
211.8781956397
 20
147.6956547565
 30
0.0
 10
211.7617676936
 20
147.4245464533
 30
0.0
 10
211.73512671
 20
147.2354877143
 30
0.0
 10
211.7351358701
 20
147.1435887714
 30
0.0
  0
SPLINE
  5
2B3
100
AcDbEntity
  8
0
100
AcDbSpline
 62
7
  6
CONTINUOUS
 70
0
 71
3
 72
23
 73
19
 74
0
 42
0.0000001
 43
0.0000001
 44
0.0000000001
 40
0.0
 40
0.0
 40
0.0
 40
0.0
 40
0.042814841
 40
0.0873972685
 40
0.1351805643
 40
0.1870895526
 40
0.2435357112
 40
0.3044931918
 40
0.3695915349
 40
0.4381999678
 40
0.5094978414
 40
0.5825337021
 40
0.656276944
 40
0.7296656435
 40
0.8016534812
 40
0.8712572377
 40
0.9376069059
 40
1.0
 40
1.0
 40
1.0
 40
1.0
 10
202.8712358084
 20
131.4934037262
 30
0.0
 10
202.6000437143
 20
131.6499902277
 30
0.0
 10
202.0859412274
 20
132.0434517671
 30
0.0
 10
201.4672846021
 20
132.8257585218
 30
0.0
 10
201.0049971385
 20
133.7824700163
 30
0.0
 10
200.7056703285
 20
134.8902369353
 30
0.0
 10
200.572398853
 20
136.125702505
 30
0.0
 10
200.6064462645
 20
137.4634809473
 30
0.0
 10
200.8063815001
 20
138.8759718716
 30
0.0
 10
201.1677289589
 20
140.3336546855
 30
0.0
 10
201.6827457161
 20
141.8057700315
 30
0.0
 10
202.340460753
 20
143.2610612251
 30
0.0
 10
203.1268533042
 20
144.6685216025
 30
0.0
 10
204.025152152
 20
145.9981321236
 30
0.0
 10
205.0161897687
 20
147.2215268665
 30
0.0
 10
206.0789850595
 20
148.312731601
 30
0.0
 10
207.1908093638
 20
149.2484042139
 30
0.0
 10
207.9759251212
 20
149.7730791622
 30
0.0
 10
208.3711364106
 20
150.0012531445
 30
0.0
  0
SPLINE
  5
2B4
100
AcDbEntity
  8
0
100
AcDbSpline
 62
7
  6
CONTINUOUS
 70
0
 71
3
 72
9
 73
5
 74
0
 42
0.0000001
 43
0.0000001
 44
0.0000000001
 40
0.0
 40
0.0
 40
0.0
 40
0.0
 40
0.491918856
 40
1.0
 40
1.0
 40
1.0
 40
1.0
 10
214.2245979545
 20
150.3419394974
 30
0.0
 10
214.5380941808
 20
150.1609464614
 30
0.0
 10
215.1270909882
 20
149.7029627437
 30
0.0
 10
215.5758002621
 20
149.1093532353
 30
0.0
 10
215.7667306883
 20
148.7878939417
 30
0.0
  0
SPLINE
  5
2B5
100
AcDbEntity
  8
0
100
AcDbSpline
 62
7
  6
CONTINUOUS
 70
0
 71
3
 72
14
 73
10
 74
0
 42
0.0000001
 43
0.0000001
 44
0.0000000001
 40
0.0
 40
0.0
 40
0.0
 40
0.0
 40
0.2892779422
 40
0.422535691
 40
0.5484932558
 40
0.6678917128
 40
0.7818655235
 40
0.891950571
 40
1.0
 40
1.0
 40
1.0
 40
1.0
 10
208.3711364106
 20
150.0012531445
 30
0.0
 10
208.8539765867
 20
150.2800193862
 30
0.0
 10
209.5952529877
 20
150.6328300501
 30
0.0
 10
210.6118517393
 20
150.9292598429
 30
0.0
 10
211.3334304501
 20
151.0502850669
 30
0.0
 10
212.027746127
 20
151.0744585068
 30
0.0
 10
212.6882215153
 20
151.000811118
 30
0.0
 10
213.3077708769
 20
150.829459235
 30
0.0
 10
213.6906935406
 20
150.6501798308
 30
0.0
 10
213.8710370128
 20
150.546049386
 30
0.0
  0
SPLINE
  5
2B6
100
AcDbEntity
  8
0
100
AcDbSpline
 62
7
  6
CONTINUOUS
 70
0
 71
3
 72
11
 73
7
 74
0
 42
0.0000001
 43
0.0000001
 44
0.0000000001
 40
0.0
 40
0.0
 40
0.0
 40
0.0
 40
0.2662865859
 40
0.5190146583
 40
0.7619934332
 40
1.0
 40
1.0
 40
1.0
 40
1.0
 10
206.7702715739
 20
130.9007132575
 30
0.0
 10
206.4553194539
 20
130.8245600356
 30
0.0
 10
205.8292563063
 20
130.7202993752
 30
0.0
 10
204.8969487764
 20
130.7269674915
 30
0.0
 10
204.0163459627
 20
130.9067480867
 30
0.0
 10
203.475600623
 20
131.1444674331
 30
0.0
 10
203.2247845918
 20
131.2892728603
 30
0.0
  0
SPLINE
  5
2B7
100
AcDbEntity
  8
0
100
AcDbSpline
 62
7
  6
CONTINUOUS
 70
0
 71
3
 72
11
 73
7
 74
0
 42
0.0000001
 43
0.0000001
 44
0.0000000001
 40
0.0
 40
0.0
 40
0.0
 40
0.0
 40
0.2177680678
 40
0.4509390813
 40
0.7102092813
 40
1.0
 40
1.0
 40
1.0
 40
1.0
 10
234.7057454073
 20
137.3458106621
 30
0.0
 10
234.7057340184
 20
137.4600703242
 30
0.0
 10
234.6635718855
 20
137.6982674859
 30
0.0
 10
234.4829625488
 20
138.0300386894
 30
0.0
 10
234.1976117626
 20
138.3300894355
 30
0.0
 10
233.9587477853
 20
138.4945199765
 30
0.0
 10
233.8270688521
 20
138.5705431241
 30
0.0
  0
SPLINE
  5
2B8
100
AcDbEntity
  8
0
100
AcDbSpline
 62
7
  6
CONTINUOUS
 70
0
 71
3
 72
16
 73
12
 74
0
 42
0.0000001
 43
0.0000001
 44
0.0000000001
 40
0.0
 40
0.0
 40
0.0
 40
0.0
 40
0.0992134634
 40
0.1542130866
 40
0.2126435089
 40
0.3384382638
 40
0.4731075991
 40
0.6117977484
 40
0.7491623269
 40
0.8800102361
 40
1.0
 40
1.0
 40
1.0
 40
1.0
 10
234.1919894815
 20
121.0527988551
 30
0.0
 10
234.0875601852
 20
121.3081892686
 30
0.0
 10
233.9911321171
 20
121.7332574374
 30
0.0
 10
233.9603305214
 20
122.3241466048
 30
0.0
 10
233.9950301958
 20
122.989776235
 30
0.0
 10
234.1670098383
 20
123.864555175
 30
0.0
 10
234.5471666163
 20
124.9114766509
 30
0.0
 10
235.0851793437
 20
125.9232210319
 30
0.0
 10
235.75099196
 20
126.8429674423
 30
0.0
 10
236.5068871475
 20
127.6191639261
 30
0.0
 10
237.0736456542
 20
128.0342200606
 30
0.0
 10
237.3626351416
 20
128.201067223
 30
0.0
  0
SPLINE
  5
2B9
100
AcDbEntity
  8
0
100
AcDbSpline
 62
7
  6
CONTINUOUS
 70
0
 71
3
 72
14
 73
10
 74
0
 42
0.0000001
 43
0.0000001
 44
0.0000000001
 40
0.0
 40
0.0
 40
0.0
 40
0.0
 40
0.2892707544
 40
0.4225372455
 40
0.5484966612
 40
0.6678939361
 40
0.7818682813
 40
0.8919523447
 40
1.0
 40
1.0
 40
1.0
 40
1.0
 10
243.3730118698
 20
128.5684804271
 30
0.0
 10
243.3730083903
 20
129.0499888312
 30
0.0
 10
243.3167722089
 20
129.7567815372
 30
0.0
 10
243.0994983565
 20
130.6451629015
 30
0.0
 10
242.8784115006
 20
131.2371440153
 30
0.0
 10
242.5966664815
 20
131.7669009579
 30
0.0
 10
242.2563468653
 20
132.2290806202
 30
0.0
 10
241.8606545533
 20
132.6184833567
 30
0.0
 10
241.5612020563
 20
132.8274601645
 30
0.0
 10
241.4054448231
 20
132.9173842412
 30
0.0
  0
SPLINE
  5
2BA
100
AcDbEntity
  8
0
100
AcDbSpline
 62
7
  6
CONTINUOUS
 70
0
 71
3
 72
14
 73
10
 74
0
 42
0.0000001
 43
0.0000001
 44
0.0000000001
 40
0.0
 40
0.0
 40
0.0
 40
0.0
 40
0.1080482432
 40
0.2181322873
 40
0.3321068339
 40
0.4515071146
 40
0.5774612857
 40
0.7107200697
 40
1.0
 40
1.0
 40
1.0
 40
1.0
 10
231.9056060099
 20
116.4628085094
 30
0.0
 10
232.0613599564
 20
116.3728863303
 30
0.0
 10
232.3920606326
 20
116.2180521416
 30
0.0
 10
232.9271271464
 20
116.0700815898
 30
0.0
 10
233.4975376034
 20
116.0064505518
 30
0.0
 10
234.097172648
 20
116.0273515611
 30
0.0
 10
234.7203549863
 20
116.1318565899
 30
0.0
 10
235.5983264501
 20
116.3878676924
 30
0.0
 10
236.2385241256
 20
116.6925690421
 30
0.0
 10
236.6555254165
 20
116.9333234126
 30
0.0
  0
SPLINE
  5
2BB
100
AcDbEntity
  8
0
100
AcDbSpline
 62
7
  6
CONTINUOUS
 70
0
 71
3
 72
15
 73
11
 74
0
 42
0.0000001
 43
0.0000001
 44
0.0000000001
 40
0.0
 40
0.0
 40
0.0
 40
0.0
 40
0.1514587982
 40
0.2907222118
 40
0.4184572498
 40
0.5368513693
 40
0.6494871662
 40
0.7610738447
 40
0.8765315656
 40
1.0
 40
1.0
 40
1.0
 40
1.0
 10
237.3626351416
 20
120.3626440186
 30
0.0
 10
237.1987945375
 20
120.2680511663
 30
0.0
 10
236.8723944223
 20
120.1057702028
 30
0.0
 10
236.372336389
 20
119.9458582627
 30
0.0
 10
235.8917714093
 20
119.8839356759
 30
0.0
 10
235.4413245585
 20
119.9233337136
 30
0.0
 10
235.0326657422
 20
120.0657487788
 30
0.0
 10
234.6785963304
 20
120.3084966151
 30
0.0
 10
234.3898134645
 20
120.6432419364
 30
0.0
 10
234.250360446
 20
120.9100478712
 30
0.0
 10
234.1919894815
 20
121.0527988551
 30
0.0
  0
SPLINE
  5
2BC
100
AcDbEntity
  8
0
100
AcDbSpline
 62
7
  6
CONTINUOUS
 70
0
 71
3
 72
17
 73
13
 74
0
 42
0.0000001
 43
0.0000001
 44
0.0000000001
 40
0.0
 40
0.0
 40
0.0
 40
0.0
 40
0.1286888507
 40
0.2702758975
 40
0.4174303014
 40
0.5617787777
 40
0.6954507586
 40
0.8127138884
 40
0.8646786845
 40
0.9125123486
 40
0.9571409949
 40
1.0
 40
1.0
 40
1.0
 40
1.0
 10
229.5844458288
 20
136.1210782009
 30
0.0
 10
229.8065179883
 20
135.9928676803
 30
0.0
 10
230.3093214063
 20
135.7854204729
 30
0.0
 10
231.1287817791
 20
135.6214575453
 30
0.0
 10
231.9955281327
 20
135.5974697576
 30
0.0
 10
232.8388048279
 20
135.7159674438
 30
0.0
 10
233.5902644006
 20
135.9669437356
 30
0.0
 10
234.1128601857
 20
136.2851041651
 30
0.0
 10
234.4195934266
 20
136.592888402
 30
0.0
 10
234.5825136905
 20
136.8325532799
 30
0.0
 10
234.6828917418
 20
137.0853413531
 30
0.0
 10
234.7057539197
 20
137.2604098129
 30
0.0
 10
234.7057454073
 20
137.3458106621
 30
0.0
  0
SPLINE
  5
2BD
100
AcDbEntity
  8
0
100
AcDbSpline
 62
7
  6
CONTINUOUS
 70
0
 71
3
 72
11
 73
7
 74
0
 42
0.0000001
 43
0.0000001
 44
0.0000000001
 40
0.0
 40
0.0
 40
0.0
 40
0.0
 40
0.2857283434
 40
0.5454477644
 40
0.7813892261
 40
1.0
 40
1.0
 40
1.0
 40
1.0
 10
235.4030351889
 20
122.8003978517
 30
0.0
 10
235.280417279
 20
122.7296047909
 30
0.0
 10
235.0363298968
 20
122.6104977065
 30
0.0
 10
234.6618110501
 20
122.5032094288
 30
0.0
 10
234.3055360988
 20
122.4799195894
 30
0.0
 10
234.0811638693
 20
122.5240191232
 30
0.0
 10
233.979165699
 20
122.560506608
 30
0.0
  0
SPLINE
  5
2BE
100
AcDbEntity
  8
0
100
AcDbSpline
 62
7
  6
CONTINUOUS
 70
0
 71
3
 72
15
 73
11
 74
0
 42
0.0000001
 43
0.0000001
 44
0.0000000001
 40
0.0
 40
0.0
 40
0.0
 40
0.0
 40
0.1514268717
 40
0.2905680032
 40
0.4181743835
 40
0.5364244482
 40
0.6489761759
 40
0.7605868457
 40
0.876213849
 40
1.0
 40
1.0
 40
1.0
 40
1.0
 10
201.653655845
 20
136.3249221859
 30
0.0
 10
201.653655845
 20
135.9091937957
 30
0.0
 10
201.7036025154
 20
135.1099672629
 30
0.0
 10
201.9499006234
 20
133.9833876946
 30
0.0
 10
202.3618419633
 20
133.0023946191
 30
0.0
 10
202.9344085193
 20
132.1911322232
 30
0.0
 10
203.6575843775
 20
131.5739444182
 30
0.0
 10
204.5118455119
 20
131.1723765751
 30
0.0
 10
205.4691181223
 20
130.9974008816
 30
0.0
 10
206.131331941
 20
131.0301566363
 30
0.0
 10
206.4677239002
 20
131.0784677228
 30
0.0
  0
SPLINE
  5
2BF
100
AcDbEntity
  8
0
100
AcDbSpline
 62
7
  6
CONTINUOUS
 70
0
 71
3
 72
23
 73
19
 74
0
 42
0.0000001
 43
0.0000001
 44
0.0000000001
 40
0.0
 40
0.0
 40
0.0
 40
0.0
 40
0.0443448292
 40
0.0880685742
 40
0.1333494895
 40
0.1820139076
 40
0.2352401664
 40
0.2935286432
 40
0.3568088696
 40
0.4245722939
 40
0.4959888505
 40
0.5700027535
 40
0.6454128993
 40
0.7209445982
 40
0.7953145696
 40
0.8673053089
 40
0.9358266543
 40
1.0
 40
1.0
 40
1.0
 40
1.0
 10
215.2876204266
 20
148.8965850381
 30
0.0
 10
215.0759170112
 20
149.1472947035
 30
0.0
 10
214.5892994634
 20
149.5947784846
 30
0.0
 10
213.6943810427
 20
150.03961926
 30
0.0
 10
212.6817913021
 20
150.2304561101
 30
0.0
 10
211.58556412
 20
150.1678121356
 30
0.0
 10
210.4338547795
 20
149.8604514712
 30
0.0
 10
209.2532572062
 20
149.319794263
 30
0.0
 10
208.0710506931
 20
148.5606416623
 30
0.0
 10
206.9154337733
 20
147.6021603065
 30
0.0
 10
205.8146629852
 20
146.4682384155
 30
0.0
 10
204.796070402
 20
145.1871899097
 30
0.0
 10
203.8851508491
 20
143.7911259928
 30
0.0
 10
203.1047969668
 20
142.3151205388
 30
0.0
 10
202.4746089878
 20
140.7962934487
 30
0.0
 10
202.0104128311
 20
139.2725942754
 30
0.0
 10
201.7238618395
 20
137.7824091098
 30
0.0
 10
201.653655845
 20
136.799783138
 30
0.0
 10
201.653655845
 20
136.3249221859
 30
0.0
  0
SPLINE
  5
2C0
100
AcDbEntity
  8
0
100
AcDbSpline
 62
7
  6
CONTINUOUS
 70
0
 71
3
 72
14
 73
10
 74
0
 42
0.0000001
 43
0.0000001
 44
0.0000000001
 40
0.0
 40
0.0
 40
0.0
 40
0.0
 40
0.28927892
 40
0.4225378391
 40
0.5484923918
 40
0.6678923059
 40
0.7818656972
 40
0.8919500136
 40
1.0
 40
1.0
 40
1.0
 40
1.0
 10
209.0782461358
 20
148.3682587643
 30
0.0
 10
209.4952458104
 20
148.6090122016
 30
0.0
 10
210.1354419381
 20
148.9137125713
 30
0.0
 10
211.0134120579
 20
149.1697242125
 30
0.0
 10
211.6365946134
 20
149.2742282907
 30
0.0
 10
212.2362273057
 20
149.2951297728
 30
0.0
 10
212.8066359892
 20
149.2315016965
 30
0.0
 10
213.3417026692
 20
149.0835273137
 30
0.0
 10
213.6724070324
 20
148.9286936079
 30
0.0
 10
213.8281633919
 20
148.838769943
 30
0.0
  0
SPLINE
  5
2C1
100
AcDbEntity
  8
0
100
AcDbSpline
 62
7
  6
CONTINUOUS
 70
0
 71
3
 72
22
 73
18
 74
0
 42
0.0000001
 43
0.0000001
 44
0.0000000001
 40
0.0
 40
0.0
 40
0.0
 40
0.0
 40
0.0624002863
 40
0.1287598616
 40
0.198371778
 40
0.2703697238
 40
0.4173878314
 40
0.4904336723
 40
0.5617412658
 40
0.6303588829
 40
0.6954659213
 40
0.756431874
 40
0.8128862891
 40
0.8648026495
 40
0.9125920112
 40
0.957179933
 40
1.0
 40
1.0
 40
1.0
 40
1.0
 10
236.6555254165
 20
132.446869338
 30
0.0
 10
236.314212801
 20
132.2498135838
 30
0.0
 10
235.6361569062
 20
131.7966785154
 30
0.0
 10
234.6759657525
 20
130.9886278017
 30
0.0
 10
233.7580150025
 20
130.0461491157
 30
0.0
 10
232.6095099015
 20
128.628165589
 30
0.0
 10
231.6379164252
 20
127.0474692306
 30
0.0
 10
230.8792145803
 20
125.3690493432
 30
0.0
 10
230.4343999883
 20
124.0975548715
 30
0.0
 10
230.1223328909
 20
122.8386760489
 30
0.0
 10
229.9496584947
 20
121.6187878979
 30
0.0
 10
229.9202530265
 20
120.4634290028
 30
0.0
 10
230.0353519495
 20
119.3964258601
 30
0.0
 10
230.2938649467
 20
118.4397139918
 30
0.0
 10
230.6931125256
 20
117.6134636561
 30
0.0
 10
231.2274072922
 20
116.9378495622
 30
0.0
 10
231.6713906594
 20
116.5980291904
 30
0.0
 10
231.9056060099
 20
116.4628085094
 30
0.0
  0
SPLINE
  5
2C2
100
AcDbEntity
  8
0
100
AcDbSpline
 62
7
  6
CONTINUOUS
 70
0
 71
3
 72
12
 73
8
 74
0
 42
0.0000001
 43
0.0000001
 44
0.0000000001
 40
0.0
 40
0.0
 40
0.0
 40
0.0
 40
0.2870108433
 40
0.5464857354
 40
0.7814413822
 40
0.8921783607
 40
1.0
 40
1.0
 40
1.0
 40
1.0
 10
200.9465490638
 20
136.3249204863
 30
0.0
 10
200.9465490638
 20
135.8154562219
 30
0.0
 10
201.0175195881
 20
134.8426134159
 30
0.0
 10
201.373252041
 20
133.4926608818
 30
0.0
 10
201.8823127817
 20
132.5319056421
 30
0.0
 10
202.4017636369
 20
131.9137359425
 30
0.0
 10
202.6936378028
 20
131.6554719561
 30
0.0
 10
202.8463636092
 20
131.5401232845
 30
0.0
  0
SPLINE
  5
2C3
100
AcDbEntity
  8
0
100
AcDbSpline
 62
7
  6
CONTINUOUS
 70
0
 71
3
 72
15
 73
11
 74
0
 42
0.0000001
 43
0.0000001
 44
0.0000000001
 40
0.0
 40
0.0
 40
0.0
 40
0.0
 40
0.1141569239
 40
0.2373243613
 40
0.3669740778
 40
0.4999983967
 40
0.6330229385
 40
0.7626733065
 40
0.88584177
 40
1.0
 40
1.0
 40
1.0
 40
1.0
 10
208.7246912732
 20
149.7971327673
 30
0.0
 10
208.1922026521
 20
149.4897021537
 30
0.0
 10
207.1404682605
 20
148.7524495053
 30
0.0
 10
205.6933478539
 20
147.3985336671
 30
0.0
 10
204.3597310126
 20
145.7981347025
 30
0.0
 10
203.189878951
 20
144.0112208472
 30
0.0
 10
202.2272999662
 20
142.1046344803
 30
0.0
 10
201.5081268278
 20
140.1494764183
 30
0.0
 10
201.0591627813
 20
138.2192587895
 30
0.0
 10
200.9465490638
 20
136.9397915011
 30
0.0
 10
200.9465490638
 20
136.3249204863
 30
0.0
  0
SPLINE
  5
2C4
100
AcDbEntity
  8
0
100
AcDbSpline
 62
7
  6
CONTINUOUS
 70
0
 71
3
 72
12
 73
8
 74
0
 42
0.0000001
 43
0.0000001
 44
0.0000000001
 40
0.0
 40
0.0
 40
0.0
 40
0.0
 40
0.107822375
 40
0.2185596993
 40
0.4535152059
 40
0.7129895209
 40
1.0
 40
1.0
 40
1.0
 40
1.0
 10
213.8182911891
 20
150.5441648037
 30
0.0
 10
213.6420362307
 20
150.6187587537
 30
0.0
 10
213.2724417017
 20
150.7424051016
 30
0.0
 10
212.4773768941
 20
150.8831935914
 30
0.0
 10
211.3908210487
 20
150.8436943252
 30
0.0
 10
210.0438762456
 20
150.4768095882
 30
0.0
 10
209.165894826
 20
150.0518602367
 30
0.0
 10
208.7246912732
 20
149.7971327673
 30
0.0
  0
SPLINE
  5
2C5
100
AcDbEntity
  8
0
100
AcDbSpline
 62
7
  6
CONTINUOUS
 70
0
 71
3
 72
11
 73
7
 74
0
 42
0.0000001
 43
0.0000001
 44
0.0000000001
 40
0.0
 40
0.0
 40
0.0
 40
0.0
 40
0.242651391
 40
0.4997071686
 40
0.7569137999
 40
1.0
 40
1.0
 40
1.0
 40
1.0
 10
234.2695175988
 20
124.0161249605
 30
0.0
 10
234.4963585133
 20
124.1992760462
 30
0.0
 10
234.9227239811
 20
124.6282582694
 30
0.0
 10
235.4443375969
 20
125.3781011113
 30
0.0
 10
235.836061056
 20
126.2038556903
 30
0.0
 10
235.9967692556
 20
126.7876329465
 30
0.0
 10
236.0433639322
 20
127.0759642806
 30
0.0
  0
SPLINE
  5
2C6
100
AcDbEntity
  8
0
100
AcDbSpline
 62
7
  6
CONTINUOUS
 70
0
 71
3
 72
11
 73
7
 74
0
 42
0.0000001
 43
0.0000001
 44
0.0000000001
 40
0.0
 40
0.0
 40
0.0
 40
0.0
 40
0.2177680678
 40
0.4509390813
 40
0.7102092813
 40
1.0
 40
1.0
 40
1.0
 40
1.0
 10
211.7351358701
 20
147.1435887714
 30
0.0
 10
211.735147259
 20
147.0293291093
 30
0.0
 10
211.7773093919
 20
146.7911319476
 30
0.0
 10
211.9579187286
 20
146.4593607441
 30
0.0
 10
212.2432695148
 20
146.159309998
 30
0.0
 10
212.4821334921
 20
145.994879457
 30
0.0
 10
212.6138124253
 20
145.9188563094
 30
0.0
  0
SPLINE
  5
2C7
100
AcDbEntity
  8
0
100
AcDbSpline
 62
7
  6
CONTINUOUS
 70
0
 71
3
 72
11
 73
7
 74
0
 42
0.0000001
 43
0.0000001
 44
0.0000000001
 40
0.0
 40
0.0
 40
0.0
 40
0.0
 40
0.2374534648
 40
0.4800793334
 40
0.7326909505
 40
1.0
 40
1.0
 40
1.0
 40
1.0
 10
211.7351239385
 20
144.9064791879
 30
0.0
 10
211.7351235353
 20
144.7679067852
 30
0.0
 10
211.7742433623
 20
144.486277201
 30
0.0
 10
211.9479187346
 20
144.0899717856
 30
0.0
 10
212.23148009
 20
143.7404889044
 30
0.0
 10
212.4787156491
 20
143.5586770282
 30
0.0
 10
212.6138124253
 20
143.4806806326
 30
0.0
  0
SPLINE
  5
2C8
100
AcDbEntity
  8
0
100
AcDbSpline
 62
7
  6
CONTINUOUS
 70
0
 71
3
 72
22
 73
18
 74
0
 42
0.0000001
 43
0.0000001
 44
0.0000000001
 40
0.0
 40
0.0
 40
0.0
 40
0.0
 40
0.0490401111
 40
0.0946548672
 40
0.1391597387
 40
0.1851675097
 40
0.234892174
 40
0.2897169216
 40
0.3501549412
 40
0.4160061998
 40
0.48654081
 40
0.5606542689
 40
0.7138681251
 40
0.7901286004
 40
0.8640897531
 40
0.9344129298
 40
1.0
 40
1.0
 40
1.0
 40
1.0
 10
238.5736773655
 20
128.6422864803
 30
0.0
 10
238.7485238373
 20
128.6661123445
 30
0.0
 10
239.0930319961
 20
128.6759951629
 30
0.0
 10
239.585755931
 20
128.5539106387
 30
0.0
 10
240.0106762661
 20
128.2949273811
 30
0.0
 10
240.3486495876
 20
127.9110203094
 30
0.0
 10
240.5902240822
 20
127.4202899782
 30
0.0
 10
240.732170816
 20
126.8399421809
 30
0.0
 10
240.7731576952
 20
126.1867193133
 30
0.0
 10
240.7132561169
 20
125.4788723307
 30
0.0
 10
240.554636138
 20
124.7363294915
 30
0.0
 10
240.214196759
 20
123.7183293665
 30
0.0
 10
239.7076734618
 20
122.7403563355
 30
0.0
 10
239.0672353646
 20
121.8544165314
 30
0.0
 10
238.5368370241
 20
121.2618429785
 30
0.0
 10
237.9719089431
 20
120.7582677298
 30
0.0
 10
237.5670206601
 20
120.4806453483
 30
0.0
 10
237.3626351416
 20
120.3626440186
 30
0.0
  0
SPLINE
  5
2C9
100
AcDbEntity
  8
0
100
AcDbSpline
 62
7
  6
CONTINUOUS
 70
0
 71
3
 72
9
 73
5
 74
0
 42
0.0000001
 43
0.0000001
 44
0.0000000001
 40
0.0
 40
0.0
 40
0.0
 40
0.0
 40
0.4781544277
 40
1.0
 40
1.0
 40
1.0
 40
1.0
 10
237.3626351416
 20
131.2221261664
 30
0.0
 10
236.8424273095
 20
130.9217858272
 30
0.0
 10
235.823020344
 20
130.1726202119
 30
0.0
 10
234.9463375566
 20
129.2653573085
 30
0.0
 10
234.5257295892
 20
128.7625037823
 30
0.0
  0
SPLINE
  5
2CA
100
AcDbEntity
  8
0
100
AcDbSpline
 62
7
  6
CONTINUOUS
 70
0
 71
3
 72
9
 73
5
 74
0
 42
0.0000001
 43
0.0000001
 44
0.0000000001
 40
0.0
 40
0.0
 40
0.0
 40
0.0
 40
0.5001563855
 40
1.0
 40
1.0
 40
1.0
 40
1.0
 10
234.50183642
 20
128.7338581493
 30
0.0
 10
233.9771883228
 20
128.1030850949
 30
0.0
 10
233.0400679048
 20
126.7459323983
 30
0.0
 10
232.338860881
 20
125.2531287432
 30
0.0
 10
232.0581703551
 20
124.4827382675
 30
0.0
  0
SPLINE
  5
2CB
100
AcDbEntity
  8
0
100
AcDbSpline
 62
7
  6
CONTINUOUS
 70
0
 71
3
 72
22
 73
18
 74
0
 42
0.0000001
 43
0.0000001
 44
0.0000000001
 40
0.0
 40
0.0
 40
0.0
 40
0.0
 40
0.1633504822
 40
0.2403302843
 40
0.3134031185
 40
0.3822096218
 40
0.4465923244
 40
0.5066458655
 40
0.5627694216
 40
0.6157030043
 40
0.6665262144
 40
0.716584403
 40
0.7673267155
 40
0.8201099359
 40
0.8760336583
 40
0.9358495552
 40
1.0
 40
1.0
 40
1.0
 40
1.0
 10
232.0581703551
 20
124.4827382675
 30
0.0
 10
231.837002668
 20
123.8757157142
 30
0.0
 10
231.574123837
 20
122.956776402
 30
0.0
 10
231.3879968832
 20
121.7300322479
 30
0.0
 10
231.3378734286
 20
120.8644432326
 30
0.0
 10
231.3753242002
 20
120.0478915588
 30
0.0
 10
231.5001570901
 20
119.2918205713
 30
0.0
 10
231.7112028374
 20
118.6069788864
 30
0.0
 10
232.0063450735
 20
118.0033337398
 30
0.0
 10
232.3824621227
 20
117.4903732402
 30
0.0
 10
232.8348385211
 20
117.0772454957
 30
0.0
 10
233.3562872365
 20
116.7720657876
 30
0.0
 10
233.9372246078
 20
116.5804047658
 30
0.0
 10
234.5670889804
 20
116.504642172
 30
0.0
 10
235.2355677834
 20
116.5444907354
 30
0.0
 10
235.9328240731
 20
116.6978428982
 30
0.0
 10
236.3943391878
 20
116.8678579812
 30
0.0
 10
236.626995588
 20
116.9690694398
 30
0.0
  0
SPLINE
  5
2CC
100
AcDbEntity
  8
0
100
AcDbSpline
 62
7
  6
CONTINUOUS
 70
0
 71
3
 72
9
 73
5
 74
0
 42
0.0000001
 43
0.0000001
 44
0.0000000001
 40
0.0
 40
0.0
 40
0.0
 40
0.0
 40
0.2440881048
 40
1.0
 40
1.0
 40
1.0
 40
1.0
 10
236.626995588
 20
116.9690694398
 30
0.0
 10
236.6885352052
 20
116.9958407404
 30
0.0
 10
236.9389767982
 20
117.1093574677
 30
0.0
 10
237.1826458386
 20
117.2376688229
 30
0.0
 10
237.3626351416
 20
117.3415850752
 30
0.0
  0
SPLINE
  5
2CD
100
AcDbEntity
  8
0
100
AcDbSpline
 62
7
  6
CONTINUOUS
 70
0
 71
3
 72
9
 73
5
 74
0
 42
0.0000001
 43
0.0000001
 44
0.0000000001
 40
0.0
 40
0.0
 40
0.0
 40
0.0
 40
0.2560879529
 40
1.0
 40
1.0
 40
1.0
 40
1.0
 10
243.3730002112
 20
127.751978581
 30
0.0
 10
243.3729995757
 20
127.8221532227
 30
0.0
 10
243.3694035314
 20
128.0961586452
 30
0.0
 10
243.351100288
 20
128.370035895
 30
0.0
 10
243.3281236784
 20
128.5725877836
 30
0.0
  0
SPLINE
  5
2CE
100
AcDbEntity
  8
0
100
AcDbSpline
 62
7
  6
CONTINUOUS
 70
0
 71
3
 72
18
 73
14
 74
0
 42
0.0000001
 43
0.0000001
 44
0.0000000001
 40
0.0
 40
0.0
 40
0.0
 40
0.0
 40
0.1378437856
 40
0.2621766633
 40
0.3203403497
 40
0.3765660541
 40
0.4316349058
 40
0.4864138755
 40
0.5417919903
 40
0.5986134262
 40
0.7191401177
 40
0.8523874551
 40
1.0
 40
1.0
 40
1.0
 40
1.0
 10
243.3281236784
 20
128.5725877836
 30
0.0
 10
243.286123476
 20
128.9428434682
 30
0.0
 10
243.1471158161
 20
129.6428270954
 30
0.0
 10
242.7944012117
 20
130.443991294
 30
0.0
 10
242.4187121074
 20
130.9711287145
 30
0.0
 10
242.1005904766
 20
131.3031376114
 30
0.0
 10
241.7427240251
 20
131.5772166754
 30
0.0
 10
241.3482304366
 20
131.7905932525
 30
0.0
 10
240.9208544103
 20
131.9414039757
 30
0.0
 10
240.3008373224
 20
132.0597646779
 30
0.0
 10
239.4509392515
 20
132.036389455
 30
0.0
 10
238.3958353122
 20
131.7536411981
 30
0.0
 10
237.7082126281
 20
131.4216442303
 30
0.0
 10
237.3626351416
 20
131.2221261664
 30
0.0
  0
SPLINE
  5
2CF
100
AcDbEntity
  8
0
100
AcDbSpline
 62
7
  6
CONTINUOUS
 70
0
 71
3
 72
17
 73
13
 74
0
 42
0.0000001
 43
0.0000001
 44
0.0000000001
 40
0.0
 40
0.0
 40
0.0
 40
0.0
 40
0.0433283864
 40
0.089333481
 40
0.1389816075
 40
0.1927945265
 40
0.312864866
 40
0.4472999156
 40
0.5904248209
 40
0.7350440745
 40
0.8737086948
 40
1.0
 40
1.0
 40
1.0
 40
1.0
 10
237.1741660201
 20
128.0618249506
 30
0.0
 10
237.2411975464
 20
128.0031606628
 30
0.0
 10
237.3650373157
 20
127.8649678684
 30
0.0
 10
237.5061424655
 20
127.614413545
 30
0.0
 10
237.6050795601
 20
127.3218469951
 30
0.0
 10
237.681611229
 20
126.8671341783
 30
0.0
 10
237.6555450607
 20
126.2271184981
 30
0.0
 10
237.4582487679
 20
125.4295834209
 30
0.0
 10
237.1087116185
 20
124.6308462183
 30
0.0
 10
236.6325674813
 20
123.890248769
 30
0.0
 10
236.0656614683
 20
123.2626436359
 30
0.0
 10
235.6278879022
 20
122.9302158513
 30
0.0
 10
235.4030351889
 20
122.8003978517
 30
0.0
  0
SPLINE
  5
2D0
100
AcDbEntity
  8
0
100
AcDbSpline
 62
7
  6
CONTINUOUS
 70
0
 71
3
 72
14
 73
10
 74
0
 42
0.0000001
 43
0.0000001
 44
0.0000000001
 40
0.0
 40
0.0
 40
0.0
 40
0.0
 40
0.1080482432
 40
0.2181322873
 40
0.3321068339
 40
0.4515071146
 40
0.5774612857
 40
0.7107200697
 40
1.0
 40
1.0
 40
1.0
 40
1.0
 10
241.4054448231
 20
132.9173842412
 30
0.0
 10
241.2496908766
 20
133.0073064203
 30
0.0
 10
240.9189902004
 20
133.1621406091
 30
0.0
 10
240.3839236866
 20
133.3101111608
 30
0.0
 10
239.8135132296
 20
133.3737421988
 30
0.0
 10
239.213878185
 20
133.3528411895
 30
0.0
 10
238.5906958467
 20
133.2483361607
 30
0.0
 10
237.7127243828
 20
132.9923250583
 30
0.0
 10
237.0725267074
 20
132.6876237085
 30
0.0
 10
236.6555254165
 20
132.446869338
 30
0.0
  0
SPLINE
  5
2D1
100
AcDbEntity
  8
0
100
AcDbSpline
 62
7
  6
CONTINUOUS
 70
0
 71
3
 72
13
 73
9
 74
0
 42
0.0000001
 43
0.0000001
 44
0.0000000001
 40
0.0
 40
0.0
 40
0.0
 40
0.0
 40
0.3194790194
 40
0.5881945468
 40
0.7041438849
 40
0.8095582387
 40
0.9069774106
 40
1.0
 40
1.0
 40
1.0
 40
1.0
 10
233.8270865159
 20
134.0798323561
 30
0.0
 10
233.9570601479
 20
134.1548722196
 30
0.0
 10
234.1893623435
 20
134.3057636524
 30
0.0
 10
234.4376961553
 20
134.5279685844
 30
0.0
 10
234.5784118092
 20
134.7110303867
 30
0.0
 10
234.6512653921
 20
134.8426651371
 30
0.0
 10
234.6956783293
 20
134.9752652588
 30
0.0
 10
234.7057571362
 20
135.0650021357
 30
0.0
 10
234.7057573389
 20
135.1087009906
 30
0.0
  0
SPLINE
  5
2D2
100
AcDbEntity
  8
0
100
AcDbSpline
 62
7
  6
CONTINUOUS
 70
0
 71
3
 72
15
 73
11
 74
0
 42
0.0000001
 43
0.0000001
 44
0.0000000001
 40
0.0
 40
0.0
 40
0.0
 40
0.0
 40
0.1128918041
 40
0.2333101443
 40
0.3603878644
 40
0.4921915809
 40
0.6259166325
 40
0.7579799054
 40
0.8841486643
 40
1.0
 40
1.0
 40
1.0
 40
1.0
 10
229.5844458288
 20
133.6829025241
 30
0.0
 10
229.7286815978
 20
133.5996298479
 30
0.0
 10
230.0477894801
 20
133.4625365596
 30
0.0
 10
230.5701271936
 20
133.3505182928
 30
0.0
 10
231.1309234735
 20
133.3213600012
 30
0.0
 10
231.7096917965
 20
133.3665151885
 30
0.0
 10
232.2871210269
 20
133.4750435712
 30
0.0
 10
232.8436135553
 20
133.6351284218
 30
0.0
 10
233.3589498567
 20
133.8344854197
 30
0.0
 10
233.6790701294
 20
133.9943755656
 30
0.0
 10
233.8270865159
 20
134.0798323561
 30
0.0
  0
SPLINE
  5
2D3
100
AcDbEntity
  8
0
100
AcDbSpline
 62
7
  6
CONTINUOUS
 70
0
 71
3
 72
22
 73
18
 74
0
 42
0.0000001
 43
0.0000001
 44
0.0000000001
 40
0.0
 40
0.0
 40
0.0
 40
0.0
 40
0.0428206721
 40
0.0874091237
 40
0.1351989232
 40
0.187115567
 40
0.2435700749
 40
0.3045359276
 40
0.3696426965
 40
0.4382599231
 40
0.5095671151
 40
0.5826126676
 40
0.7296304357
 40
0.8016271948
 40
0.8712391052
 40
0.9375992407
 40
1.0
 40
1.0
 40
1.0
 40
1.0
 10
204.3283288796
 20
132.3842016602
 30
0.0
 10
204.094110391
 20
132.5194242921
 30
0.0
 10
203.6501228255
 20
132.8592511263
 30
0.0
 10
203.1158262423
 20
133.5348760333
 30
0.0
 10
202.7165808457
 20
134.3611357856
 30
0.0
 10
202.4580722706
 20
135.317853642
 30
0.0
 10
202.3429782761
 20
136.3848585033
 30
0.0
 10
202.3723878446
 20
137.5402149398
 30
0.0
 10
202.5450646696
 20
138.7600972547
 30
0.0
 10
202.8571321367
 20
140.0189683955
 30
0.0
 10
203.3019457174
 20
141.290455292
 30
0.0
 10
204.0606454749
 20
142.9688679164
 30
0.0
 10
205.0322312572
 20
144.5495546282
 30
0.0
 10
206.1807308093
 20
145.9675289035
 30
0.0
 10
207.098675544
 20
146.9100069585
 30
0.0
 10
208.0588707664
 20
147.7180620768
 30
0.0
 10
208.7369310956
 20
148.1712016103
 30
0.0
 10
209.0782461358
 20
148.3682587643
 30
0.0
  0
SPLINE
  5
2D4
100
AcDbEntity
  8
0
100
AcDbSpline
 62
7
  6
CONTINUOUS
 70
0
 71
3
 72
13
 73
9
 74
0
 42
0.0000001
 43
0.0000001
 44
0.0000000001
 40
0.0
 40
0.0
 40
0.0
 40
0.0
 40
0.2894093789
 40
0.5482893175
 40
0.6677436567
 40
0.7817682692
 40
0.8919016979
 40
1.0
 40
1.0
 40
1.0
 40
1.0
 10
68.9360892797
 20
302.81146242
 30
0.0
 10
69.4408790415
 20
303.1029011853
 30
0.0
 10
70.443965121
 20
303.5807260426
 30
0.0
 10
71.7648480586
 20
303.8987782862
 30
0.0
 10
72.7588950282
 20
303.9334755472
 30
0.0
 10
73.449403649
 20
303.8564141994
 30
0.0
 10
74.0971293499
 20
303.6773465974
 30
0.0
 10
74.4974277014
 20
303.4898575672
 30
0.0
 10
74.6859813901
 20
303.3810149668
 30
0.0
  0
SPLINE
  5
2D5
100
AcDbEntity
  8
0
100
AcDbSpline
 62
7
  6
CONTINUOUS
 70
0
 71
3
 72
21
 73
17
 74
0
 42
0.0000001
 43
0.0000001
 44
0.0000000001
 40
0.0
 40
0.0
 40
0.0
 40
0.0
 40
0.0428267898
 40
0.0874214706
 40
0.1352178693
 40
0.1871416157
 40
0.2436038565
 40
0.3045781607
 40
0.3696941097
 40
0.4383211231
 40
0.5825527211
 40
0.7295910421
 40
0.8015985542
 40
0.871219491
 40
0.9375916027
 40
1.0
 40
1.0
 40
1.0
 40
1.0
 10
63.1861971693
 20
283.4623542793
 30
0.0
 10
62.9026588588
 20
283.6260267445
 30
0.0
 10
62.3652193853
 20
284.0374270255
 30
0.0
 10
61.7184355355
 20
284.8552756118
 30
0.0
 10
61.2351372267
 20
285.8554815031
 30
0.0
 10
60.9221998675
 20
287.0136039885
 30
0.0
 10
60.7828660873
 20
288.305238207
 30
0.0
 10
60.8184674048
 20
289.7038086207
 30
0.0
 10
61.0274637423
 20
291.1805665772
 30
0.0
 10
61.5397210885
 20
293.2459946402
 30
0.0
 10
62.5767808627
 20
295.8108175852
 30
0.0
 10
64.0381242268
 20
298.1885951298
 30
0.0
 10
65.4285942895
 20
299.9053277066
 30
0.0
 10
66.5397528019
 20
301.0462022975
 30
0.0
 10
67.7021162706
 20
302.0243758855
 30
0.0
 10
68.5229266515
 20
302.5729242893
 30
0.0
 10
68.9360892797
 20
302.81146242
 30
0.0
  0
SPLINE
  5
2D6
100
AcDbEntity
  8
0
100
AcDbSpline
 62
7
  6
CONTINUOUS
 70
0
 71
3
 72
14
 73
10
 74
0
 42
0.0000001
 43
0.0000001
 44
0.0000000001
 40
0.0
 40
0.0
 40
0.0
 40
0.0
 40
0.4198448
 40
0.5840360543
 40
0.7191594594
 40
0.8265418279
 40
0.9076863151
 40
0.9644659903
 40
1.0
 40
1.0
 40
1.0
 40
1.0
 10
109.1925315012
 20
286.2648395587
 30
0.0
 10
109.3213707301
 20
286.3287039239
 30
0.0
 10
109.5015836173
 20
286.4156799355
 30
0.0
 10
109.7270152783
 20
286.5149552072
 30
0.0
 10
109.8562026385
 20
286.5672268899
 30
0.0
 10
109.9605880523
 20
286.6043815744
 30
0.0
 10
110.0417827473
 20
286.6272844678
 30
0.0
 10
110.100031666
 20
286.6369567456
 30
0.0
 10
110.1329916151
 20
286.6350526338
 30
0.0
 10
110.1439787228
 20
286.6298174766
 30
0.0
  0
SPLINE
  5
2D7
100
AcDbEntity
  8
0
100
AcDbSpline
 62
7
  6
CONTINUOUS
 70
0
 71
3
 72
11
 73
7
 74
0
 42
0.0000001
 43
0.0000001
 44
0.0000000001
 40
0.0
 40
0.0
 40
0.0
 40
0.0
 40
0.2861319112
 40
0.5528983514
 40
0.7918145755
 40
1.0
 40
1.0
 40
1.0
 40
1.0
 10
101.2734598059
 20
281.6927886751
 30
0.0
 10
99.9892831462
 20
280.9102296785
 30
0.0
 10
97.5174365295
 20
279.3823000075
 30
0.0
 10
93.9994667708
 20
277.1590263494
 30
0.0
 10
90.846375234
 20
275.1255307792
 30
0.0
 10
88.8840046692
 20
273.8328089134
 30
0.0
 10
87.9741974185
 20
273.2249853781
 30
0.0
  0
SPLINE
  5
2D8
100
AcDbEntity
  8
0
100
AcDbSpline
 62
7
  6
CONTINUOUS
 70
0
 71
3
 72
12
 73
8
 74
0
 42
0.0000001
 43
0.0000001
 44
0.0000000001
 40
0.0
 40
0.0
 40
0.0
 40
0.0
 40
0.2855240763
 40
0.5494915843
 40
0.6721061525
 40
0.7880352494
 40
1.0
 40
1.0
 40
1.0
 40
1.0
 10
101.2734598059
 20
281.6927886751
 30
0.0
 10
102.1401368453
 20
281.8891190752
 30
0.0
 10
103.7867952179
 20
282.3721498433
 30
0.0
 10
105.6957646129
 20
283.2508779681
 30
0.0
 10
107.0173721715
 20
284.0920041371
 30
0.0
 10
108.1210406078
 20
284.9582142329
 30
0.0
 10
108.8217261227
 20
285.7192164847
 30
0.0
 10
109.1925315012
 20
286.2648395587
 30
0.0
  0
SPLINE
  5
2D9
100
AcDbEntity
  8
0
100
AcDbSpline
 62
7
  6
CONTINUOUS
 70
0
 71
3
 72
13
 73
9
 74
0
 42
0.0000001
 43
0.0000001
 44
0.0000000001
 40
0.0
 40
0.0
 40
0.0
 40
0.0
 40
0.2894093637
 40
0.5482893222
 40
0.667743693
 40
0.7817683305
 40
0.8919017487
 40
1.0
 40
1.0
 40
1.0
 40
1.0
 10
73.5253924898
 20
277.8229528296
 30
0.0
 10
74.0301822246
 20
278.1143915792
 30
0.0
 10
75.0332683077
 20
278.5922164543
 30
0.0
 10
76.3541513171
 20
278.9102686913
 30
0.0
 10
77.3481984459
 20
278.9449659729
 30
0.0
 10
78.0387071455
 20
278.8679044954
 30
0.0
 10
78.6864327759
 20
278.6888369458
 30
0.0
 10
79.08673103
 20
278.5013479898
 30
0.0
 10
79.2752846195
 20
278.3925054226
 30
0.0
  0
SPLINE
  5
2DA
100
AcDbEntity
  8
0
100
AcDbSpline
 62
7
  6
CONTINUOUS
 70
0
 71
3
 72
11
 73
7
 74
0
 42
0.0000001
 43
0.0000001
 44
0.0000000001
 40
0.0
 40
0.0
 40
0.0
 40
0.0
 40
0.2884463769
 40
0.5471938033
 40
0.7809049901
 40
1.0
 40
1.0
 40
1.0
 40
1.0
 10
85.4959410338
 20
236.3151858719
 30
0.0
 10
85.371294843
 20
236.2396531523
 30
0.0
 10
85.1453667915
 20
236.0771750757
 30
0.0
 10
84.8765702381
 20
235.7836497844
 30
0.0
 10
84.7071109807
 20
235.4612299874
 30
0.0
 10
84.667667923
 20
235.2309646847
 30
0.0
 10
84.6676679244
 20
235.120260582
 30
0.0
  0
SPLINE
  5
2DB
100
AcDbEntity
  8
0
100
AcDbSpline
 62
7
  6
CONTINUOUS
 70
0
 71
3
 72
11
 73
7
 74
0
 42
0.0000001
 43
0.0000001
 44
0.0000000001
 40
0.0
 40
0.0
 40
0.0
 40
0.0
 40
0.2451117305
 40
0.4911314743
 40
0.741116646
 40
1.0
 40
1.0
 40
1.0
 40
1.0
 10
103.709840375
 20
228.1801991173
 30
0.0
 10
103.709840375
 20
228.2828676047
 30
0.0
 10
103.676164676
 20
228.4899768041
 30
0.0
 10
103.534008198
 20
228.7706240479
 30
0.0
 10
103.3194453296
 20
229.0070911098
 30
0.0
 10
103.1436911683
 20
229.1305385409
 30
0.0
 10
103.0497815053
 20
229.1847560835
 30
0.0
  0
SPLINE
  5
2DC
100
AcDbEntity
  8
0
100
AcDbSpline
 62
7
  6
CONTINUOUS
 70
0
 71
3
 72
9
 73
5
 74
0
 42
0.0000001
 43
0.0000001
 44
0.0000000001
 40
0.0
 40
0.0
 40
0.0
 40
0.0
 40
0.2463546754
 40
1.0
 40
1.0
 40
1.0
 40
1.0
 10
103.0497815053
 20
229.1847560835
 30
0.0
 10
103.0342595462
 20
229.1937174881
 30
0.0
 10
102.970712267
 20
229.2291522018
 30
0.0
 10
102.9051228359
 20
229.2608964606
 30
0.0
 10
102.854877861
 20
229.2828461941
 30
0.0
  0
SPLINE
  5
2DD
100
AcDbEntity
  8
0
100
AcDbSpline
 62
7
  6
CONTINUOUS
 70
0
 71
3
 72
15
 73
11
 74
0
 42
0.0000001
 43
0.0000001
 44
0.0000000001
 40
0.0
 40
0.0
 40
0.0
 40
0.0
 40
0.2629938592
 40
0.3991083722
 40
0.5313981818
 40
0.6564400342
 40
0.7740555785
 40
0.8873291586
 40
0.943530871
 40
1.0
 40
1.0
 40
1.0
 40
1.0
 10
102.854877861
 20
229.2828461941
 30
0.0
 10
102.5647309082
 20
229.4095981389
 30
0.0
 10
102.0794063937
 20
229.5064354356
 30
0.0
 10
101.439000191
 20
229.4786319629
 30
0.0
 10
100.9732978633
 20
229.3774975259
 30
0.0
 10
100.5559160538
 20
229.1970000104
 30
0.0
 10
100.2099716751
 20
228.9354743926
 30
0.0
 10
100.0086758238
 20
228.6445832616
 30
0.0
 10
99.9242781394
 20
228.3842843391
 30
0.0
 10
99.909840375
 20
228.2481837114
 30
0.0
 10
99.909840375
 20
228.1801991173
 30
0.0
  0
SPLINE
  5
2DE
100
AcDbEntity
  8
0
100
AcDbSpline
 62
7
  6
CONTINUOUS
 70
0
 71
3
 72
11
 73
7
 74
0
 42
0.0000001
 43
0.0000001
 44
0.0000000001
 40
0.0
 40
0.0
 40
0.0
 40
0.0
 40
0.2897781767
 40
0.5490726313
 40
0.7822276909
 40
1.0
 40
1.0
 40
1.0
 40
1.0
 10
85.5463343604
 20
230.1396170016
 30
0.0
 10
85.4146619995
 20
230.2156363548
 30
0.0
 10
85.1758064827
 20
230.3800814547
 30
0.0
 10
84.8904351246
 20
230.6801130335
 30
0.0
 10
84.7098656107
 20
231.0119042264
 30
0.0
 10
84.6676679259
 20
231.250088333
 30
0.0
 10
84.6676679244
 20
231.3643494632
 30
0.0
  0
SPLINE
  5
2DF
100
AcDbEntity
  8
0
100
AcDbSpline
 62
7
  6
CONTINUOUS
 70
0
 71
3
 72
13
 73
9
 74
0
 42
0.0000001
 43
0.0000001
 44
0.0000000001
 40
0.0
 40
0.0
 40
0.0
 40
0.0
 40
0.1142483233
 40
0.2375469957
 40
0.4999994774
 40
0.7624522452
 40
0.8857512516
 40
1.0
 40
1.0
 40
1.0
 40
1.0
 10
103.9311695504
 20
221.9748121092
 30
0.0
 10
103.7859591255
 20
221.8909753318
 30
0.0
 10
103.4683746953
 20
221.7430806333
 30
0.0
 10
102.7645459119
 20
221.5293185308
 30
0.0
 10
101.8098525301
 20
221.4254775894
 30
0.0
 10
100.8551582302
 20
221.5293141166
 30
0.0
 10
100.1513268093
 20
221.7430727569
 30
0.0
 10
99.8337404331
 20
221.8909658689
 30
0.0
 10
99.6885288633
 20
221.9748019112
 30
0.0
  0
SPLINE
  5
2E0
100
AcDbEntity
  8
0
100
AcDbSpline
 62
7
  6
CONTINUOUS
 70
0
 71
3
 72
11
 73
7
 74
0
 42
0.0000001
 43
0.0000001
 44
0.0000000001
 40
0.0
 40
0.0
 40
0.0
 40
0.0
 40
0.2451117305
 40
0.4911314743
 40
0.741116646
 40
1.0
 40
1.0
 40
1.0
 40
1.0
 10
117.8519171193
 20
236.3450821947
 30
0.0
 10
117.8519171193
 20
236.4477506822
 30
0.0
 10
117.8182414203
 20
236.6548598815
 30
0.0
 10
117.6760849422
 20
236.9355071253
 30
0.0
 10
117.4615220739
 20
237.1719741873
 30
0.0
 10
117.2857679126
 20
237.2954216183
 30
0.0
 10
117.1918582496
 20
237.349639161
 30
0.0
  0
SPLINE
  5
2E1
100
AcDbEntity
  8
0
100
AcDbSpline
 62
7
  6
CONTINUOUS
 70
0
 71
3
 72
9
 73
5
 74
0
 42
0.0000001
 43
0.0000001
 44
0.0000000001
 40
0.0
 40
0.0
 40
0.0
 40
0.0
 40
0.2463546754
 40
1.0
 40
1.0
 40
1.0
 40
1.0
 10
117.1918582496
 20
237.349639161
 30
0.0
 10
117.1763362905
 20
237.3586005655
 30
0.0
 10
117.1127890112
 20
237.3940352793
 30
0.0
 10
117.0471995801
 20
237.4257795381
 30
0.0
 10
116.9969546053
 20
237.4477292715
 30
0.0
  0
SPLINE
  5
2E2
100
AcDbEntity
  8
0
100
AcDbSpline
 62
7
  6
CONTINUOUS
 70
0
 71
3
 72
9
 73
5
 74
0
 42
0.0000001
 43
0.0000001
 44
0.0000000001
 40
0.0
 40
0.0
 40
0.0
 40
0.0
 40
0.489332314
 40
1.0
 40
1.0
 40
1.0
 40
1.0
 10
116.9969546053
 20
237.4477292715
 30
0.0
 10
116.8055851562
 20
237.5313298388
 30
0.0
 10
116.3887376628
 20
237.6451283941
 30
0.0
 10
115.9585100438
 20
237.661520589
 30
0.0
 10
115.7411434811
 20
237.6457408945
 30
0.0
  0
SPLINE
  5
2E3
100
AcDbEntity
  8
0
100
AcDbSpline
 62
7
  6
CONTINUOUS
 70
0
 71
3
 72
11
 73
7
 74
0
 42
0.0000001
 43
0.0000001
 44
0.0000000001
 40
0.0
 40
0.0
 40
0.0
 40
0.0
 40
0.2177723091
 40
0.4509273687
 40
0.7102218233
 40
1.0
 40
1.0
 40
1.0
 40
1.0
 10
118.9518950669
 20
235.120328569
 30
0.0
 10
118.9518950654
 20
235.2345896992
 30
0.0
 10
118.9096973806
 20
235.4727738058
 30
0.0
 10
118.7291278667
 20
235.8045649987
 30
0.0
 10
118.4437565086
 20
236.1045965775
 30
0.0
 10
118.2049009918
 20
236.2690416774
 30
0.0
 10
118.0732286309
 20
236.3450610306
 30
0.0
  0
SPLINE
  5
2E4
100
AcDbEntity
  8
0
100
AcDbSpline
 62
7
  6
CONTINUOUS
 70
0
 71
3
 72
11
 73
7
 74
0
 42
0.0000001
 43
0.0000001
 44
0.0000000001
 40
0.0
 40
0.0
 40
0.0
 40
0.0
 40
0.2177727701
 40
0.4509280213
 40
0.7102223029
 40
1.0
 40
1.0
 40
1.0
 40
1.0
 10
118.9518950669
 20
231.3644174502
 30
0.0
 10
118.9518950684
 20
231.2501575501
 30
0.0
 10
118.9096983471
 20
231.0119761916
 30
0.0
 10
118.7291327395
 20
230.6801882112
 30
0.0
 10
118.4437671771
 20
230.3801588564
 30
0.0
 10
118.2049161933
 20
230.2157143843
 30
0.0
 10
118.0732462947
 20
230.1396951867
 30
0.0
  0
SPLINE
  5
2E5
100
AcDbEntity
  8
0
100
AcDbSpline
 62
7
  6
CONTINUOUS
 70
0
 71
3
 72
23
 73
19
 74
0
 42
0.0000001
 43
0.0000001
 44
0.0000000001
 40
0.0
 40
0.0
 40
0.0
 40
0.0
 40
0.0428143767
 40
0.0873963266
 40
0.1351792644
 40
0.1870885817
 40
0.2435352511
 40
0.3044927548
 40
0.3695907094
 40
0.4381987331
 40
0.5094964487
 40
0.5825323633
 40
0.6562760996
 40
0.729664833
 40
0.8016523087
 40
0.8712553197
 40
0.9376070773
 40
1.0
 40
1.0
 40
1.0
 40
1.0
 10
115.8097750753
 20
238.0597032771
 30
0.0
 10
115.8097759953
 20
237.6611542699
 30
0.0
 10
115.7032141494
 20
236.8441374684
 30
0.0
 10
115.2346362299
 20
235.6644463428
 30
0.0
 10
114.4743041389
 20
234.5461210029
 30
0.0
 10
113.4437786703
 20
233.5112834153
 30
0.0
 10
112.1668304385
 20
232.5782130994
 30
0.0
 10
110.6706474163
 20
231.7644606303
 30
0.0
 10
108.9865641452
 20
231.0860085301
 30
0.0
 10
107.1499601394
 20
230.5567034165
 30
0.0
 10
105.1996588857
 20
230.1875842452
 30
0.0
 10
103.1770879555
 20
229.9864455414
 30
0.0
 10
101.1253509667
 20
229.9575749626
 30
0.0
 10
99.0882110859
 20
230.1015710395
 30
0.0
 10
97.1091417593
 20
230.4153884212
 30
0.0
 10
95.2300815209
 20
230.8923846305
 30
0.0
 10
93.4912551738
 20
231.5224247119
 30
0.0
 10
92.4133191319
 20
232.0538894971
 30
0.0
 10
91.9103277747
 20
232.344285123
 30
0.0
  0
SPLINE
  5
2E6
100
AcDbEntity
  8
0
100
AcDbSpline
 62
7
  6
CONTINUOUS
 70
0
 71
3
 72
21
 73
17
 74
0
 42
0.0000001
 43
0.0000001
 44
0.0000000001
 40
0.0
 40
0.0
 40
0.0
 40
0.0
 40
0.0428267842
 40
0.0874214681
 40
0.135217865
 40
0.1871416048
 40
0.2436038332
 40
0.3045781221
 40
0.3696940577
 40
0.4383210659
 40
0.5825526823
 40
0.7295909905
 40
0.8015985371
 40
0.8712194981
 40
0.9375916107
 40
1.0
 40
1.0
 40
1.0
 40
1.0
 10
67.7755003601
 20
258.4738446426
 30
0.0
 10
67.4919621019
 20
258.6375171136
 30
0.0
 10
66.9545226785
 20
259.0489174096
 30
0.0
 10
66.3077387738
 20
259.8667659115
 30
0.0
 10
65.8244405055
 20
260.8669717817
 30
0.0
 10
65.5115031365
 20
262.025094094
 30
0.0
 10
65.3721693437
 20
263.3167280478
 30
0.0
 10
65.4077705638
 20
264.7152981462
 30
0.0
 10
65.6167667405
 20
266.1920558634
 30
0.0
 10
66.1290239153
 20
268.2574839681
 30
0.0
 10
67.1660835736
 20
270.8223069736
 30
0.0
 10
68.6274269971
 20
273.2000848333
 30
0.0
 10
70.0178971834
 20
274.9168177655
 30
0.0
 10
71.1290559941
 20
276.0576927054
 30
0.0
 10
72.291419566
 20
277.0358663765
 30
0.0
 10
73.1122299144
 20
277.5844147294
 30
0.0
 10
73.5253924898
 20
277.8229528296
 30
0.0
  0
SPLINE
  5
2E7
100
AcDbEntity
  8
0
100
AcDbSpline
 62
7
  6
CONTINUOUS
 70
0
 71
3
 72
11
 73
7
 74
0
 42
0.0000001
 43
0.0000001
 44
0.0000000001
 40
0.0
 40
0.0
 40
0.0
 40
0.0
 40
0.2448197203
 40
0.5075829757
 40
0.7662618223
 40
1.0
 40
1.0
 40
1.0
 40
1.0
 10
88.8251487896
 20
234.2503957877
 30
0.0
 10
88.6328005807
 20
234.1650785377
 30
0.0
 10
88.2081306912
 20
234.0449861511
 30
0.0
 10
87.546667091
 20
234.0029830791
 30
0.0
 10
86.8995185893
 20
234.0921633878
 30
0.0
 10
86.4981307676
 20
234.2441503
 30
0.0
 10
86.3241485813
 20
234.3445966896
 30
0.0
  0
SPLINE
  5
2E8
100
AcDbEntity
  8
0
100
AcDbSpline
 62
7
  6
CONTINUOUS
 70
0
 71
3
 72
14
 73
10
 74
0
 42
0.0000001
 43
0.0000001
 44
0.0000000001
 40
0.0
 40
0.0
 40
0.0
 40
0.0
 40
0.4198448
 40
0.5840360543
 40
0.7191594594
 40
0.8265418279
 40
0.9076863151
 40
0.9644659903
 40
1.0
 40
1.0
 40
1.0
 40
1.0
 10
114.842499299
 20
260.6639688365
 30
0.0
 10
114.9713385279
 20
260.7278332016
 30
0.0
 10
115.1515514151
 20
260.8148092133
 30
0.0
 10
115.376983076
 20
260.914084485
 30
0.0
 10
115.5061704362
 20
260.9663561677
 30
0.0
 10
115.6105558501
 20
261.0035108522
 30
0.0
 10
115.6917505451
 20
261.0264137456
 30
0.0
 10
115.7499994638
 20
261.0360860234
 30
0.0
 10
115.7829594129
 20
261.0341819116
 30
0.0
 10
115.7939465206
 20
261.0289467544
 30
0.0
  0
SPLINE
  5
2E9
100
AcDbEntity
  8
0
100
AcDbSpline
 62
7
  6
CONTINUOUS
 70
0
 71
3
 72
16
 73
12
 74
0
 42
0.0000001
 43
0.0000001
 44
0.0000000001
 40
0.0
 40
0.0
 40
0.0
 40
0.0
 40
0.1367484362
 40
0.2821368884
 40
0.4293127978
 40
0.5710690874
 40
0.7010693012
 40
0.8151037033
 40
0.9127696571
 40
0.9571482185
 40
1.0
 40
1.0
 40
1.0
 40
1.0
 10
114.8594387587
 20
235.4476333692
 30
0.0
 10
115.0075457045
 20
235.3875137913
 30
0.0
 10
115.3264585107
 20
235.2952174963
 30
0.0
 10
115.8268498368
 20
235.2372544221
 30
0.0
 10
116.3362211802
 20
235.2572839222
 30
0.0
 10
116.8185468917
 20
235.3539795367
 30
0.0
 10
117.240580749
 20
235.5211158908
 30
0.0
 10
117.5740758698
 20
235.7479063177
 30
0.0
 10
117.7647576593
 20
235.988140144
 30
0.0
 10
117.8395467624
 20
236.1926562193
 30
0.0
 10
117.8519204525
 20
236.2949932101
 30
0.0
 10
117.8519171196
 20
236.3450821947
 30
0.0
  0
SPLINE
  5
2EA
100
AcDbEntity
  8
0
100
AcDbSpline
 62
7
  6
CONTINUOUS
 70
0
 71
3
 72
19
 73
15
 74
0
 42
0.0000001
 43
0.0000001
 44
0.0000000001
 40
0.0
 40
0.0
 40
0.0
 40
0.0
 40
0.1488209978
 40
0.3047464555
 40
0.4559393371
 40
0.5917126449
 40
0.6517829177
 40
0.7062947806
 40
0.7559171753
 40
0.8021895
 40
0.8473984566
 40
0.8940974602
 40
0.9444851007
 40
1.0
 40
1.0
 40
1.0
 40
1.0
 10
115.2236226006
 20
236.0630521884
 30
0.0
 10
115.3662274536
 20
236.0128554682
 30
0.0
 10
115.6714612781
 20
235.9460840708
 30
0.0
 10
116.1372169333
 20
235.9370261175
 30
0.0
 10
116.5831559799
 20
236.0150880248
 30
0.0
 10
116.9129874279
 20
236.1518074662
 30
0.0
 10
117.1203222818
 20
236.30099705
 30
0.0
 10
117.2365585313
 20
236.4222187437
 30
0.0
 10
117.3160484621
 20
236.5544885246
 30
0.0
 10
117.3553011102
 20
236.6944049141
 30
0.0
 10
117.3514568502
 20
236.8368663702
 30
0.0
 10
117.3050813421
 20
236.9757849074
 30
0.0
 10
117.218937079
 20
237.1063819709
 30
0.0
 10
117.1412451054
 20
237.1819342806
 30
0.0
 10
117.0976818429
 20
237.2177489302
 30
0.0
  0
SPLINE
  5
2EB
100
AcDbEntity
  8
0
100
AcDbSpline
 62
7
  6
CONTINUOUS
 70
0
 71
3
 72
9
 73
5
 74
0
 42
0.0000001
 43
0.0000001
 44
0.0000000001
 40
0.0
 40
0.0
 40
0.0
 40
0.0
 40
0.2417316218
 40
1.0
 40
1.0
 40
1.0
 40
1.0
 10
117.0976818429
 20
237.2177489302
 30
0.0
 10
117.0859046668
 20
237.2274312958
 30
0.0
 10
117.0362756384
 20
237.2663745691
 30
0.0
 10
116.9832803288
 20
237.30096316
 30
0.0
 10
116.9418624914
 20
237.3248752187
 30
0.0
  0
SPLINE
  5
2EC
100
AcDbEntity
  8
0
100
AcDbSpline
 62
7
  6
CONTINUOUS
 70
0
 71
3
 72
10
 73
6
 74
0
 42
0.0000001
 43
0.0000001
 44
0.0000000001
 40
0.0
 40
0.0
 40
0.0
 40
0.0
 40
0.2279407193
 40
0.4763313067
 40
1.0
 40
1.0
 40
1.0
 40
1.0
 10
116.9418624914
 20
237.3248752187
 30
0.0
 10
116.859921156
 20
237.3721830005
 30
0.0
 10
116.6779414165
 20
237.4529764363
 30
0.0
 10
116.2752946652
 20
237.557897758
 30
0.0
 10
115.9496289881
 20
237.5714646051
 30
0.0
 10
115.7331591454
 20
237.5516751911
 30
0.0
  0
SPLINE
  5
2ED
100
AcDbEntity
  8
0
100
AcDbSpline
 62
7
  6
CONTINUOUS
 70
0
 71
3
 72
17
 73
13
 74
0
 42
0.0000001
 43
0.0000001
 44
0.0000000001
 40
0.0
 40
0.0
 40
0.0
 40
0.0
 40
0.1286888688
 40
0.2702719422
 40
0.4174318501
 40
0.5617773054
 40
0.6954483126
 40
0.8127138313
 40
0.8646770028
 40
0.9125122438
 40
0.9571395731
 40
1.0
 40
1.0
 40
1.0
 40
1.0
 10
100.4663430843
 20
227.4045352249
 30
0.0
 10
100.6069885288
 20
227.3233353766
 30
0.0
 10
100.9254221012
 20
227.1919441991
 30
0.0
 10
101.4444196436
 20
227.0881240252
 30
0.0
 10
101.993353851
 20
227.0729187036
 30
0.0
 10
102.5274329174
 20
227.1479695634
 30
0.0
 10
103.0033442872
 20
227.3069321475
 30
0.0
 10
103.3343455287
 20
227.5084044452
 30
0.0
 10
103.5285869197
 20
227.7033576299
 30
0.0
 10
103.631793001
 20
227.8551284732
 30
0.0
 10
103.6953436979
 20
228.015237726
 30
0.0
 10
103.7098439743
 20
228.1261102246
 30
0.0
 10
103.7098403753
 20
228.1801991173
 30
0.0
  0
SPLINE
  5
2EE
100
AcDbEntity
  8
0
100
AcDbSpline
 62
7
  6
CONTINUOUS
 70
0
 71
3
 72
19
 73
15
 74
0
 42
0.0000001
 43
0.0000001
 44
0.0000000001
 40
0.0
 40
0.0
 40
0.0
 40
0.0
 40
0.1375031753
 40
0.2897301121
 40
0.4436111787
 40
0.5855383886
 40
0.6488660308
 40
0.7061397013
 40
0.7576539185
 40
0.804712273
 40
0.8496919727
 40
0.8955724926
 40
0.9450692869
 40
1.0
 40
1.0
 40
1.0
 40
1.0
 10
100.8198950029
 20
228.0169085104
 30
0.0
 10
100.9522173345
 20
227.9405139049
 30
0.0
 10
101.2583313726
 20
227.8262967347
 30
0.0
 10
101.7505669456
 20
227.7633271142
 30
0.0
 10
102.2503143677
 20
227.8026502263
 30
0.0
 10
102.6363424005
 20
227.9215489748
 30
0.0
 10
102.890394875
 20
228.067289253
 30
0.0
 10
103.0379471803
 20
228.1908695684
 30
0.0
 10
103.1446507352
 20
228.3294036412
 30
0.0
 10
103.2055101837
 20
228.4793994274
 30
0.0
 10
103.2158903294
 20
228.6350715348
 30
0.0
 10
103.1749504437
 20
228.7882365104
 30
0.0
 10
103.0861221208
 20
228.931931685
 30
0.0
 10
103.0027547933
 20
229.0141026909
 30
0.0
 10
102.9556050986
 20
229.0528658527
 30
0.0
  0
SPLINE
  5
2EF
100
AcDbEntity
  8
0
100
AcDbSpline
 62
7
  6
CONTINUOUS
 70
0
 71
3
 72
9
 73
5
 74
0
 42
0.0000001
 43
0.0000001
 44
0.0000000001
 40
0.0
 40
0.0
 40
0.0
 40
0.0
 40
0.2417316218
 40
1.0
 40
1.0
 40
1.0
 40
1.0
 10
102.9556050986
 20
229.0528658527
 30
0.0
 10
102.9438279225
 20
229.0625482184
 30
0.0
 10
102.8941988941
 20
229.1014914917
 30
0.0
 10
102.8412035846
 20
229.1360800826
 30
0.0
 10
102.7997857471
 20
229.1599921413
 30
0.0
  0
SPLINE
  5
2F0
100
AcDbEntity
  8
0
100
AcDbSpline
 62
7
  6
CONTINUOUS
 70
0
 71
3
 72
19
 73
15
 74
0
 42
0.0000001
 43
0.0000001
 44
0.0000000001
 40
0.0
 40
0.0
 40
0.0
 40
0.0
 40
0.138268433
 40
0.291399633
 40
0.4445411314
 40
0.5827846438
 40
0.6432373716
 40
0.6973194311
 40
0.7459596107
 40
0.7913884449
 40
0.8368174529
 40
0.8854518571
 40
0.9395803522
 40
1.0
 40
1.0
 40
1.0
 40
1.0
 10
102.7997857471
 20
229.1599921413
 30
0.0
 10
102.6592349559
 20
229.2411373427
 30
0.0
 10
102.3323918113
 20
229.3595364297
 30
0.0
 10
101.8098440543
 20
229.4162821804
 30
0.0
 10
101.2871925022
 20
229.3594297504
 30
0.0
 10
100.8928576054
 20
229.2168520289
 30
0.0
 10
100.6470365022
 20
229.0478259029
 30
0.0
 10
100.5138294555
 20
228.9078072913
 30
0.0
 10
100.4295548544
 20
228.7528601235
 30
0.0
 10
100.4003659758
 20
228.5884819235
 30
0.0
 10
100.4295182026
 20
228.4241077715
 30
0.0
 10
100.5138100794
 20
228.2690919078
 30
0.0
 10
100.6470367525
 20
228.1291659237
 30
0.0
 10
100.7584780249
 20
228.052366817
 30
0.0
 10
100.8198950029
 20
228.0169085104
 30
0.0
  0
SPLINE
  5
2F1
100
AcDbEntity
  8
0
100
AcDbSpline
 62
7
  6
CONTINUOUS
 70
0
 71
3
 72
11
 73
7
 74
0
 42
0.0000001
 43
0.0000001
 44
0.0000000001
 40
0.0
 40
0.0
 40
0.0
 40
0.0
 40
0.2975552641
 40
0.5687949365
 40
0.804100065
 40
1.0
 40
1.0
 40
1.0
 40
1.0
 10
106.9234276036
 20
256.0919179529
 30
0.0
 10
105.4128568797
 20
255.1713976326
 30
0.0
 10
102.5383446813
 20
253.3903302253
 30
0.0
 10
98.5035145265
 20
250.8266346055
 30
0.0
 10
95.0033761635
 20
248.5487915757
 30
0.0
 10
92.8721235538
 20
247.1240621086
 30
0.0
 10
91.9103277747
 20
246.4673469249
 30
0.0
  0
SPLINE
  5
2F2
100
AcDbEntity
  8
0
100
AcDbSpline
 62
7
  6
CONTINUOUS
 70
0
 71
3
 72
9
 73
5
 74
0
 42
0.0000001
 43
0.0000001
 44
0.0000000001
 40
0.0
 40
0.0
 40
0.0
 40
0.0
 40
0.4778425454
 40
1.0
 40
1.0
 40
1.0
 40
1.0
 10
86.3241485813
 20
235.5693503153
 30
0.0
 10
86.4432579637
 20
235.500584037
 30
0.0
 10
86.7090669858
 20
235.3847983119
 30
0.0
 10
86.9899442003
 20
235.3163464822
 30
0.0
 10
87.1381688178
 20
235.2915172346
 30
0.0
  0
SPLINE
  5
2F3
100
AcDbEntity
  8
0
100
AcDbSpline
 62
7
  6
CONTINUOUS
 70
0
 71
3
 72
12
 73
8
 74
0
 42
0.0000001
 43
0.0000001
 44
0.0000000001
 40
0.0
 40
0.0
 40
0.0
 40
0.0
 40
0.2855240763
 40
0.5494915843
 40
0.6721061525
 40
0.7880352494
 40
1.0
 40
1.0
 40
1.0
 40
1.0
 10
106.9234276036
 20
256.0919179529
 30
0.0
 10
107.7901046431
 20
256.2882483529
 30
0.0
 10
109.4367630157
 20
256.771279121
 30
0.0
 10
111.3457324107
 20
257.6500072459
 30
0.0
 10
112.6673399692
 20
258.4911334149
 30
0.0
 10
113.7710084055
 20
259.3573435107
 30
0.0
 10
114.4716939205
 20
260.1183457625
 30
0.0
 10
114.842499299
 20
260.6639688365
 30
0.0
  0
SPLINE
  5
2F4
100
AcDbEntity
  8
0
100
AcDbSpline
 62
7
  6
CONTINUOUS
 70
0
 71
3
 72
17
 73
13
 74
0
 42
0.0000001
 43
0.0000001
 44
0.0000000001
 40
0.0
 40
0.0
 40
0.0
 40
0.0
 40
0.0428584554
 40
0.0874839031
 40
0.1353177481
 40
0.1872794187
 40
0.3045395902
 40
0.4382053041
 40
0.582547581
 40
0.729712444
 40
0.8713059798
 40
1.0
 40
1.0
 40
1.0
 40
1.0
 10
117.8519106427
 20
235.1203285654
 30
0.0
 10
117.8519147323
 20
235.0662423309
 30
0.0
 10
117.8374169003
 20
234.9553745738
 30
0.0
 10
117.7738661698
 20
234.7952732516
 30
0.0
 10
117.6706686933
 20
234.6435049607
 30
0.0
 10
117.4764369634
 20
234.448557733
 30
0.0
 10
117.1454555447
 20
234.2470862394
 30
0.0
 10
116.6695654422
 20
234.0881197584
 30
0.0
 10
116.1354947233
 20
234.0130549888
 30
0.0
 10
115.5865461281
 20
234.0282492783
 30
0.0
 10
115.067522812
 20
234.1320660482
 30
0.0
 10
114.7490704607
 20
234.2634618334
 30
0.0
 10
114.6084198285
 20
234.3446646767
 30
0.0
  0
SPLINE
  5
2F5
100
AcDbEntity
  8
0
100
AcDbSpline
 62
7
  6
CONTINUOUS
 70
0
 71
3
 72
13
 73
9
 74
0
 42
0.0000001
 43
0.0000001
 44
0.0000000001
 40
0.0
 40
0.0
 40
0.0
 40
0.0
 40
0.1142487484
 40
0.2375477548
 40
0.5000005226
 40
0.7624530043
 40
0.8857516767
 40
1.0
 40
1.0
 40
1.0
 40
1.0
 10
99.6885288633
 20
225.73071303
 30
0.0
 10
99.8337404331
 20
225.6468769877
 30
0.0
 10
100.1513268093
 20
225.4989838757
 30
0.0
 10
100.8551582302
 20
225.2852252354
 30
0.0
 10
101.8098525301
 20
225.1813887082
 30
0.0
 10
102.7645459119
 20
225.2852296496
 30
0.0
 10
103.4683746953
 20
225.4989917521
 30
0.0
 10
103.7859591255
 20
225.6468864506
 30
0.0
 10
103.9311695504
 20
225.730723228
 30
0.0
  0
SPLINE
  5
2F6
100
AcDbEntity
  8
0
100
AcDbSpline
 62
7
  6
CONTINUOUS
 70
0
 71
3
 72
11
 73
7
 74
0
 42
0.0000001
 43
0.0000001
 44
0.0000000001
 40
0.0
 40
0.0
 40
0.0
 40
0.0
 40
0.2177723091
 40
0.4509273687
 40
0.7102218233
 40
1.0
 40
1.0
 40
1.0
 40
1.0
 10
84.6676679244
 20
235.120260582
 30
0.0
 10
84.6676679259
 20
235.0059994518
 30
0.0
 10
84.7098656107
 20
234.7678153452
 30
0.0
 10
84.8904351246
 20
234.4360241523
 30
0.0
 10
85.1758064827
 20
234.1359925735
 30
0.0
 10
85.4146619995
 20
233.9715474736
 30
0.0
 10
85.5463343604
 20
233.8955281204
 30
0.0
  0
SPLINE
  5
2F7
100
AcDbEntity
  8
0
100
AcDbSpline
 62
7
  6
CONTINUOUS
 70
0
 71
3
 72
11
 73
7
 74
0
 42
0.0000001
 43
0.0000001
 44
0.0000000001
 40
0.0
 40
0.0
 40
0.0
 40
0.0
 40
0.2897776971
 40
0.5490719787
 40
0.7822272299
 40
1.0
 40
1.0
 40
1.0
 40
1.0
 10
118.0732462947
 20
233.8956063055
 30
0.0
 10
118.2049161933
 20
233.9716255031
 30
0.0
 10
118.4437671771
 20
234.1360699752
 30
0.0
 10
118.7291327395
 20
234.43609933
 30
0.0
 10
118.9096983471
 20
234.7678873104
 30
0.0
 10
118.9518950684
 20
235.0060686689
 30
0.0
 10
118.9518950669
 20
235.120328569
 30
0.0
  0
SPLINE
  5
2F8
100
AcDbEntity
  8
0
100
AcDbSpline
 62
7
  6
CONTINUOUS
 70
0
 71
3
 72
11
 73
7
 74
0
 42
0.0000001
 43
0.0000001
 44
0.0000000001
 40
0.0
 40
0.0
 40
0.0
 40
0.0
 40
0.2211968568
 40
0.4596517185
 40
0.7188867346
 40
1.0
 40
1.0
 40
1.0
 40
1.0
 10
113.5631300049
 20
233.7229042133
 30
0.0
 10
113.4422015259
 20
233.3838748856
 30
0.0
 10
113.1048138831
 20
232.7082235467
 30
0.0
 10
112.3759964869
 20
231.784924898
 30
0.0
 10
111.4275255262
 20
230.9364426794
 30
0.0
 10
110.6912638481
 20
230.450130501
 30
0.0
 10
110.2950981974
 20
230.2214055213
 30
0.0
  0
SPLINE
  5
2F9
100
AcDbEntity
  8
0
100
AcDbSpline
 62
7
  6
CONTINUOUS
 70
0
 71
3
 72
9
 73
5
 74
0
 42
0.0000001
 43
0.0000001
 44
0.0000000001
 40
0.0
 40
0.0
 40
0.0
 40
0.0
 40
0.262171749
 40
1.0
 40
1.0
 40
1.0
 40
1.0
 10
114.6084198285
 20
234.3446646767
 30
0.0
 10
114.5818406883
 20
234.3600098033
 30
0.0
 10
114.4820277771
 20
234.4211511923
 30
0.0
 10
114.3885461527
 20
234.4931044304
 30
0.0
 10
114.3260556614
 20
234.5527299873
 30
0.0
  0
SPLINE
  5
2FA
100
AcDbEntity
  8
0
100
AcDbSpline
 62
7
  6
CONTINUOUS
 70
0
 71
3
 72
11
 73
7
 74
0
 42
0.0000001
 43
0.0000001
 44
0.0000000001
 40
0.0
 40
0.0
 40
0.0
 40
0.0
 40
0.2897036169
 40
0.5490920547
 40
0.7822205729
 40
1.0
 40
1.0
 40
1.0
 40
1.0
 10
100.4663430843
 20
226.1797815992
 30
0.0
 10
100.3829724548
 20
226.2279145657
 30
0.0
 10
100.2317162102
 20
226.3320934051
 30
0.0
 10
100.0509402435
 20
226.5220720998
 30
0.0
 10
99.9365895283
 20
226.7322406181
 30
0.0
 10
99.9098523233
 20
226.8830781027
 30
0.0
 10
99.9098468515
 20
226.9554454952
 30
0.0
  0
SPLINE
  5
2FB
100
AcDbEntity
  8
0
100
AcDbSpline
 62
7
  6
CONTINUOUS
 70
0
 71
3
 72
9
 73
5
 74
0
 42
0.0000001
 43
0.0000001
 44
0.0000000001
 40
0.0
 40
0.0
 40
0.0
 40
0.0
 40
0.4595942789
 40
1.0
 40
1.0
 40
1.0
 40
1.0
 10
85.8104135294
 20
236.1136252463
 30
0.0
 10
85.8511124057
 20
236.0046347305
 30
0.0
 10
85.9986234874
 20
235.7891836485
 30
0.0
 10
86.2056773634
 20
235.6377481575
 30
0.0
 10
86.3241485813
 20
235.5693503153
 30
0.0
  0
SPLINE
  5
2FC
100
AcDbEntity
  8
0
100
AcDbSpline
 62
7
  6
CONTINUOUS
 70
0
 71
3
 72
11
 73
7
 74
0
 42
0.0000001
 43
0.0000001
 44
0.0000000001
 40
0.0
 40
0.0
 40
0.0
 40
0.0
 40
0.2897036169
 40
0.5490920547
 40
0.7822205729
 40
1.0
 40
1.0
 40
1.0
 40
1.0
 10
86.3241485813
 20
234.3445966896
 30
0.0
 10
86.2407779519
 20
234.3927296561
 30
0.0
 10
86.0895217072
 20
234.4969084955
 30
0.0
 10
85.9087457405
 20
234.6868871902
 30
0.0
 10
85.7943950254
 20
234.8970557085
 30
0.0
 10
85.7676578204
 20
235.0478931931
 30
0.0
 10
85.7676523486
 20
235.1202605856
 30
0.0
  0
SPLINE
  5
2FD
100
AcDbEntity
  8
0
100
AcDbSpline
 62
7
  6
CONTINUOUS
 70
0
 71
3
 72
11
 73
7
 74
0
 42
0.0000001
 43
0.0000001
 44
0.0000000001
 40
0.0
 40
0.0
 40
0.0
 40
0.0
 40
0.2301324488
 40
0.4756530228
 40
0.7335208867
 40
1.0
 40
1.0
 40
1.0
 40
1.0
 10
110.2950981974
 20
230.2214055213
 30
0.0
 10
109.8337624209
 20
229.9550547764
 30
0.0
 10
108.8409060718
 20
229.4710898852
 30
0.0
 10
107.2353276367
 20
228.9090604007
 30
0.0
 10
105.498355359
 20
228.4978695072
 30
0.0
 10
104.2937985754
 20
228.3327626614
 30
0.0
 10
103.6795034782
 20
228.2768096329
 30
0.0
  0
SPLINE
  5
2FE
100
AcDbEntity
  8
0
100
AcDbSpline
 62
7
  6
CONTINUOUS
 70
0
 71
3
 72
14
 73
10
 74
0
 42
0.0000001
 43
0.0000001
 44
0.0000000001
 40
0.0
 40
0.0
 40
0.0
 40
0.0
 40
0.2929107665
 40
0.4314464155
 40
0.5625524806
 40
0.6851510281
 40
0.798691698
 40
0.9033107111
 40
1.0
 40
1.0
 40
1.0
 40
1.0
 10
99.9085169621
 20
228.2797150924
 30
0.0
 10
98.8096106761
 20
228.3815016611
 30
0.0
 10
97.19715155
 20
228.6627393973
 30
0.0
 10
95.1787236498
 20
229.3180504658
 30
0.0
 10
93.8245640326
 20
229.917534355
 30
0.0
 10
92.6296837271
 20
230.6221775154
 30
0.0
 10
91.6173884484
 20
231.4193654244
 30
0.0
 10
90.8084520017
 20
232.2943533986
 30
0.0
 10
90.4027941625
 20
232.9425518518
 30
0.0
 10
90.2452083911
 20
233.2710042155
 30
0.0
  0
SPLINE
  5
2FF
100
AcDbEntity
  8
0
100
AcDbSpline
 62
7
  6
CONTINUOUS
 70
0
 71
3
 72
11
 73
7
 74
0
 42
0.0000001
 43
0.0000001
 44
0.0000000001
 40
0.0
 40
0.0
 40
0.0
 40
0.0
 40
0.2177836649
 40
0.4509127634
 40
0.7102976676
 40
1.0
 40
1.0
 40
1.0
 40
1.0
 10
99.9098403747
 20
228.1801991173
 30
0.0
 10
99.9098451901
 20
228.1078300924
 30
0.0
 10
99.9365870698
 20
227.9569907924
 30
0.0
 10
100.0509402346
 20
227.74682301
 30
0.0
 10
100.2317165001
 20
227.5568452947
 30
0.0
 10
100.3829725663
 20
227.452668127
 30
0.0
 10
100.4663430843
 20
227.4045352249
 30
0.0
  0
SPLINE
  5
300
100
AcDbEntity
  8
0
100
AcDbSpline
 62
7
  6
CONTINUOUS
 70
0
 71
3
 72
17
 73
13
 74
0
 42
0.0000001
 43
0.0000001
 44
0.0000000001
 40
0.0
 40
0.0
 40
0.0
 40
0.0
 40
0.0428584554
 40
0.0874839031
 40
0.1353177481
 40
0.1872794187
 40
0.3045395902
 40
0.4382053041
 40
0.582547581
 40
0.729712444
 40
0.8713059798
 40
1.0
 40
1.0
 40
1.0
 40
1.0
 10
103.7098338985
 20
226.9554454879
 30
0.0
 10
103.709837988
 20
226.9013592534
 30
0.0
 10
103.695340156
 20
226.7904914963
 30
0.0
 10
103.6317894256
 20
226.6303901742
 30
0.0
 10
103.528591949
 20
226.4786218833
 30
0.0
 10
103.3343602191
 20
226.2836746555
 30
0.0
 10
103.0033788004
 20
226.082203162
 30
0.0
 10
102.527488698
 20
225.9232366809
 30
0.0
 10
101.9934179791
 20
225.8481719114
 30
0.0
 10
101.4444693838
 20
225.8633662009
 30
0.0
 10
100.9254460677
 20
225.9671829708
 30
0.0
 10
100.6069937164
 20
226.098578756
 30
0.0
 10
100.4663430843
 20
226.1797815992
 30
0.0
  0
SPLINE
  5
301
100
AcDbEntity
  8
0
100
AcDbSpline
 62
7
  6
CONTINUOUS
 70
0
 71
3
 72
11
 73
7
 74
0
 42
0.0000001
 43
0.0000001
 44
0.0000000001
 40
0.0
 40
0.0
 40
0.0
 40
0.0
 40
0.2177830968
 40
0.450915839
 40
0.7103069095
 40
1.0
 40
1.0
 40
1.0
 40
1.0
 10
33.0613361987
 20
227.1774357399
 30
0.0
 10
32.9458915754
 20
227.2441072253
 30
0.0
 10
32.7298649408
 20
227.4256812836
 30
0.0
 10
32.4998995192
 20
227.801703333
 30
0.0
 10
32.3633210637
 20
228.2650826013
 30
0.0
 10
32.3364349979
 20
228.602340649
 30
0.0
 10
32.3364349979
 20
228.7796733447
 30
0.0
  0
SPLINE
  5
302
100
AcDbEntity
  8
0
100
AcDbSpline
 62
7
  6
CONTINUOUS
 70
0
 71
3
 72
17
 73
13
 74
0
 42
0.0000001
 43
0.0000001
 44
0.0000000001
 40
0.0
 40
0.0
 40
0.0
 40
0.0
 40
0.1286933065
 40
0.2702801751
 40
0.4174384432
 40
0.5617797022
 40
0.6954488753
 40
0.8127120148
 40
0.8646745954
 40
0.9125103814
 40
0.9571382807
 40
1.0
 40
1.0
 40
1.0
 40
1.0
 10
32.3364349979
 20
228.7796733447
 30
0.0
 10
32.3364349979
 20
229.0788451702
 30
0.0
 10
32.4201189948
 20
229.7078817713
 30
0.0
 10
32.7325236778
 20
230.6314787843
 30
0.0
 10
33.2138604168
 20
231.521196824
 30
0.0
 10
33.8254974704
 20
232.3040724673
 30
0.0
 10
34.5174153443
 20
232.9168674563
 30
0.0
 10
35.1436828301
 20
233.2593509923
 30
0.0
 10
35.6335954707
 20
233.3896487734
 30
0.0
 10
35.9707749023
 20
233.4145193695
 30
0.0
 10
36.2847352114
 20
233.3684280239
 30
0.0
 10
36.4749760787
 20
233.2894510267
 30
0.0
 10
36.5612606575
 20
233.2396200266
 30
0.0
  0
SPLINE
  5
303
100
AcDbEntity
  8
0
100
AcDbSpline
 62
7
  6
CONTINUOUS
 70
0
 71
3
 72
13
 73
9
 74
0
 42
0.0000001
 43
0.0000001
 44
0.0000000001
 40
0.0
 40
0.0
 40
0.0
 40
0.0
 40
0.1138501036
 40
0.2365558131
 40
0.4979387338
 40
0.760445161
 40
0.8844668064
 40
1.0
 40
1.0
 40
1.0
 40
1.0
 10
38.2054203985
 20
232.323305316
 30
0.0
 10
38.6077656818
 20
232.5555980871
 30
0.0
 10
39.4030145279
 20
233.1107325993
 30
0.0
 10
40.8959865007
 20
234.4960055304
 30
0.0
 10
42.4846720858
 20
236.6329014713
 30
0.0
 10
43.5886793576
 20
239.061274298
 30
0.0
 10
44.0898121873
 20
241.0524857358
 30
0.0
 10
44.1990034658
 20
242.0282743194
 30
0.0
 10
44.2124390273
 20
242.4995386371
 30
0.0
  0
SPLINE
  5
304
100
AcDbEntity
  8
0
100
AcDbSpline
 62
7
  6
CONTINUOUS
 70
0
 71
3
 72
9
 73
5
 74
0
 42
0.0000001
 43
0.0000001
 44
0.0000000001
 40
0.0
 40
0.0
 40
0.0
 40
0.0
 40
0.4774908127
 40
1.0
 40
1.0
 40
1.0
 40
1.0
 10
32.3011033577
 20
194.5398174464
 30
0.0
 10
31.8663753755
 20
196.760953242
 30
0.0
 10
31.4154984446
 20
201.5069721199
 30
0.0
 10
31.7020135134
 20
206.254975681
 30
0.0
 10
32.0066130606
 20
208.7128369896
 30
0.0
  0
SPLINE
  5
305
100
AcDbEntity
  8
0
100
AcDbSpline
 62
7
  6
CONTINUOUS
 70
0
 71
3
 72
9
 73
5
 74
0
 42
0.0000001
 43
0.0000001
 44
0.0000000001
 40
0.0
 40
0.0
 40
0.0
 40
0.0
 40
0.253139686
 40
1.0
 40
1.0
 40
1.0
 40
1.0
 10
45.9983452076
 20
232.5784223746
 30
0.0
 10
45.9274578869
 20
232.4860939089
 30
0.0
 10
45.6428843495
 20
232.1248780338
 30
0.0
 10
45.3401807461
 20
231.7778797039
 30
0.0
 10
45.1040727167
 20
231.5284823263
 30
0.0
  0
SPLINE
  5
306
100
AcDbEntity
  8
0
100
AcDbSpline
 62
7
  6
CONTINUOUS
 70
0
 71
3
 72
9
 73
5
 74
0
 42
0.0000001
 43
0.0000001
 44
0.0000000001
 40
0.0
 40
0.0
 40
0.0
 40
0.0
 40
0.4774908127
 40
1.0
 40
1.0
 40
1.0
 40
1.0
 10
36.8973165712
 20
191.886252542
 30
0.0
 10
36.4625885889
 20
194.1073883376
 30
0.0
 10
36.011711658
 20
198.8534072156
 30
0.0
 10
36.2982267269
 20
203.6014107766
 30
0.0
 10
36.6028262741
 20
206.0592720853
 30
0.0
  0
SPLINE
  5
307
100
AcDbEntity
  8
0
100
AcDbSpline
 62
7
  6
CONTINUOUS
 70
0
 71
3
 72
13
 73
9
 74
0
 42
0.0000001
 43
0.0000001
 44
0.0000000001
 40
0.0
 40
0.0
 40
0.0
 40
0.0
 40
0.1142562699
 40
0.2375374873
 40
0.499998411
 40
0.7624602047
 40
0.8857424352
 40
1.0
 40
1.0
 40
1.0
 40
1.0
 10
42.8016336119
 20
229.6697404116
 30
0.0
 10
43.2130927328
 20
229.9072950278
 30
0.0
 10
44.0259004248
 20
230.4769836636
 30
0.0
 10
45.5474469983
 20
231.9012305248
 30
0.0
 10
47.1548213515
 20
234.096631623
 30
0.0
 10
48.2523957332
 20
236.5863683703
 30
0.0
 10
48.7250541938
 20
238.6162037251
 30
0.0
 10
48.8120162282
 20
239.604969521
 30
0.0
 10
48.8120162282
 20
240.0800862651
 30
0.0
  0
SPLINE
  5
308
100
AcDbEntity
  8
0
100
AcDbSpline
 62
7
  6
CONTINUOUS
 70
0
 71
3
 72
9
 73
5
 74
0
 42
0.0000001
 43
0.0000001
 44
0.0000000001
 40
0.0
 40
0.0
 40
0.0
 40
0.0
 40
0.4999978202
 40
1.0
 40
1.0
 40
1.0
 40
1.0
 10
67.3030864335
 20
160.5872991939
 30
0.0
 10
64.943404554
 20
161.554532617
 30
0.0
 10
60.2247713199
 20
163.4908396499
 30
0.0
 10
55.5054335697
 20
165.4254289238
 30
0.0
 10
53.1461239759
 20
166.3936286562
 30
0.0
  0
SPLINE
  5
309
100
AcDbEntity
  8
0
100
AcDbSpline
 62
7
  6
CONTINUOUS
 70
0
 71
3
 72
9
 73
5
 74
0
 42
0.0000001
 43
0.0000001
 44
0.0000000001
 40
0.0
 40
0.0
 40
0.0
 40
0.0
 40
0.2545334673
 40
1.0
 40
1.0
 40
1.0
 40
1.0
 10
64.88721528
 20
189.7296419044
 30
0.0
 10
64.8379197111
 20
189.3318682623
 30
0.0
 10
64.6604548584
 20
187.7671684576
 30
0.0
 10
64.548652115
 20
186.1948515446
 30
0.0
 10
64.5064040956
 20
185.0217179208
 30
0.0
  0
SPLINE
  5
30A
100
AcDbEntity
  8
0
100
AcDbSpline
 62
7
  6
CONTINUOUS
 70
0
 71
3
 72
9
 73
5
 74
0
 42
0.0000001
 43
0.0000001
 44
0.0000000001
 40
0.0
 40
0.0
 40
0.0
 40
0.0
 40
0.2380546825
 40
1.0
 40
1.0
 40
1.0
 40
1.0
 10
77.0964052341
 20
223.7504560843
 30
0.0
 10
77.0964052341
 20
223.5739051997
 30
0.0
 10
77.0717599015
 20
222.8323208648
 30
0.0
 10
76.9556883922
 20
222.0950358983
 30
0.0
 10
76.827976612
 20
221.544567501
 30
0.0
  0
SPLINE
  5
30B
100
AcDbEntity
  8
0
100
AcDbSpline
 62
7
  6
CONTINUOUS
 70
0
 71
3
 72
9
 73
5
 74
0
 42
0.0000001
 43
0.0000001
 44
0.0000000001
 40
0.0
 40
0.0
 40
0.0
 40
0.0
 40
0.2439725431
 40
1.0
 40
1.0
 40
1.0
 40
1.0
 10
76.827976612
 20
221.544567501
 30
0.0
 10
76.7888124735
 20
221.3757606728
 30
0.0
 10
76.6128547155
 20
220.6874821875
 30
0.0
 10
76.3777375445
 20
220.0146602367
 30
0.0
 10
76.1720332566
 20
219.5186252998
 30
0.0
  0
SPLINE
  5
30C
100
AcDbEntity
  8
0
100
AcDbSpline
 62
7
  6
CONTINUOUS
 70
0
 71
3
 72
9
 73
5
 74
0
 42
0.0000001
 43
0.0000001
 44
0.0000000001
 40
0.0
 40
0.0
 40
0.0
 40
0.0
 40
0.2555881331
 40
1.0
 40
1.0
 40
1.0
 40
1.0
 10
74.2886767377
 20
216.2565377357
 30
0.0
 10
74.1782217018
 20
216.1124655423
 30
0.0
 10
73.7351627389
 20
215.5572751834
 30
0.0
 10
73.2484146431
 20
215.0364880124
 30
0.0
 10
72.8621028288
 20
214.6754677667
 30
0.0
  0
SPLINE
  5
30D
100
AcDbEntity
  8
0
100
AcDbSpline
 62
7
  6
CONTINUOUS
 70
0
 71
3
 72
9
 73
5
 74
0
 42
0.0000001
 43
0.0000001
 44
0.0000000001
 40
0.0
 40
0.0
 40
0.0
 40
0.0
 40
0.2615763338
 40
1.0
 40
1.0
 40
1.0
 40
1.0
 10
72.8621028288
 20
214.6754677667
 30
0.0
 10
72.7203814639
 20
214.5430248021
 30
0.0
 10
72.1661396692
 20
214.0504515721
 30
0.0
 10
71.5602459848
 20
213.6139015851
 30
0.0
 10
71.0860226178
 20
213.3401102308
 30
0.0
  0
SPLINE
  5
30E
100
AcDbEntity
  8
0
100
AcDbSpline
 62
7
  6
CONTINUOUS
 70
0
 71
3
 72
9
 73
5
 74
0
 42
0.0000001
 43
0.0000001
 44
0.0000000001
 40
0.0
 40
0.0
 40
0.0
 40
0.0
 40
0.2624407205
 40
1.0
 40
1.0
 40
1.0
 40
1.0
 10
245.1405624414
 20
158.5742404697
 30
0.0
 10
245.1405624414
 20
159.3357240304
 30
0.0
 10
245.0664728623
 20
162.2360037666
 30
0.0
 10
244.684011073
 20
165.1344351006
 30
0.0
 10
244.1832732248
 20
167.2150899435
 30
0.0
  0
SPLINE
  5
30F
100
AcDbEntity
  8
0
100
AcDbSpline
 62
7
  6
CONTINUOUS
 70
0
 71
3
 72
11
 73
7
 74
0
 42
0.0000001
 43
0.0000001
 44
0.0000000001
 40
0.0
 40
0.0
 40
0.0
 40
0.0
 40
0.2704277957
 40
0.5241166516
 40
0.7653851179
 40
1.0
 40
1.0
 40
1.0
 40
1.0
 10
243.6303641884
 20
169.2011557116
 30
0.0
 10
243.2421835743
 20
170.4207582493
 30
0.0
 10
242.3214955253
 20
172.7367249822
 30
0.0
 10
240.4304477656
 20
175.8485151039
 30
0.0
 10
238.1004785081
 20
178.4261770442
 30
0.0
 10
236.2643237739
 20
179.7638324708
 30
0.0
 10
235.3027090808
 20
180.3190511529
 30
0.0
  0
SPLINE
  5
310
100
AcDbEntity
  8
0
100
AcDbSpline
 62
7
  6
CONTINUOUS
 70
0
 71
3
 72
25
 73
21
 74
0
 42
0.0000001
 43
0.0000001
 44
0.0000000001
 40
0.0
 40
0.0
 40
0.0
 40
0.0
 40
0.0623842755
 40
0.1287225467
 40
0.1983155974
 40
0.2702918943
 40
0.3436692288
 40
0.4174008718
 40
0.4904251379
 40
0.5617115082
 40
0.6303087336
 40
0.6953964011
 40
0.7563441197
 40
0.8127815909
 40
0.8646823551
 40
0.9124573561
 40
0.9351022111
 40
0.9571074501
 40
0.9786679797
 40
1.0
 40
1.0
 40
1.0
 40
1.0
 10
181.8547690108
 20
122.0363886982
 30
0.0
 10
181.8547690108
 20
123.7788312397
 30
0.0
 10
182.0908092458
 20
127.3765566432
 30
0.0
 10
183.062177391
 20
132.8392110745
 30
0.0
 10
184.6413437825
 20
138.436656296
 30
0.0
 10
186.7946492065
 20
144.049211707
 30
0.0
 10
189.4761793735
 20
149.5579010322
 30
0.0
 10
192.628781138
 20
154.8451836041
 30
0.0
 10
196.1851839632
 20
159.7982894304
 30
0.0
 10
200.0696404238
 20
164.3116590455
 30
0.0
 10
204.1997267471
 20
168.2893514238
 30
0.0
 10
208.4885693067
 20
171.6470399078
 30
0.0
 10
212.8469680063
 20
174.3136031117
 30
0.0
 10
217.1868764255
 20
176.2315046473
 30
0.0
 10
221.4203006018
 20
177.3567834944
 30
0.0
 10
224.8538521334
 20
177.6088028662
 30
0.0
 10
227.4290765525
 20
177.3672766097
 30
0.0
 10
229.2421610889
 20
176.9804712483
 30
0.0
 10
230.9596098888
 20
176.3869425683
 30
0.0
 10
232.0367454978
 20
175.8537691279
 30
0.0
 10
232.5527446669
 20
175.5558652453
 30
0.0
  0
SPLINE
  5
311
100
AcDbEntity
  8
0
100
AcDbSpline
 62
7
  6
CONTINUOUS
 70
0
 71
3
 72
11
 73
7
 74
0
 42
0.0000001
 43
0.0000001
 44
0.0000000001
 40
0.0
 40
0.0
 40
0.0
 40
0.0
 40
0.2898012489
 40
0.5490510236
 40
0.7822290598
 40
1.0
 40
1.0
 40
1.0
 40
1.0
 10
243.7263341592
 20
193.6837972351
 30
0.0
 10
243.7263341592
 20
194.1146295797
 30
0.0
 10
243.6612687953
 20
194.933694753
 30
0.0
 10
243.3291975187
 20
196.0589476699
 30
0.0
 10
242.7710141137
 20
196.9721489566
 30
0.0
 10
242.246248327
 20
197.4130953491
 30
0.0
 10
241.9658721775
 20
197.5749669243
 30
0.0
  0
SPLINE
  5
312
100
AcDbEntity
  8
0
100
AcDbSpline
 62
7
  6
CONTINUOUS
 70
0
 71
3
 72
15
 73
11
 74
0
 42
0.0000001
 43
0.0000001
 44
0.0000000001
 40
0.0
 40
0.0
 40
0.0
 40
0.0
 40
0.1141543519
 40
0.237325601
 40
0.366974755
 40
0.4999984147
 40
0.6330222943
 40
0.7626720931
 40
0.8858443543
 40
1.0
 40
1.0
 40
1.0
 40
1.0
 10
237.7159515429
 20
116.3202531769
 30
0.0
 10
238.1274106638
 20
116.5578077931
 30
0.0
 10
238.9401160959
 20
117.1275085552
 30
0.0
 10
240.0583543947
 20
118.1737112268
 30
0.0
 10
241.0888714176
 20
119.410400849
 30
0.0
 10
241.9928521928
 20
120.7911852353
 30
0.0
 10
242.7366501013
 20
122.2644537938
 30
0.0
 10
243.2923925795
 20
123.7752621225
 30
0.0
 10
243.6393104966
 20
125.266798988
 30
0.0
 10
243.7263341592
 20
126.2554822863
 30
0.0
 10
243.7263341592
 20
126.7305990304
 30
0.0
  0
SPLINE
  5
313
100
AcDbEntity
  8
0
100
AcDbSpline
 62
7
  6
CONTINUOUS
 70
0
 71
3
 72
17
 73
13
 74
0
 42
0.0000001
 43
0.0000001
 44
0.0000000001
 40
0.0
 40
0.0
 40
0.0
 40
0.0
 40
0.1286937171
 40
0.2702785108
 40
0.4174346475
 40
0.5617788521
 40
0.6954492605
 40
0.8127115773
 40
0.8646776011
 40
0.9125100443
 40
0.9571398829
 40
1.0
 40
1.0
 40
1.0
 40
1.0
 10
177.1463985662
 20
88.9778572878
 30
0.0
 10
177.1463985662
 20
89.3625091925
 30
0.0
 10
177.2539950899
 20
90.1712680524
 30
0.0
 10
177.6556572466
 20
91.3587410829
 30
0.0
 10
178.2745074374
 20
92.5026715635
 30
0.0
 10
179.0608765786
 20
93.5092459508
 30
0.0
 10
179.9504947214
 20
94.2971716644
 30
0.0
 10
180.7557408543
 20
94.7373862113
 30
0.0
 10
181.3856067016
 20
94.9050650543
 30
0.0
 10
181.8191300873
 20
94.9368557642
 30
0.0
 10
182.2228245668
 20
94.8777922361
 30
0.0
 10
182.4673607633
 20
94.7761007593
 30
0.0
 10
182.5783142859
 20
94.7120691913
 30
0.0
  0
SPLINE
  5
314
100
AcDbEntity
  8
0
100
AcDbSpline
 62
7
  6
CONTINUOUS
 70
0
 71
3
 72
17
 73
13
 74
0
 42
0.0000001
 43
0.0000001
 44
0.0000000001
 40
0.0
 40
0.0
 40
0.0
 40
0.0
 40
0.1286937171
 40
0.2702785108
 40
0.4174346475
 40
0.5617788521
 40
0.6954492605
 40
0.8127115773
 40
0.8646776011
 40
0.9125100443
 40
0.9571398829
 40
1.0
 40
1.0
 40
1.0
 40
1.0
 10
177.1463985662
 20
155.3736128286
 30
0.0
 10
177.1463985662
 20
155.7582647334
 30
0.0
 10
177.2539950899
 20
156.5670235933
 30
0.0
 10
177.6556572466
 20
157.7544966237
 30
0.0
 10
178.2745074374
 20
158.8984271044
 30
0.0
 10
179.0608765786
 20
159.9050014916
 30
0.0
 10
179.9504947214
 20
160.6929272053
 30
0.0
 10
180.7557408543
 20
161.1331417521
 30
0.0
 10
181.3856067016
 20
161.3008205952
 30
0.0
 10
181.8191300873
 20
161.3326113051
 30
0.0
 10
182.2228245668
 20
161.273547777
 30
0.0
 10
182.4673607633
 20
161.1718563001
 30
0.0
 10
182.5783142859
 20
161.1078247322
 30
0.0
  0
SPLINE
  5
315
100
AcDbEntity
  8
0
100
AcDbSpline
 62
7
  6
CONTINUOUS
 70
0
 71
3
 72
17
 73
13
 74
0
 42
0.0000001
 43
0.0000001
 44
0.0000000001
 40
0.0
 40
0.0
 40
0.0
 40
0.0
 40
0.1286937171
 40
0.2702785108
 40
0.4174346475
 40
0.5617788521
 40
0.6954492605
 40
0.8127115773
 40
0.8646776011
 40
0.9125100443
 40
0.9571398829
 40
1.0
 40
1.0
 40
1.0
 40
1.0
 10
234.6461591704
 20
188.5709169306
 30
0.0
 10
234.6461591704
 20
188.9555688353
 30
0.0
 10
234.7537556941
 20
189.7643276952
 30
0.0
 10
235.1554178508
 20
190.9518007257
 30
0.0
 10
235.7742680416
 20
192.0957312063
 30
0.0
 10
236.5606371828
 20
193.1023055936
 30
0.0
 10
237.4502553256
 20
193.8902313072
 30
0.0
 10
238.2555014584
 20
194.3304458541
 30
0.0
 10
238.8853673057
 20
194.4981246972
 30
0.0
 10
239.3188906914
 20
194.5299154071
 30
0.0
 10
239.722585171
 20
194.4708518789
 30
0.0
 10
239.9671213675
 20
194.3691604021
 30
0.0
 10
240.0780748901
 20
194.3051288341
 30
0.0
  0
SPLINE
  5
316
100
AcDbEntity
  8
0
100
AcDbSpline
 62
7
  6
CONTINUOUS
 70
0
 71
3
 72
11
 73
7
 74
0
 42
0.0000001
 43
0.0000001
 44
0.0000000001
 40
0.0
 40
0.0
 40
0.0
 40
0.0
 40
0.2177798776
 40
0.4509240312
 40
0.7102597553
 40
1.0
 40
1.0
 40
1.0
 40
1.0
 10
178.0784173814
 20
153.3135983099
 30
0.0
 10
177.9299637111
 20
153.3992713112
 30
0.0
 10
177.6522490739
 20
153.6327981445
 30
0.0
 10
177.3565854665
 20
154.1161920615
 30
0.0
 10
177.1809166858
 20
154.7119581045
 30
0.0
 10
177.1463985662
 20
155.1455760942
 30
0.0
 10
177.1463985662
 20
155.3736128286
 30
0.0
  0
SPLINE
  5
317
100
AcDbEntity
  8
0
100
AcDbSpline
 62
7
  6
CONTINUOUS
 70
0
 71
3
 72
15
 73
11
 74
0
 42
0.0000001
 43
0.0000001
 44
0.0000000001
 40
0.0
 40
0.0
 40
0.0
 40
0.0
 40
0.114155658
 40
0.2373279333
 40
0.3669777387
 40
0.5000016213
 40
0.633025278
 40
0.7626744253
 40
0.8858456604
 40
1.0
 40
1.0
 40
1.0
 40
1.0
 10
164.5306219602
 20
159.3912407189
 30
0.0
 10
164.5306219602
 20
159.8663575143
 30
0.0
 10
164.6176456514
 20
160.8550409213
 30
0.0
 10
164.964563619
 20
162.3465779168
 30
0.0
 10
165.520306182
 20
163.8573863205
 30
0.0
 10
166.2641041402
 20
165.330654884
 30
0.0
 10
167.168084936
 20
166.7114392247
 30
0.0
 10
168.1986019364
 20
167.9481287359
 30
0.0
 10
169.3168401479
 20
168.9943312989
 30
0.0
 10
170.1295455001
 20
169.5640319819
 30
0.0
 10
170.5410045765
 20
169.8015865724
 30
0.0
  0
SPLINE
  5
318
100
AcDbEntity
  8
0
100
AcDbSpline
 62
7
  6
CONTINUOUS
 70
0
 71
3
 72
11
 73
7
 74
0
 42
0.0000001
 43
0.0000001
 44
0.0000000001
 40
0.0
 40
0.0
 40
0.0
 40
0.0
 40
0.2177798776
 40
0.4509240312
 40
0.7102597553
 40
1.0
 40
1.0
 40
1.0
 40
1.0
 10
178.0784173814
 20
86.9178427691
 30
0.0
 10
177.9299637111
 20
87.0035157703
 30
0.0
 10
177.6522490739
 20
87.2370426036
 30
0.0
 10
177.3565854665
 20
87.7204365207
 30
0.0
 10
177.1809166858
 20
88.3162025636
 30
0.0
 10
177.1463985662
 20
88.7498205533
 30
0.0
 10
177.1463985662
 20
88.9778572878
 30
0.0
  0
SPLINE
  5
319
100
AcDbEntity
  8
0
100
AcDbSpline
 62
7
  6
CONTINUOUS
 70
0
 71
3
 72
11
 73
7
 74
0
 42
0.0000001
 43
0.0000001
 44
0.0000000001
 40
0.0
 40
0.0
 40
0.0
 40
0.0
 40
0.2177709505
 40
0.4509489942
 40
0.7101987597
 40
1.0
 40
1.0
 40
1.0
 40
1.0
 10
166.2910839419
 20
88.5468728251
 30
0.0
 10
166.0107077642
 20
88.7087443826
 30
0.0
 10
165.4859419735
 20
89.1496908283
 30
0.0
 10
164.9277585812
 20
90.0628921294
 30
0.0
 10
164.595687309
 20
91.1881450342
 30
0.0
 10
164.5306219602
 20
92.0072101822
 30
0.0
 10
164.5306219602
 20
92.4380425143
 30
0.0
  0
SPLINE
  5
31A
100
AcDbEntity
  8
0
100
AcDbSpline
 62
7
  6
CONTINUOUS
 70
0
 71
3
 72
11
 73
7
 74
0
 42
0.0000001
 43
0.0000001
 44
0.0000000001
 40
0.0
 40
0.0
 40
0.0
 40
0.0
 40
0.2177723674
 40
0.4509510027
 40
0.7102002307
 40
1.0
 40
1.0
 40
1.0
 40
1.0
 10
176.190620094
 20
82.8315022618
 30
0.0
 10
176.4709869744
 20
82.6696360379
 30
0.0
 10
177.1152202862
 20
82.4356659733
 30
0.0
 10
178.1851267971
 20
82.4088711598
 30
0.0
 10
179.325612607
 20
82.6839037346
 30
0.0
 10
180.0674451015
 20
83.0370711384
 30
0.0
 10
180.4405407286
 20
83.2524767133
 30
0.0
  0
SPLINE
  5
31B
100
AcDbEntity
  8
0
100
AcDbSpline
 62
7
  6
CONTINUOUS
 70
0
 71
3
 72
9
 73
5
 74
0
 42
0.0000001
 43
0.0000001
 44
0.0000000001
 40
0.0
 40
0.0
 40
0.0
 40
0.0
 40
0.242405769
 40
1.0
 40
1.0
 40
1.0
 40
1.0
 10
163.7173966121
 20
159.8605713887
 30
0.0
 10
163.8049239209
 20
159.9111050024
 30
0.0
 10
164.1620150508
 20
160.1264427124
 30
0.0
 10
164.5032577446
 20
160.3677296867
 30
0.0
 10
164.752434613
 20
160.561852465
 30
0.0
  0
SPLINE
  5
31C
100
AcDbEntity
  8
0
100
AcDbSpline
 62
7
  6
CONTINUOUS
 70
0
 71
3
 72
9
 73
5
 74
0
 42
0.0000001
 43
0.0000001
 44
0.0000000001
 40
0.0
 40
0.0
 40
0.0
 40
0.0
 40
0.2574853377
 40
1.0
 40
1.0
 40
1.0
 40
1.0
 10
169.6379962183
 20
169.0240891978
 30
0.0
 10
169.6527852068
 20
169.1304027441
 30
0.0
 10
169.7036441981
 20
169.5441584083
 30
0.0
 10
169.7277792284
 20
169.9613870786
 30
0.0
 10
169.7277792284
 20
170.2709172422
 30
0.0
  0
SPLINE
  5
31D
100
AcDbEntity
  8
0
100
AcDbSpline
 62
7
  6
CONTINUOUS
 70
0
 71
3
 72
11
 73
7
 74
0
 42
0.0000001
 43
0.0000001
 44
0.0000000001
 40
0.0
 40
0.0
 40
0.0
 40
0.0
 40
0.2177798776
 40
0.4509240312
 40
0.7102597553
 40
1.0
 40
1.0
 40
1.0
 40
1.0
 10
235.5781779856
 20
186.5109024119
 30
0.0
 10
235.4297243153
 20
186.5965754132
 30
0.0
 10
235.1520096781
 20
186.8301022464
 30
0.0
 10
234.8563460706
 20
187.3134961635
 30
0.0
 10
234.6806772899
 20
187.9092622064
 30
0.0
 10
234.6461591704
 20
188.3428801961
 30
0.0
 10
234.6461591704
 20
188.5709169306
 30
0.0
  0
SPLINE
  5
31E
100
AcDbEntity
  8
0
100
AcDbSpline
 62
7
  6
CONTINUOUS
 70
0
 71
3
 72
17
 73
13
 74
0
 42
0.0000001
 43
0.0000001
 44
0.0000000001
 40
0.0
 40
0.0
 40
0.0
 40
0.0
 40
0.0467066667
 40
0.0940853171
 40
0.142761568
 40
0.1932760489
 40
0.3012789312
 40
0.4204114402
 40
0.55112996
 40
0.6925988112
 40
0.8430361047
 40
1.0
 40
1.0
 40
1.0
 40
1.0
 10
187.8035512667
 20
98.0462351687
 30
0.0
 10
188.4817785456
 20
97.6546391805
 30
0.0
 10
189.9091199166
 20
96.9668338531
 30
0.0
 10
192.2019114454
 20
96.2520402577
 30
0.0
 10
194.6352781569
 20
95.8555376032
 30
0.0
 10
198.1164311781
 20
95.7509267783
 30
0.0
 10
202.7580658873
 20
96.4773496727
 30
0.0
 10
208.4145791947
 20
98.5678519973
 30
0.0
 10
214.1414568759
 20
101.8203139953
 30
0.0
 10
219.7832233242
 20
106.1397676682
 30
0.0
 10
225.1852214819
 20
111.4025060312
 30
0.0
 10
228.4773124008
 20
115.3827173026
 30
0.0
 10
230.0519657273
 20
117.4916102305
 30
0.0
  0
SPLINE
  5
31F
100
AcDbEntity
  8
0
100
AcDbSpline
 62
7
  6
CONTINUOUS
 70
0
 71
3
 72
11
 73
7
 74
0
 42
0.0000001
 43
0.0000001
 44
0.0000000001
 40
0.0
 40
0.0
 40
0.0
 40
0.0
 40
0.2662465578
 40
0.5236519809
 40
0.7690742584
 40
1.0
 40
1.0
 40
1.0
 40
1.0
 10
239.6064929101
 20
134.052171628
 30
0.0
 10
240.491516419
 20
136.1153054169
 30
0.0
 10
242.0605823374
 20
140.2495789439
 30
0.0
 10
243.8064349192
 20
146.504589403
 30
0.0
 10
244.8799977944
 20
152.6080010672
 30
0.0
 10
245.1405624414
 20
156.6271126405
 30
0.0
 10
245.1405624414
 20
158.5742404697
 30
0.0
  0
SPLINE
  5
320
100
AcDbEntity
  8
0
100
AcDbSpline
 62
7
  6
CONTINUOUS
 70
0
 71
3
 72
14
 73
10
 74
0
 42
0.0000001
 43
0.0000001
 44
0.0000000001
 40
0.0
 40
0.0
 40
0.0
 40
0.0
 40
0.1080467359
 40
0.2181307109
 40
0.3321042074
 40
0.451501513
 40
0.5774614155
 40
0.7107195081
 40
1.0
 40
1.0
 40
1.0
 40
1.0
 10
190.5535156807
 20
102.8094210763
 30
0.0
 10
189.864901322
 20
103.206981583
 30
0.0
 10
188.5409266502
 20
104.1307868211
 30
0.0
 10
186.7915580596
 20
105.8524110729
 30
0.0
 10
185.2870496772
 20
107.8958000746
 30
0.0
 10
184.0413380256
 20
110.2378664821
 30
0.0
 10
183.0639883592
 20
112.8550585792
 30
0.0
 10
182.1033090295
 20
116.7826791214
 30
0.0
 10
181.8547690108
 20
119.9075150519
 30
0.0
 10
181.8547690108
 20
122.0363886982
 30
0.0
  0
SPLINE
  5
321
100
AcDbEntity
  8
0
100
AcDbSpline
 62
7
  6
CONTINUOUS
 70
0
 71
3
 72
11
 73
7
 74
0
 42
0.0000001
 43
0.0000001
 44
0.0000000001
 40
0.0
 40
0.0
 40
0.0
 40
0.0
 40
0.289799778
 40
0.5490490151
 40
0.7822276429
 40
1.0
 40
1.0
 40
1.0
 40
1.0
 10
227.8164153909
 20
202.869363036
 30
0.0
 10
228.1895110289
 20
203.0847686173
 30
0.0
 10
228.9313435529
 20
203.4379360206
 30
0.0
 10
230.0718293754
 20
203.7129685976
 30
0.0
 10
231.1417358802
 20
203.6861737658
 30
0.0
 10
231.7859691438
 20
203.4522036782
 30
0.0
 10
232.0663360255
 20
203.2903374876
 30
0.0
  0
SPLINE
  5
322
100
AcDbEntity
  8
0
100
AcDbSpline
 62
7
  6
CONTINUOUS
 70
0
 71
3
 72
17
 73
13
 74
0
 42
0.0000001
 43
0.0000001
 44
0.0000000001
 40
0.0
 40
0.0
 40
0.0
 40
0.0
 40
0.1286937171
 40
0.2702785108
 40
0.4174346475
 40
0.5617788521
 40
0.6954492605
 40
0.8127115773
 40
0.8646776011
 40
0.9125100443
 40
0.9571398829
 40
1.0
 40
1.0
 40
1.0
 40
1.0
 10
241.0100937053
 20
192.2451143154
 30
0.0
 10
241.0100937053
 20
191.8604624107
 30
0.0
 10
240.9024971816
 20
191.0517035508
 30
0.0
 10
240.5008350249
 20
189.8642305203
 30
0.0
 10
239.8819848341
 20
188.7203000397
 30
0.0
 10
239.0956156929
 20
187.7137256524
 30
0.0
 10
238.2059975501
 20
186.9257999388
 30
0.0
 10
237.4007514173
 20
186.4855853919
 30
0.0
 10
236.7708855699
 20
186.3179065488
 30
0.0
 10
236.3373621843
 20
186.286115839
 30
0.0
 10
235.9336677047
 20
186.3451793671
 30
0.0
 10
235.6891315082
 20
186.4468708439
 30
0.0
 10
235.5781779856
 20
186.5109024119
 30
0.0
  0
SPLINE
  5
323
100
AcDbEntity
  8
0
100
AcDbSpline
 62
7
  6
CONTINUOUS
 70
0
 71
3
 72
11
 73
7
 74
0
 42
0.0000001
 43
0.0000001
 44
0.0000000001
 40
0.0
 40
0.0
 40
0.0
 40
0.0
 40
0.2177798776
 40
0.4509240312
 40
0.7102597553
 40
1.0
 40
1.0
 40
1.0
 40
1.0
 10
182.5783142859
 20
161.1078247322
 30
0.0
 10
182.7267679563
 20
161.0221517309
 30
0.0
 10
183.0044825935
 20
160.7886248976
 30
0.0
 10
183.3001462009
 20
160.3052309806
 30
0.0
 10
183.4758149816
 20
159.7094649376
 30
0.0
 10
183.5103331011
 20
159.2758469479
 30
0.0
 10
183.5103331011
 20
159.0478102135
 30
0.0
  0
SPLINE
  5
324
100
AcDbEntity
  8
0
100
AcDbSpline
 62
7
  6
CONTINUOUS
 70
0
 71
3
 72
14
 73
10
 74
0
 42
0.0000001
 43
0.0000001
 44
0.0000000001
 40
0.0
 40
0.0
 40
0.0
 40
0.0
 40
0.2871568468
 40
0.4203314973
 40
0.546742463
 40
0.6669283861
 40
0.7817181814
 40
0.8922645927
 40
1.0
 40
1.0
 40
1.0
 40
1.0
 10
238.0694975736
 20
158.1659810187
 30
0.0
 10
238.0694975736
 20
160.1368676539
 30
0.0
 10
237.8557552161
 20
163.0333456379
 30
0.0
 10
237.0397621866
 20
166.7013690595
 30
0.0
 10
236.2071411754
 20
169.1772163229
 30
0.0
 10
235.1449419791
 20
171.4254546547
 30
0.0
 10
233.859852143
 20
173.4273026959
 30
0.0
 10
232.3619156252
 20
175.1643446004
 30
0.0
 10
231.2190120885
 20
176.1437879505
 30
0.0
 10
230.6214356773
 20
176.5792978548
 30
0.0
  0
SPLINE
  5
325
100
AcDbEntity
  8
0
100
AcDbSpline
 62
7
  6
CONTINUOUS
 70
0
 71
3
 72
14
 73
10
 74
0
 42
0.0000001
 43
0.0000001
 44
0.0000000001
 40
0.0
 40
0.0
 40
0.0
 40
0.0
 40
0.2892786306
 40
0.4225367298
 40
0.5484982787
 40
0.6678947224
 40
0.781868223
 40
0.891952818
 40
1.0
 40
1.0
 40
1.0
 40
1.0
 10
177.9656979061
 20
119.7910458519
 30
0.0
 10
177.9656979061
 20
117.3834059853
 30
0.0
 10
178.2467663728
 20
113.8493746574
 30
0.0
 10
179.3332881371
 20
109.4074363185
 30
0.0
 10
180.4385507641
 20
106.447482132
 30
0.0
 10
181.8474244771
 20
103.7987180583
 30
0.0
 10
183.5489940051
 20
101.4877850499
 30
0.0
 10
185.5273816658
 20
99.5406248465
 30
0.0
 10
187.0247738541
 20
98.4958869593
 30
0.0
 10
187.8035512667
 20
98.0462351687
 30
0.0
  0
SPLINE
  5
326
100
AcDbEntity
  8
0
100
AcDbSpline
 62
7
  6
CONTINUOUS
 70
0
 71
3
 72
11
 73
7
 74
0
 42
0.0000001
 43
0.0000001
 44
0.0000000001
 40
0.0
 40
0.0
 40
0.0
 40
0.0
 40
0.2177798776
 40
0.4509240312
 40
0.7102597553
 40
1.0
 40
1.0
 40
1.0
 40
1.0
 10
182.5783142859
 20
94.7120691913
 30
0.0
 10
182.7267679563
 20
94.62639619
 30
0.0
 10
183.0044825935
 20
94.3928693567
 30
0.0
 10
183.3001462009
 20
93.9094754397
 30
0.0
 10
183.4758149816
 20
93.3137093968
 30
0.0
 10
183.5103331011
 20
92.8800914071
 30
0.0
 10
183.5103331011
 20
92.6520546726
 30
0.0
  0
SPLINE
  5
327
100
AcDbEntity
  8
0
100
AcDbSpline
 62
7
  6
CONTINUOUS
 70
0
 71
3
 72
11
 73
7
 74
0
 42
0.0000001
 43
0.0000001
 44
0.0000000001
 40
0.0
 40
0.0
 40
0.0
 40
0.0
 40
0.2313970259
 40
0.4768066122
 40
0.7339481564
 40
1.0
 40
1.0
 40
1.0
 40
1.0
 10
241.2514913368
 20
156.3288976234
 30
0.0
 10
241.2514913368
 20
154.6848656004
 30
0.0
 10
241.0415213557
 20
151.2951646346
 30
0.0
 10
240.1730340996
 20
146.1453058265
 30
0.0
 10
238.7582057431
 20
140.8633721816
 30
0.0
 10
237.4847986687
 20
137.3655522325
 30
0.0
 10
236.7660811343
 20
135.6172724017
 30
0.0
  0
SPLINE
  5
328
100
AcDbEntity
  8
0
100
AcDbSpline
 62
7
  6
CONTINUOUS
 70
0
 71
3
 72
17
 73
13
 74
0
 42
0.0000001
 43
0.0000001
 44
0.0000000001
 40
0.0
 40
0.0
 40
0.0
 40
0.0
 40
0.1570362302
 40
0.307262721
 40
0.4483955506
 40
0.578804441
 40
0.6977830718
 40
0.8058747348
 40
0.8565305955
 40
0.9054056914
 40
0.9530272488
 40
1.0
 40
1.0
 40
1.0
 40
1.0
 10
227.1997390766
 20
119.068501334
 30
0.0
 10
225.8129591993
 20
117.2752949499
 30
0.0
 10
222.924976257
 20
113.8968015653
 30
0.0
 10
218.2103609139
 20
109.4429095413
 30
0.0
 10
213.3089830952
 20
105.8038765135
 30
0.0
 10
208.3496635333
 20
103.079868765
 30
0.0
 10
203.4615265339
 20
101.3476783814
 30
0.0
 10
199.4580655406
 20
100.7698273709
 30
0.0
 10
196.4561036496
 20
100.8880151217
 30
0.0
 10
194.3556318627
 20
101.2458861304
 30
0.0
 10
192.3749953592
 20
101.8731010685
 30
0.0
 10
191.1407459899
 20
102.470393032
 30
0.0
 10
190.5535156807
 20
102.8094210763
 30
0.0
  0
SPLINE
  5
329
100
AcDbEntity
  8
0
100
AcDbSpline
 62
7
  6
CONTINUOUS
 70
0
 71
3
 72
11
 73
7
 74
0
 42
0.0000001
 43
0.0000001
 44
0.0000000001
 40
0.0
 40
0.0
 40
0.0
 40
0.0
 40
0.2177723674
 40
0.4509510027
 40
0.7102002307
 40
1.0
 40
1.0
 40
1.0
 40
1.0
 10
241.9658721775
 20
197.5749669243
 30
0.0
 10
241.6855052972
 20
197.7368331482
 30
0.0
 10
241.0412719853
 20
197.9708032127
 30
0.0
 10
239.9713654745
 20
197.9975980262
 30
0.0
 10
238.8308796645
 20
197.7225654515
 30
0.0
 10
238.08904717
 20
197.3693980477
 30
0.0
 10
237.7159515429
 20
197.1539924727
 30
0.0
  0
SPLINE
  5
32A
100
AcDbEntity
  8
0
100
AcDbSpline
 62
7
  6
CONTINUOUS
 70
0
 71
3
 72
24
 73
20
 74
0
 42
0.0000001
 43
0.0000001
 44
0.0000000001
 40
0.0
 40
0.0
 40
0.0
 40
0.0
 40
0.0213336522
 40
0.0428957497
 40
0.087473701
 40
0.1352523976
 40
0.187157301
 40
0.243599241
 40
0.304551673
 40
0.3696442428
 40
0.4382465752
 40
0.5095381497
 40
0.5825676367
 40
0.6563044932
 40
0.7296871331
 40
0.8016688856
 40
0.8712675606
 40
0.9376105171
 40
1.0
 40
1.0
 40
1.0
 40
1.0
 10
235.3027090808
 20
180.3190511529
 30
0.0
 10
234.7191498683
 20
180.6559875363
 30
0.0
 10
233.5007606482
 20
181.2588009085
 30
0.0
 10
230.8838560188
 20
182.1640204357
 30
0.0
 10
227.2877939023
 20
182.69333469
 30
0.0
 10
222.7136376524
 20
182.355406221
 30
0.0
 10
217.9242451074
 20
181.0833029276
 30
0.0
 10
213.0164810458
 20
178.9140623522
 30
0.0
 10
208.0871939469
 20
175.8983379201
 30
0.0
 10
203.2367660297
 20
172.1009250982
 30
0.0
 10
198.5658345945
 20
167.6023457657
 30
0.0
 10
194.1727185924
 20
162.4979449813
 30
0.0
 10
190.1506122994
 20
156.8962361632
 30
0.0
 10
186.5851810185
 20
150.9165947385
 30
0.0
 10
183.5525028911
 20
144.6865452037
 30
0.0
 10
181.117199418
 20
138.3390111299
 30
0.0
 10
179.3312429178
 20
132.0085616932
 30
0.0
 10
178.2326426258
 20
125.8305455816
 30
0.0
 10
177.9656979061
 20
121.7616816849
 30
0.0
 10
177.9656979061
 20
119.7910458519
 30
0.0
  0
SPLINE
  5
32B
100
AcDbEntity
  8
0
100
AcDbSpline
 62
7
  6
CONTINUOUS
 70
0
 71
3
 72
11
 73
7
 74
0
 42
0.0000001
 43
0.0000001
 44
0.0000000001
 40
0.0
 40
0.0
 40
0.0
 40
0.0
 40
0.2898012489
 40
0.5490510236
 40
0.7822290598
 40
1.0
 40
1.0
 40
1.0
 40
1.0
 10
174.4301581123
 20
86.722671951
 30
0.0
 10
174.4301581123
 20
86.2918396063
 30
0.0
 10
174.4952234762
 20
85.472774433
 30
0.0
 10
174.8272947528
 20
84.3475215161
 30
0.0
 10
175.3854781578
 20
83.4343202294
 30
0.0
 10
175.9102439445
 20
82.993373837
 30
0.0
 10
176.190620094
 20
82.8315022618
 30
0.0
  0
SPLINE
  5
32C
100
AcDbEntity
  8
0
100
AcDbSpline
 62
7
  6
CONTINUOUS
 70
0
 71
3
 72
14
 73
10
 74
0
 42
0.0000001
 43
0.0000001
 44
0.0000000001
 40
0.0
 40
0.0
 40
0.0
 40
0.0
 40
0.1080467658
 40
0.2181310359
 40
0.3321043817
 40
0.4515008661
 40
0.5774624944
 40
0.7107208169
 40
1.0
 40
1.0
 40
1.0
 40
1.0
 10
185.3286678593
 20
99.4750789178
 30
0.0
 10
184.5498932885
 20
99.9247286536
 30
0.0
 10
183.0525059862
 20
100.9694624284
 30
0.0
 10
181.0741209522
 20
102.9166145175
 30
0.0
 10
179.37255282
 20
105.2275440497
 30
0.0
 10
177.9636772878
 20
107.8763065117
 30
0.0
 10
176.8584082458
 20
110.8362613493
 30
0.0
 10
175.771884305
 20
115.2782065383
 30
0.0
 10
175.4908138681
 20
118.8122440933
 30
0.0
 10
175.4908138681
 20
121.2198884927
 30
0.0
  0
SPLINE
  5
32D
100
AcDbEntity
  8
0
100
AcDbSpline
 62
7
  6
CONTINUOUS
 70
0
 71
3
 72
16
 73
12
 74
0
 42
0.0000001
 43
0.0000001
 44
0.0000000001
 40
0.0
 40
0.0
 40
0.0
 40
0.0
 40
0.0468262029
 40
0.0948068217
 40
0.1958025119
 40
0.3058141664
 40
0.4261243601
 40
0.5568389205
 40
0.6971417945
 40
0.8455285416
 40
1.0
 40
1.0
 40
1.0
 40
1.0
 10
189.3508737021
 20
103.7013166462
 30
0.0
 10
189.9496404096
 20
103.4704644894
 30
0.0
 10
191.1949336434
 20
103.0843368421
 30
0.0
 10
193.8445843322
 20
102.6234694827
 30
0.0
 10
197.4274067708
 20
102.6697260038
 30
0.0
 10
201.8832631549
 20
103.6665849777
 30
0.0
 10
206.4754321063
 20
105.563004307
 30
0.0
 10
211.1004428888
 20
108.3085376478
 30
0.0
 10
215.6544668537
 20
111.8362775406
 30
0.0
 10
220.0311757031
 20
116.0618013748
 30
0.0
 10
222.7227337906
 20
119.2310369733
 30
0.0
 10
224.0177886691
 20
120.9056407998
 30
0.0
  0
SPLINE
  5
32E
100
AcDbEntity
  8
0
100
AcDbSpline
 62
7
  6
CONTINUOUS
 70
0
 71
3
 72
11
 73
7
 74
0
 42
0.0000001
 43
0.0000001
 44
0.0000000001
 40
0.0
 40
0.0
 40
0.0
 40
0.0
 40
0.2657762758
 40
0.5226177567
 40
0.7680378515
 40
1.0
 40
1.0
 40
1.0
 40
1.0
 10
234.0193458369
 20
138.5392768453
 30
0.0
 10
234.6697397964
 20
140.2013833214
 30
0.0
 10
235.8212063557
 20
143.5215641607
 30
0.0
 10
237.0985191115
 20
148.5252848457
 30
0.0
 10
237.8811128176
 20
153.4005316641
 30
0.0
 10
238.0694975736
 20
156.6082329179
 30
0.0
 10
238.0694975736
 20
158.1659810187
 30
0.0
  0
SPLINE
  5
32F
100
AcDbEntity
  8
0
100
AcDbSpline
 62
7
  6
CONTINUOUS
 70
0
 71
3
 72
14
 73
10
 74
0
 42
0.0000001
 43
0.0000001
 44
0.0000000001
 40
0.0
 40
0.0
 40
0.0
 40
0.0
 40
0.1080467359
 40
0.2181307109
 40
0.3321042074
 40
0.451501513
 40
0.5774614155
 40
0.7107195081
 40
1.0
 40
1.0
 40
1.0
 40
1.0
 10
232.5527446669
 20
175.5558652453
 30
0.0
 10
233.2413590255
 20
175.1583047385
 30
0.0
 10
234.5653336974
 20
174.2344995005
 30
0.0
 10
236.3147022879
 20
172.5128752486
 30
0.0
 10
237.8192106704
 20
170.469486247
 30
0.0
 10
239.0649223219
 20
168.1274198394
 30
0.0
 10
240.0422719883
 20
165.5102277423
 30
0.0
 10
241.002951318
 20
161.5826072001
 30
0.0
 10
241.2514913368
 20
158.4577712697
 30
0.0
 10
241.2514913368
 20
156.3288976234
 30
0.0
  0
SPLINE
  5
330
100
AcDbEntity
  8
0
100
AcDbSpline
 62
7
  6
CONTINUOUS
 70
0
 71
3
 72
9
 73
5
 74
0
 42
0.0000001
 43
0.0000001
 44
0.0000000001
 40
0.0
 40
0.0
 40
0.0
 40
0.0
 40
0.5190691013
 40
1.0
 40
1.0
 40
1.0
 40
1.0
 10
174.1356678152
 20
126.6564453311
 30
0.0
 10
173.8704100286
 20
124.5160388324
 30
0.0
 10
173.5864647024
 20
120.3596896338
 30
0.0
 10
173.8496388906
 20
116.1962893909
 30
0.0
 10
174.1356678152
 20
114.2185531179
 30
0.0
  0
SPLINE
  5
331
100
AcDbEntity
  8
0
100
AcDbSpline
 62
7
  6
CONTINUOUS
 70
0
 71
3
 72
24
 73
20
 74
0
 42
0.0000001
 43
0.0000001
 44
0.0000000001
 40
0.0
 40
0.0
 40
0.0
 40
0.0
 40
0.0623893206
 40
0.1287320324
 40
0.1983305319
 40
0.2703122457
 40
0.3436950303
 40
0.4174321035
 40
0.4904617851
 40
0.5617535588
 40
0.6303561095
 40
0.6954488403
 40
0.7564012913
 40
0.8128431186
 40
0.8647478713
 40
0.9125264548
 40
0.957104329
 40
0.9786663896
 40
1.0
 40
1.0
 40
1.0
 40
1.0
 10
175.4908138681
 20
121.2198884927
 30
0.0
 10
175.4908138681
 20
123.190519192
 30
0.0
 10
175.7577566804
 20
127.2593702427
 30
0.0
 10
176.8563515984
 20
133.4373685044
 30
0.0
 10
178.6422992483
 20
139.7678052773
 30
0.0
 10
181.0775974782
 20
146.1153390106
 30
0.0
 10
184.1102760038
 20
152.3453997043
 30
0.0
 10
187.6757137004
 20
158.3250578099
 30
0.0
 10
191.6978301253
 20
163.9267831463
 30
0.0
 10
196.0909590752
 20
169.0311983741
 30
0.0
 10
200.7619053948
 20
173.5297887108
 30
0.0
 10
205.6123460363
 20
177.3272058401
 30
0.0
 10
210.5416380678
 20
180.3429263435
 30
0.0
 10
215.4493975947
 20
182.5121581035
 30
0.0
 10
220.2387799281
 20
183.7842526174
 30
0.0
 10
224.8129258798
 20
184.1221762821
 30
0.0
 10
228.4089796223
 20
183.592858672
 30
0.0
 10
231.0258805403
 20
182.6876431027
 30
0.0
 10
232.2442662093
 20
182.0848281756
 30
0.0
 10
232.8278244123
 20
181.7478926854
 30
0.0
  0
SPLINE
  5
332
100
AcDbEntity
  8
0
100
AcDbSpline
 62
7
  6
CONTINUOUS
 70
0
 71
3
 72
11
 73
7
 74
0
 42
0.0000001
 43
0.0000001
 44
0.0000000001
 40
0.0
 40
0.0
 40
0.0
 40
0.0
 40
0.2177798776
 40
0.4509240312
 40
0.7102597553
 40
1.0
 40
1.0
 40
1.0
 40
1.0
 10
240.0780748901
 20
194.3051288341
 30
0.0
 10
240.2265285604
 20
194.2194558329
 30
0.0
 10
240.5042431976
 20
193.9859289996
 30
0.0
 10
240.7999068051
 20
193.5025350825
 30
0.0
 10
240.9755755857
 20
192.9067690396
 30
0.0
 10
241.0100937053
 20
192.4731510499
 30
0.0
 10
241.0100937053
 20
192.2451143154
 30
0.0
  0
SPLINE
  5
333
100
AcDbEntity
  8
0
100
AcDbSpline
 62
7
  6
CONTINUOUS
 70
0
 71
3
 72
17
 73
13
 74
0
 42
0.0000001
 43
0.0000001
 44
0.0000000001
 40
0.0
 40
0.0
 40
0.0
 40
0.0
 40
0.1286937171
 40
0.2702785108
 40
0.4174346475
 40
0.5617788521
 40
0.6954492605
 40
0.8127115773
 40
0.8646776011
 40
0.9125100443
 40
0.9571398829
 40
1.0
 40
1.0
 40
1.0
 40
1.0
 10
183.5103331011
 20
92.6520546726
 30
0.0
 10
183.5103331011
 20
92.2674027678
 30
0.0
 10
183.4027365774
 20
91.4586439079
 30
0.0
 10
183.0010744208
 20
90.2711708775
 30
0.0
 10
182.38222423
 20
89.1272403969
 30
0.0
 10
181.5958550888
 20
88.1206660096
 30
0.0
 10
180.7062369459
 20
87.332740296
 30
0.0
 10
179.9009908131
 20
86.8925257491
 30
0.0
 10
179.2711249658
 20
86.724846906
 30
0.0
 10
178.8376015801
 20
86.6930561961
 30
0.0
 10
178.4339071005
 20
86.7521197242
 30
0.0
 10
178.1893709041
 20
86.8538112011
 30
0.0
 10
178.0784173814
 20
86.9178427691
 30
0.0
  0
SPLINE
  5
334
100
AcDbEntity
  8
0
100
AcDbSpline
 62
7
  6
CONTINUOUS
 70
0
 71
3
 72
17
 73
13
 74
0
 42
0.0000001
 43
0.0000001
 44
0.0000000001
 40
0.0
 40
0.0
 40
0.0
 40
0.0
 40
0.1286937171
 40
0.2702785108
 40
0.4174346475
 40
0.5617788521
 40
0.6954492605
 40
0.8127115773
 40
0.8646776011
 40
0.9125100443
 40
0.9571398829
 40
1.0
 40
1.0
 40
1.0
 40
1.0
 10
183.5103331011
 20
159.0478102135
 30
0.0
 10
183.5103331011
 20
158.6631583087
 30
0.0
 10
183.4027365774
 20
157.8543994488
 30
0.0
 10
183.0010744208
 20
156.6669264184
 30
0.0
 10
182.38222423
 20
155.5229959377
 30
0.0
 10
181.5958550888
 20
154.5164215505
 30
0.0
 10
180.7062369459
 20
153.7284958368
 30
0.0
 10
179.9009908131
 20
153.28828129
 30
0.0
 10
179.2711249658
 20
153.1206024469
 30
0.0
 10
178.8376015801
 20
153.088811737
 30
0.0
 10
178.4339071005
 20
153.1478752651
 30
0.0
 10
178.1893709041
 20
153.249566742
 30
0.0
 10
178.0784173814
 20
153.3135983099
 30
0.0
  0
SPLINE
  5
335
100
AcDbEntity
  8
0
100
AcDbSpline
 62
7
  6
CONTINUOUS
 70
0
 71
3
 72
15
 73
11
 74
0
 42
0.0000001
 43
0.0000001
 44
0.0000000001
 40
0.0
 40
0.0
 40
0.0
 40
0.0
 40
0.1141543519
 40
0.237325601
 40
0.366974755
 40
0.4999984147
 40
0.6330222943
 40
0.7626720931
 40
0.8858443543
 40
1.0
 40
1.0
 40
1.0
 40
1.0
 10
180.4405407286
 20
164.0862160092
 30
0.0
 10
180.0290816078
 20
163.848661393
 30
0.0
 10
179.2163761757
 20
163.2789606309
 30
0.0
 10
178.0981378768
 20
162.2327579592
 30
0.0
 10
177.0676208539
 20
160.9960683371
 30
0.0
 10
176.1636400787
 20
159.6152839507
 30
0.0
 10
175.4198421702
 20
158.1420153923
 30
0.0
 10
174.864099692
 20
156.6312070635
 30
0.0
 10
174.5171817749
 20
155.139670198
 30
0.0
 10
174.4301581123
 20
154.1509868998
 30
0.0
 10
174.4301581123
 20
153.6758701556
 30
0.0
  0
SPLINE
  5
336
100
AcDbEntity
  8
0
100
AcDbSpline
 62
7
  6
CONTINUOUS
 70
0
 71
3
 72
9
 73
5
 74
0
 42
0.0000001
 43
0.0000001
 44
0.0000000001
 40
0.0
 40
0.0
 40
0.0
 40
0.0
 40
0.4809308987
 40
1.0
 40
1.0
 40
1.0
 40
1.0
 10
64.88721528
 20
177.2917496913
 30
0.0
 10
64.6011863554
 20
179.2694859643
 30
0.0
 10
64.3380121672
 20
183.4328862072
 30
0.0
 10
64.6219574934
 20
187.5892354058
 30
0.0
 10
64.88721528
 20
189.7296419044
 30
0.0
  0
SPLINE
  5
337
100
AcDbEntity
  8
0
100
AcDbSpline
 62
7
  6
CONTINUOUS
 70
0
 71
3
 72
9
 73
5
 74
0
 42
0.0000001
 43
0.0000001
 44
0.0000000001
 40
0.0
 40
0.0
 40
0.0
 40
0.0
 40
0.2541915269
 40
1.0
 40
1.0
 40
1.0
 40
1.0
 10
119.0000032995
 20
254.7611604783
 30
0.0
 10
119.3046520852
 20
254.7424133155
 30
0.0
 10
120.5015311065
 20
254.6449713345
 30
0.0
 10
121.6908677992
 20
254.4503934124
 30
0.0
 10
122.563181967
 20
254.2477478514
 30
0.0
  0
SPLINE
  5
338
100
AcDbEntity
  8
0
100
AcDbSpline
 62
7
  6
CONTINUOUS
 70
0
 71
3
 72
13
 73
9
 74
0
 42
0.0000001
 43
0.0000001
 44
0.0000000001
 40
0.0
 40
0.0
 40
0.0
 40
0.0
 40
0.1142481057
 40
0.2375464672
 40
0.499998393
 40
0.7624511984
 40
0.8857505872
 40
1.0
 40
1.0
 40
1.0
 40
1.0
 10
71.0860226178
 20
213.3401102308
 30
0.0
 10
71.4974518702
 20
213.5776476025
 30
0.0
 10
72.3102594958
 20
214.147395849
 30
0.0
 10
73.8318665154
 20
215.5715755699
 30
0.0
 10
75.4391413518
 20
217.7670410653
 30
0.0
 10
76.5368213575
 20
220.2567238541
 30
0.0
 10
77.0093915146
 20
222.2865781255
 30
0.0
 10
77.0964052341
 20
223.2753737786
 30
0.0
 10
77.0964052341
 20
223.7504560843
 30
0.0
  0
SPLINE
  5
339
100
AcDbEntity
  8
0
100
AcDbSpline
 62
7
  6
CONTINUOUS
 70
0
 71
3
 72
9
 73
5
 74
0
 42
0.0000001
 43
0.0000001
 44
0.0000000001
 40
0.0
 40
0.0
 40
0.0
 40
0.0
 40
0.5190691013
 40
1.0
 40
1.0
 40
1.0
 40
1.0
 10
157.5185892742
 20
136.2501030623
 30
0.0
 10
157.2533314877
 20
134.1096965637
 30
0.0
 10
156.9693861615
 20
129.9533473651
 30
0.0
 10
157.2325603497
 20
125.7899471221
 30
0.0
 10
157.5185892742
 20
123.8122108491
 30
0.0
  0
SPLINE
  5
33A
100
AcDbEntity
  8
0
100
AcDbSpline
 62
7
  6
CONTINUOUS
 70
0
 71
3
 72
9
 73
5
 74
0
 42
0.0000001
 43
0.0000001
 44
0.0000000001
 40
0.0
 40
0.0
 40
0.0
 40
0.0
 40
0.2462827593
 40
1.0
 40
1.0
 40
1.0
 40
1.0
 10
215.1945559612
 20
200.7682090092
 30
0.0
 10
214.9064942038
 20
200.8351280604
 30
0.0
 10
213.7310332819
 20
201.0813841038
 30
0.0
 10
212.534720563
 20
201.2260326297
 30
0.0
 10
211.6313772938
 20
201.2816216361
 30
0.0
  0
ELLIPSE
  5
33B
100
AcDbEntity
  8
0
100
AcDbEllipse
 62
7
  6
CONTINUOUS
 10
80.6033997446
 20
285.1933688855
 30
0.0
 11
6.9731426067
 21
12.1707374227
 31
0.0
 40
0.5773435439
 41
0.0437998013
 42
2.0195483275
  0
ELLIPSE
  5
33C
100
AcDbEntity
  8
0
100
AcDbEllipse
 62
7
  6
CONTINUOUS
 10
209.3360836388
 20
223.8762279473
 30
0.0
 11
113.9089605082
 21
-65.2633770834
 31
0.0
 40
0.0753343482
 41
8.9694883847
 42
9.7924679295
  0
ELLIPSE
  5
33D
100
AcDbEntity
  8
0
100
AcDbEllipse
 62
7
  6
CONTINUOUS
 10
-187.3258109358
 20
412.8117224829
 30
0.0
 11
273.5462731791
 21
-140.9189398968
 31
0.0
 40
0.0331551487
 41
0.2497216397
 42
0.3498992522
  0
ELLIPSE
  5
33E
100
AcDbEntity
  8
0
100
AcDbEllipse
 62
7
  6
CONTINUOUS
 10
78.9444025889
 20
244.4542393444
 30
0.0
 11
-2.3730994875
 21
4.4026278786
 31
0.0
 40
0.5568670418
 41
0.8016832507
 42
2.3724795775
  0
ELLIPSE
  5
33F
100
AcDbEntity
  8
0
100
AcDbEllipse
 62
7
  6
CONTINUOUS
 10
84.8391480921
 20
260.2661102618
 30
0.0
 11
6.9731426067
 21
12.1707374227
 31
0.0
 40
0.5773435439
 41
0.0437998023
 42
2.0046014781
  0
ELLIPSE
  5
340
100
AcDbEntity
  8
0
100
AcDbEllipse
 62
7
  6
CONTINUOUS
 10
214.9860514365
 20
198.2753572251
 30
0.0
 11
113.9089605082
 21
-65.2633770834
 31
0.0
 40
0.0753343482
 41
8.9694883847
 42
9.7924679295
  0
ELLIPSE
  5
341
100
AcDbEntity
  8
0
100
AcDbEllipse
 62
7
  6
CONTINUOUS
 10
-181.6758431381
 20
387.2108517607
 30
0.0
 11
273.5462731791
 21
-140.9189398968
 31
0.0
 40
0.0331551487
 41
0.0170784054
 42
0.3648461017
  0
ELLIPSE
  5
342
100
AcDbEntity
  8
0
100
AcDbEllipse
 62
7
  6
CONTINUOUS
 10
387.7771218098
 20
37.4419758335
 30
0.0
 11
367.8536326413
 21
-161.5721034909
 31
0.0
 40
0.0907422256
 41
-2.701791825
 42
-2.6717516902
  0
ENDSEC
  0
SECTION
  2
OBJECTS
  0
DICTIONARY
  5
C
100
AcDbDictionary
280
0
281
1
  3
ACAD_GROUP
350
D
  3
ACAD_MLINESTYLE
350
17
  3
ACAD_LAYOUT
350
1A
  3
ACAD_PLOTSETTINGS
350
19
  3
ACAD_PLOTSTYLENAME
350
E
  0
DICTIONARY
  5
D
102
{ACAD_REACTORS
330
C
102
}
100
AcDbDictionary
280
0
281
1
  0
ACDBDICTIONARYWDFLT
  5
E
102
{ACAD_REACTORS
330
C
102
}
100
AcDbDictionary
281
1
  3
Normal
350
F
100
AcDbDictionaryWithDefault
340
F
  0
DICTIONARY
  5
17
102
{ACAD_REACTORS
330
C
102
}
100
AcDbDictionary
280
0
281
1
  3
Standard
350
18
  0
DICTIONARY
  5
19
102
{ACAD_REACTORS
330
C
102
}
100
AcDbDictionary
281
1
  0
DICTIONARY
  5
1A
102
{ACAD_REACTORS
330
C
102
}
100
AcDbDictionary
281
1
  3
Model
350
343
  3
Layout1
350
344
  0
ACDBPLACEHOLDER
  5
F
102
{ACAD_REACTORS
330
E
102
}
  0
MLINESTYLE
  5
18
102
{ACAD_REACTORS
330
17
102
}
100
AcDbMlineStyle
  2
STANDARD
 70
0
  3

 62
256
 51
90.0
 52
90.0
 71
2
 49
0.5
 62
256
  6
BYLAYER
 49
-0.5
 62
256
  6
BYLAYER
  0
LAYOUT
  5
343
102
{ACAD_REACTORS
330
1A
102
}
100
AcDbPlotSettings
  1

  2
none_device
  4

  6

 40
0.0
 41
0.0
 42
0.0
 43
0.0
 44
210.0
 45
297.0
 46
0.0
 47
0.0
 48
0.0
 49
0.0
140
0.0
141
0.0
142
1.0
143
1.0
 70
1024
 72
1
 73
0
 74
0
  7

 75
0
147
1.0
148
0.0
149
0.0
100
AcDbLayout
  1
Model
 70
0
 71
0
 10
0.0
 20
0.0
 11
210.0
 21
297.0
 12
0.0
 22
0.0
 32
0.0
 14
0.0
 24
0.0
 34
0.0
 15
0.0
 25
0.0
 35
0.0
146
0.0
 13
0.0
 23
0.0
 33
0.0
 16
1.0
 26
0.0
 36
0.0
 17
0.0
 27
1.0
 37
0.0
 76
0
330
210
345
0
346
0
  0
LAYOUT
  5
344
102
{ACAD_REACTORS
330
1A
102
}
100
AcDbPlotSettings
  1

  2
none_device
  4

  6

 40
0.0
 41
0.0
 42
0.0
 43
0.0
 44
210.0
 45
297.0
 46
0.0
 47
0.0
 48
0.0
 49
0.0
140
0.0
141
0.0
142
1.0
143
1.0
 70
0
 72
1
 73
0
 74
0
  7

 75
0
147
1.0
148
0.0
149
0.0
100
AcDbLayout
  1
Layout1
 70
0
 71
1
 10
0.0
 20
0.0
 11
210.0
 21
297.0
 12
0.0
 22
0.0
 32
0.0
 14
0.0
 24
0.0
 34
0.0
 15
0.0
 25
0.0
 35
0.0
146
0.0
 13
0.0
 23
0.0
 33
0.0
 16
1.0
 26
0.0
 36
0.0
 17
0.0
 27
1.0
 37
0.0
 76
0
330
211
345
0
346
0
  0
ENDSEC
  0
EOF
