999
DXF file: Y:\001_SCHNEIDER_PARIS\ABL6-ABT7-ABL8_LUCAS SANTANA\TRAVAIL\3D-Simplified\ABL8PRP24100_3D-Simplified\ABL8PRP24100_2D-Views\abl8prp24100_2d-views_1.dxf
999
Pro/ENGINEER 2018260 by Parametric Technology Corporation
  0
SECTION
  2
HEADER
  9
$ACADVER
  1
AC1027
  9
$DWGCODEPAGE
  3
ANSI_1252
  9
$EXTMAX
 10
558.8
 20
431.8
 30
0.0
  9
$EXTMIN
 10
0.0
 20
0.0
 30
0.0
  9
$LIMMIN
 10
0.0
 20
0.0
  9
$LIMMAX
 10
558.8
 20
431.8
  9
$VIEWCTR
 10
279.4
 20
215.9
  9
$VIEWSIZE
 40
431.8
  9
$CLAYER
  8
0
  9
$LTSCALE
 40
30.734
  9
$CELTYPE
  6
BYLAYER
  9
$DIMSCALE
 40
1.0
  9
$DIMASZ
 40
3.5
  9
$DIMEXO
 40
1.0
  9
$DIMDLI
 40
21.2344
  9
$DIMEXE
 40
3.0
  9
$DIMCEN
 40
5.0292
  9
$DIMLFAC
 40
1.0
  9
$DIMBLK
  1
_FILLED
  9
$DIMALT
 70
0
  9
$DIMALTF
 40
0.0393700787
  9
$DIMTXT
 40
4.0
  9
$DIMTOL
 70
1
  9
$DIMLIM
 70
0
  9
$DIMTFAC
 40
1.0
  9
$DIMTP
 40
0.0001
  9
$DIMTM
 40
0.0001
  9
$DIMGAP
 40
0.625
  9
$DIMDSEP
 70
46
  9
$AUNITS
 70
0
  9
$PDMODE
 70
0
  9
$PDSIZE
 40
0.01
  9
$HANDSEED
  5
5FF
  9
$TILEMODE
 70
1
  9
$MEASUREMENT
 70
1
  9
$INSUNITS
 70
4
  0
ENDSEC
  0
SECTION
  2
CLASSES
  0
CLASS
  1
ACDBDICTIONARYWDFLT
  2
AcDbDictionaryWithDefault
  3
AutoCAD 2000
 90
0
 91
1
280
0
281
0
  0
CLASS
  1
ACDBPLACEHOLDER
  2
AcDbPlaceHolder
  3
AutoCAD 2000
 90
0
 91
1
280
0
281
0
  0
CLASS
  1
LAYOUT
  2
AcDbLayout
  3
AutoCAD 2000
 90
0
 91
0
280
0
281
0
  0
ENDSEC
  0
SECTION
  2
TABLES
  0
TABLE
  2
VPORT
  5
8
100
AcDbSymbolTable
 70
2
  0
VPORT
  5
1F4
100
AcDbSymbolTableRecord
100
AcDbViewportTableRecord
  2
*ACTIVE
 70
0
 10
0.0
 20
0.0
 11
1.0
 21
1.0
 12
279.4
 22
215.9
 13
0.0
 23
0.0
 14
1.0
 24
1.0
 15
0.0
 25
0.0
 16
0.0
 26
0.0
 36
1.0
 17
0.0
 27
0.0
 37
0.0
 40
431.8
 41
1.2941176471
 42
50.0
 43
0.0
 44
0.0
 50
0.0
 51
0.0
 71
0
 72
100
 73
1
 74
1
 75
0
 76
0
 77
0
 78
0
  0
ENDTAB
  0
TABLE
  2
LTYPE
  5
5
100
AcDbSymbolTable
 70
6
  0
LTYPE
  5
14
100
AcDbSymbolTableRecord
100
AcDbLinetypeTableRecord
  2
BYBLOCK
 70
0
  3

 72
65
 73
0
 40
0.0
  0
LTYPE
  5
15
100
AcDbSymbolTableRecord
100
AcDbLinetypeTableRecord
  2
BYLAYER
 70
0
  3

 72
65
 73
0
 40
0.0
  0
LTYPE
  5
16
100
AcDbSymbolTableRecord
100
AcDbLinetypeTableRecord
  2
CONTINUOUS
 70
64
  3
Solid line
 72
65
 73
0
 40
0.0
  0
LTYPE
  5
1F5
100
AcDbSymbolTableRecord
100
AcDbLinetypeTableRecord
  2
CENTER
 70
64
  3
____ _ ____ _ ____ _ ____ _ ____ _ ____ _ ____
 72
65
 73
4
 40
0.6
 49
0.375
 74
0
 49
-0.075
 74
0
 49
0.075
 74
0
 49
-0.075
 74
0
  0
LTYPE
  5
1F6
100
AcDbSymbolTableRecord
100
AcDbLinetypeTableRecord
  2
HIDDEN
 70
64
  3
- - - - - - - - - - - - - - - - - - - -
 72
65
 73
2
 40
0.2
 49
0.1
 74
0
 49
-0.1
 74
0
  0
LTYPE
  5
1F7
100
AcDbSymbolTableRecord
100
AcDbLinetypeTableRecord
  2
PHANTOM
 70
64
  3
_____ _ _ _____ _ _ _____ _ _ _____
 72
65
 73
6
 40
0.8
 49
0.45
 74
0
 49
-0.05
 74
0
 49
0.1
 74
0
 49
-0.05
 74
0
 49
0.1
 74
0
 49
-0.05
 74
0
  0
LTYPE
  5
1F8
100
AcDbSymbolTableRecord
100
AcDbLinetypeTableRecord
  2
DOT
 70
64
  3
. . . . . . . . . . . . . . . . . . . .
 72
65
 73
2
 40
0.2
 49
0.1
 74
0
 49
-0.1
 74
0
  0
LTYPE
  5
1F9
100
AcDbSymbolTableRecord
100
AcDbLinetypeTableRecord
  2
DASHED
 70
64
  3
- - - - - - - - - - - - - - - - - - - -
 72
65
 73
2
 40
0.2
 49
0.1
 74
0
 49
-0.1
 74
0
  0
ENDTAB
  0
TABLE
  2
LAYER
  5
2
100
AcDbSymbolTable
 70
36
  0
LAYER
  5
10
100
AcDbSymbolTableRecord
100
AcDbLayerTableRecord
  2
0
 70
0
 62
7
  6
CONTINUOUS
370
-3
390
F
  0
LAYER
  5
1FA
100
AcDbSymbolTableRecord
100
AcDbLayerTableRecord
  2
DEFAULT_1
 70
0
 62
7
  6
CENTER
370
-3
390
F
  0
LAYER
  5
1FB
100
AcDbSymbolTableRecord
100
AcDbLayerTableRecord
  2
DEFAULT_2
 70
0
 62
8
  6
HIDDEN
370
-3
390
F
  0
LAYER
  5
1FC
100
AcDbSymbolTableRecord
100
AcDbLayerTableRecord
  2
DEFAULT_3
 70
0
 62
7
  6
PHANTOM
370
-3
390
F
  0
LAYER
  5
1FD
100
AcDbSymbolTableRecord
100
AcDbLayerTableRecord
  2
01_ALL_DTM_PLN
 70
0
 62
7
  6
CONTINUOUS
370
-3
390
F
  0
LAYER
  5
1FE
100
AcDbSymbolTableRecord
100
AcDbLayerTableRecord
  2
01__ASM_ALL_DTM_PLN
 70
0
 62
7
  6
CONTINUOUS
370
-3
390
F
  0
LAYER
  5
1FF
100
AcDbSymbolTableRecord
100
AcDbLayerTableRecord
  2
01__ASM_DEF_DTM_PLN
 70
0
 62
7
  6
CONTINUOUS
370
-3
390
F
  0
LAYER
  5
200
100
AcDbSymbolTableRecord
100
AcDbLayerTableRecord
  2
01___PRT_ALL_DTM_PLN
 70
0
 62
7
  6
CONTINUOUS
370
-3
390
F
  0
LAYER
  5
201
100
AcDbSymbolTableRecord
100
AcDbLayerTableRecord
  2
01___PRT_DEF_DTM_PLN
 70
0
 62
7
  6
CONTINUOUS
370
-3
390
F
  0
LAYER
  5
202
100
AcDbSymbolTableRecord
100
AcDbLayerTableRecord
  2
02_ALL_AXES
 70
0
 62
7
  6
CONTINUOUS
370
-3
390
F
  0
LAYER
  5
203
100
AcDbSymbolTableRecord
100
AcDbLayerTableRecord
  2
02__ASM_ALL_AXES
 70
0
 62
7
  6
CONTINUOUS
370
-3
390
F
  0
LAYER
  5
204
100
AcDbSymbolTableRecord
100
AcDbLayerTableRecord
  2
02___PRT_ALL_AXES
 70
0
 62
7
  6
CONTINUOUS
370
-3
390
F
  0
LAYER
  5
205
100
AcDbSymbolTableRecord
100
AcDbLayerTableRecord
  2
03_ALL_CURVES
 70
0
 62
7
  6
CONTINUOUS
370
-3
390
F
  0
LAYER
  5
206
100
AcDbSymbolTableRecord
100
AcDbLayerTableRecord
  2
03__ASM_ALL_CURVES
 70
0
 62
7
  6
CONTINUOUS
370
-3
390
F
  0
LAYER
  5
207
100
AcDbSymbolTableRecord
100
AcDbLayerTableRecord
  2
03___PRT_ALL_CURVES
 70
0
 62
7
  6
CONTINUOUS
370
-3
390
F
  0
LAYER
  5
208
100
AcDbSymbolTableRecord
100
AcDbLayerTableRecord
  2
04_ALL_DTM_PNT
 70
0
 62
7
  6
CONTINUOUS
370
-3
390
F
  0
LAYER
  5
209
100
AcDbSymbolTableRecord
100
AcDbLayerTableRecord
  2
04__ASM_ALL_DTM_PNT
 70
0
 62
7
  6
CONTINUOUS
370
-3
390
F
  0
LAYER
  5
20A
100
AcDbSymbolTableRecord
100
AcDbLayerTableRecord
  2
04___PRT_ALL_DTM_PNT
 70
0
 62
7
  6
CONTINUOUS
370
-3
390
F
  0
LAYER
  5
20B
100
AcDbSymbolTableRecord
100
AcDbLayerTableRecord
  2
05_ALL_DTM_CSYS
 70
0
 62
7
  6
CONTINUOUS
370
-3
390
F
  0
LAYER
  5
20C
100
AcDbSymbolTableRecord
100
AcDbLayerTableRecord
  2
05__ASM_ALL_DTM_CSYS
 70
0
 62
7
  6
CONTINUOUS
370
-3
390
F
  0
LAYER
  5
20D
100
AcDbSymbolTableRecord
100
AcDbLayerTableRecord
  2
05__ASM_DEF_DTM_CSYS
 70
0
 62
7
  6
CONTINUOUS
370
-3
390
F
  0
LAYER
  5
20E
100
AcDbSymbolTableRecord
100
AcDbLayerTableRecord
  2
05___PRT_ALL_DTM_CSYS
 70
0
 62
7
  6
CONTINUOUS
370
-3
390
F
  0
LAYER
  5
20F
100
AcDbSymbolTableRecord
100
AcDbLayerTableRecord
  2
05___PRT_DEF_DTM_CSYS
 70
0
 62
7
  6
CONTINUOUS
370
-3
390
F
  0
LAYER
  5
210
100
AcDbSymbolTableRecord
100
AcDbLayerTableRecord
  2
06_ALL_SURFS
 70
0
 62
7
  6
CONTINUOUS
370
-3
390
F
  0
LAYER
  5
211
100
AcDbSymbolTableRecord
100
AcDbLayerTableRecord
  2
06__ASM_ALL_SURFS
 70
0
 62
7
  6
CONTINUOUS
370
-3
390
F
  0
LAYER
  5
212
100
AcDbSymbolTableRecord
100
AcDbLayerTableRecord
  2
06___PRT_ALL_SURFS
 70
0
 62
7
  6
CONTINUOUS
370
-3
390
F
  0
LAYER
  5
213
100
AcDbSymbolTableRecord
100
AcDbLayerTableRecord
  2
07__ASM_ALL_SKELETONS
 70
0
 62
7
  6
CONTINUOUS
370
-3
390
F
  0
ENDTAB
  0
TABLE
  2
STYLE
  5
3
100
AcDbSymbolTable
 70
1
  0
STYLE
  5
11
100
AcDbSymbolTableRecord
100
AcDbTextStyleTableRecord
  2
STANDARD
 70
0
 40
0.0
 41
0.6
 50
0.0
 71
0
 42
0.2
  3
txt
  4

  0
STYLE
  5
214
100
AcDbSymbolTableRecord
100
AcDbTextStyleTableRecord
  2
TEXTSTYLE_1
 70
0
 40
0.0
 41
0.8
 50
0.0
 71
0
 42
0.2
  3
gdt
  4

  0
ENDTAB
  0
TABLE
  2
VIEW
  5
6
100
AcDbSymbolTable
 70
0
  0
ENDTAB
  0
TABLE
  2
UCS
  5
7
100
AcDbSymbolTable
 70
0
  0
ENDTAB
  0
TABLE
  2
APPID
  5
9
100
AcDbSymbolTable
 70
1
  0
APPID
  5
215
100
AcDbSymbolTableRecord
100
AcDbRegAppTableRecord
  2
ACAD
 70
0
  0
ENDTAB
  0
TABLE
  2
BLOCK_RECORD
  5
1
100
AcDbSymbolTable
 70
0
  0
BLOCK_RECORD
  5
216
100
AcDbSymbolTableRecord
100
AcDbBlockTableRecord
  2
*Model_Space
  0
BLOCK_RECORD
  5
217
100
AcDbSymbolTableRecord
100
AcDbBlockTableRecord
  2
*Paper_Space
  0
BLOCK_RECORD
  5
218
100
AcDbSymbolTableRecord
100
AcDbBlockTableRecord
  2
_FILLED
  0
ENDTAB
  0
TABLE
  2
DIMSTYLE
  5
A
100
AcDbSymbolTable
 70
1
100
AcDbDimStyleTable
 71
0
  0
DIMSTYLE
105
219
100
AcDbSymbolTableRecord
100
AcDbDimStyleTableRecord
  2
STANDARD
 70
0
  3

  4

 40
1.0
 41
3.5
 42
1.0
 43
0.38
 44
3.0
 45
0.0
 46
0.0
 47
0.0001
 48
0.0001
140
4.0
141
0.09
142
0.0
143
25.4
144
1.0
145
0.0
146
1.0
147
0.625
 71
1.0
 72
0.0
 73
0
 74
0
 75
0
 76
0
 77
1
 78
8
 79
2
170
0
171
3
172
0
173
0
174
0
175
0
176
0
177
0
178
0
270
2
179
4
271
4
272
4
273
2
274
2
275
0
280
0
281
0
282
0
283
1
284
8
285
0
286
0
287
3
288
0
340
11
278
46
341
218
342
218
343
218
344
218
  0
ENDTAB
  0
ENDSEC
  0
SECTION
  2
BLOCKS
  0
BLOCK
  5
20
100
AcDbEntity
  8
0
100
AcDbBlockBegin
  2
*Model_Space
 70
0
 10
0.0
 20
0.0
 30
0.0
  3
*Model_Space
  1

  0
ENDBLK
  5
21
100
AcDbEntity
  8
0
100
AcDbBlockEnd
  0
BLOCK
  5
1C
100
AcDbEntity
  8
0
100
AcDbBlockBegin
  2
*Paper_Space
 70
0
 10
0.0
 20
0.0
 30
0.0
  3
*Paper_Space
  1

  0
ENDBLK
  5
1D
100
AcDbEntity
  8
0
100
AcDbBlockEnd
  0
BLOCK
  5
21A
100
AcDbEntity
  8
0
100
AcDbBlockBegin
  2
_FILLED
 70
64
 10
0.0
 20
0.0
  3
_FILLED
  1

  0
SOLID
  5
21B
100
AcDbEntity
  8
0
  6
BYBLOCK
 62
0
100
AcDbTrace
 10
0.0
 20
0.0
 11
-1.0
 21
0.2857142857
 12
-1.0
 22
-0.2857142857
 13
-1.0
 23
-0.2857142857
  0
ENDBLK
  5
21C
100
AcDbEntity
  8
0
  6
BYBLOCK
 62
0
100
AcDbBlockEnd
  0
ENDSEC
  0
SECTION
  2
ENTITIES
  0
LINE
  5
21D
100
AcDbEntity
  8
0
100
AcDbLine
 62
7
  6
CONTINUOUS
 10
30.3772388076
 20
146.2841850147
 11
16.3990462749
 21
154.158422572
  0
LINE
  5
21E
100
AcDbEntity
  8
0
100
AcDbLine
 62
7
  6
CONTINUOUS
 10
8.9180360893
 20
158.4792502907
 11
16.399046274
 21
154.1584225725
  0
LINE
  5
21F
100
AcDbEntity
  8
0
100
AcDbLine
 62
7
  6
CONTINUOUS
 10
8.9180361418
 20
241.2193655136
 11
8.9180361266
 21
217.0756364087
  0
LINE
  5
220
100
AcDbEntity
  8
0
100
AcDbLine
 62
7
  6
CONTINUOUS
 10
8.9180361045
 20
182.4059487202
 11
8.9180360893
 21
158.4792502907
  0
LINE
  5
221
100
AcDbEntity
  8
0
100
AcDbLine
 62
7
  6
CONTINUOUS
 10
11.1484138639
 20
240.7568563125
 11
11.14841386
 21
247.0212750494
  0
LINE
  5
222
100
AcDbEntity
  8
0
100
AcDbLine
 62
7
  6
CONTINUOUS
 10
12.0146533014
 20
181.7885634934
 11
12.014653326
 21
214.4249422744
  0
LINE
  5
223
100
AcDbEntity
  8
0
100
AcDbLine
 62
7
  6
CONTINUOUS
 10
67.3916353202
 20
259.5364216255
 11
69.871453813
 21
260.2926777823
  0
LINE
  5
224
100
AcDbEntity
  8
0
100
AcDbLine
 62
7
  6
CONTINUOUS
 10
63.5193008533
 20
138.4626471537
 11
122.361998225
 21
154.2359914119
  0
LINE
  5
225
100
AcDbEntity
  8
0
100
AcDbLine
 62
7
  6
CONTINUOUS
 10
13.00638418
 20
245.9481619991
 11
13.006384184
 21
239.6643281837
  0
LINE
  5
226
100
AcDbEntity
  8
0
100
AcDbLine
 62
7
  6
CONTINUOUS
 10
116.5887888656
 20
156.7181381154
 11
111.035096093
 21
155.2294179856
  0
LINE
  5
227
100
AcDbEntity
  8
0
100
AcDbLine
 62
7
  6
CONTINUOUS
 10
103.6962877561
 20
153.2621806656
 11
98.1425949835
 21
151.7734605358
  0
LINE
  5
228
100
AcDbEntity
  8
0
100
AcDbLine
 62
7
  6
CONTINUOUS
 10
90.8037866465
 20
149.8062232158
 11
85.2500938739
 21
148.3175030859
  0
LINE
  5
229
100
AcDbEntity
  8
0
100
AcDbLine
 62
7
  6
CONTINUOUS
 10
77.911285537
 20
146.350265766
 11
72.3575927644
 21
144.8615456361
  0
LINE
  5
22A
100
AcDbEntity
  8
0
100
AcDbLine
 62
7
  6
CONTINUOUS
 10
72.3575927652
 20
145.7808802555
 11
77.911285534
 21
147.2696003838
  0
LINE
  5
22B
100
AcDbEntity
  8
0
100
AcDbLine
 62
7
  6
CONTINUOUS
 10
85.2500938747
 20
149.2368377053
 11
90.8037866435
 21
150.7255578337
  0
LINE
  5
22C
100
AcDbEntity
  8
0
100
AcDbLine
 62
7
  6
CONTINUOUS
 10
98.1425949842
 20
152.6927951552
 11
103.696287753
 21
154.1815152835
  0
LINE
  5
22D
100
AcDbEntity
  8
0
100
AcDbLine
 62
7
  6
CONTINUOUS
 10
111.0350960938
 20
156.148752605
 11
116.5887888626
 21
157.6374727333
  0
LINE
  5
22E
100
AcDbEntity
  8
0
100
AcDbLine
 62
7
  6
CONTINUOUS
 10
71.3238507568
 20
145.8864041331
 11
80.8114092486
 21
148.4296343555
  0
LINE
  5
22F
100
AcDbEntity
  8
0
100
AcDbLine
 62
7
  6
CONTINUOUS
 10
84.2163518663
 20
149.342361583
 11
93.7039103581
 21
151.8855918053
  0
LINE
  5
230
100
AcDbEntity
  8
0
100
AcDbLine
 62
7
  6
CONTINUOUS
 10
97.1088529759
 20
152.7983190328
 11
106.5964114677
 21
155.3415492551
  0
LINE
  5
231
100
AcDbEntity
  8
0
100
AcDbLine
 62
7
  6
CONTINUOUS
 10
110.0013540854
 20
156.2542764826
 11
119.4889125772
 21
158.7975067049
  0
LINE
  5
232
100
AcDbEntity
  8
0
100
AcDbLine
 62
7
  6
CONTINUOUS
 10
121.5397346676
 20
160.3943820179
 11
112.0521761762
 21
157.8511517957
  0
LINE
  5
233
100
AcDbEntity
  8
0
100
AcDbLine
 62
7
  6
CONTINUOUS
 10
108.6472335581
 20
156.938424568
 11
99.1596750667
 21
154.3951943459
  0
LINE
  5
234
100
AcDbEntity
  8
0
100
AcDbLine
 62
7
  6
CONTINUOUS
 10
95.7547324485
 20
153.4824671182
 11
86.2671739572
 21
150.939236896
  0
LINE
  5
235
100
AcDbEntity
  8
0
100
AcDbLine
 62
7
  6
CONTINUOUS
 10
82.862231339
 20
150.0265096684
 11
73.3746728476
 21
147.4832794462
  0
LINE
  5
236
100
AcDbEntity
  8
0
100
AcDbLine
 62
7
  6
CONTINUOUS
 10
63.5193008533
 20
138.4626471537
 11
30.3772388145
 21
157.132333455
  0
LINE
  5
237
100
AcDbEntity
  8
0
100
AcDbLine
 62
7
  6
CONTINUOUS
 10
20.4443655933
 20
241.6581497893
 11
20.4443655879
 21
247.9419836166
  0
LINE
  5
238
100
AcDbEntity
  8
0
100
AcDbLine
 62
7
  6
CONTINUOUS
 10
30.3772388076
 20
146.2841850147
 11
30.792328023
 21
146.3517477659
  0
LINE
  5
239
100
AcDbEntity
  8
0
100
AcDbLine
 62
7
  6
CONTINUOUS
 10
68.9780404525
 20
146.0175701075
 11
70.6671043797
 21
145.0420127891
  0
LINE
  5
23A
100
AcDbEntity
  8
0
100
AcDbLine
 62
9
  6
CONTINUOUS
 10
67.8751535968
 20
148.1956631691
 11
69.564217524
 21
147.2201058507
  0
LINE
  5
23B
100
AcDbEntity
  8
0
100
AcDbLine
 62
9
  6
CONTINUOUS
 10
71.9051168334
 20
146.0422180293
 11
72.357592765
 21
145.7808802555
  0
LINE
  5
23C
100
AcDbEntity
  8
0
100
AcDbLine
 62
7
  6
CONTINUOUS
 10
10.8886106871
 20
182.4389350368
 11
12.0146533014
 21
181.7885634934
  0
LINE
  5
23D
100
AcDbEntity
  8
0
100
AcDbLine
 62
9
  6
CONTINUOUS
 10
77.911285534
 20
147.2696003839
 11
77.4588096024
 21
147.5309381576
  0
LINE
  5
23E
100
AcDbEntity
  8
0
100
AcDbLine
 62
7
  6
CONTINUOUS
 10
30.3772388145
 20
157.132333455
 11
30.3772388076
 21
146.2841850147
  0
LINE
  5
23F
100
AcDbEntity
  8
0
100
AcDbLine
 62
7
  6
CONTINUOUS
 10
30.4709159126
 20
233.7535206291
 11
30.4709159138
 21
235.6041537577
  0
LINE
  5
240
100
AcDbEntity
  8
0
100
AcDbLine
 62
7
  6
CONTINUOUS
 10
30.792328023
 20
146.3517477659
 11
30.7923280295
 21
156.898504147
  0
LINE
  5
241
100
AcDbEntity
  8
0
100
AcDbLine
 62
7
  6
CONTINUOUS
 10
31.0633397578
 20
236.3799118775
 11
31.063337408
 21
237.7903782335
  0
LINE
  5
242
100
AcDbEntity
  8
0
100
AcDbLine
 62
7
  6
CONTINUOUS
 10
34.6251312219
 20
210.2944294509
 11
34.6251312319
 21
226.1030183413
  0
LINE
  5
243
100
AcDbEntity
  8
0
100
AcDbLine
 62
7
  6
CONTINUOUS
 10
35.0728731684
 20
210.3725706996
 11
35.0728731784
 21
226.181344674
  0
LINE
  5
244
100
AcDbEntity
  8
0
100
AcDbLine
 62
7
  6
CONTINUOUS
 10
97.4650753045
 20
167.6849858294
 11
102.2033834593
 21
168.9551343621
  0
LINE
  5
245
100
AcDbEntity
  8
0
100
AcDbLine
 62
7
  6
CONTINUOUS
 10
101.5874326322
 20
172.3610622972
 11
98.2816631217
 21
171.4749193626
  0
LINE
  5
246
100
AcDbEntity
  8
0
100
AcDbLine
 62
7
  6
CONTINUOUS
 10
97.0431352586
 20
172.1902593219
 11
96.4095551867
 21
172.0204221622
  0
LINE
  5
247
100
AcDbEntity
  8
0
100
AcDbLine
 62
7
  6
CONTINUOUS
 10
68.0234713442
 20
164.4247172861
 11
69.5139575361
 21
164.8242562751
  0
LINE
  5
248
100
AcDbEntity
  8
0
100
AcDbLine
 62
7
  6
CONTINUOUS
 10
82.2185322681
 20
149.2725376039
 11
83.5596054893
 21
148.4979702389
  0
LINE
  5
249
100
AcDbEntity
  8
0
100
AcDbLine
 62
9
  6
CONTINUOUS
 10
84.7976179429
 20
149.4981754791
 11
85.2500938745
 21
149.2368377053
  0
LINE
  5
24A
100
AcDbEntity
  8
0
100
AcDbLine
 62
7
  6
CONTINUOUS
 10
38.8675704814
 20
236.0043236861
 11
38.8675704825
 21
237.8549568148
  0
LINE
  5
24B
100
AcDbEntity
  8
0
100
AcDbLine
 62
7
  6
CONTINUOUS
 10
39.4599943265
 20
238.6307149345
 11
39.4599919768
 21
240.0411812906
  0
LINE
  5
24C
100
AcDbEntity
  8
0
100
AcDbLine
 62
7
  6
CONTINUOUS
 10
41.0634787165
 20
217.224423519
 11
41.0634787169
 21
217.9598912099
  0
LINE
  5
24D
100
AcDbEntity
  8
0
100
AcDbLine
 62
7
  6
CONTINUOUS
 10
41.0634787175
 20
218.8792258235
 11
41.0634787177
 21
219.2033389526
  0
LINE
  5
24E
100
AcDbEntity
  8
0
100
AcDbLine
 62
7
  6
CONTINUOUS
 10
41.2241016822
 20
218.5659861018
 11
41.2241016817
 21
217.830518411
  0
LINE
  5
24F
100
AcDbEntity
  8
0
100
AcDbLine
 62
7
  6
CONTINUOUS
 10
75.1232171612
 20
236.9607476652
 11
74.853408565
 21
236.8447552095
  0
LINE
  5
250
100
AcDbEntity
  8
0
100
AcDbLine
 62
7
  6
CONTINUOUS
 10
98.4749535381
 20
176.4246424911
 11
98.1974078212
 21
176.3499004218
  0
LINE
  5
251
100
AcDbEntity
  8
0
100
AcDbLine
 62
7
  6
CONTINUOUS
 10
98.4749535381
 20
176.4246424911
 11
98.1971590187
 21
176.3500436278
  0
LINE
  5
252
100
AcDbEntity
  8
0
100
AcDbLine
 62
7
  6
CONTINUOUS
 10
98.2816631239
 20
174.9683908939
 11
101.5874326345
 21
175.8545338285
  0
LINE
  5
253
100
AcDbEntity
  8
0
100
AcDbLine
 62
7
  6
CONTINUOUS
 10
100.5503969865
 20
177.0412629551
 11
100.5328586611
 21
177.036907418
  0
LINE
  5
254
100
AcDbEntity
  8
0
100
AcDbLine
 62
7
  6
CONTINUOUS
 10
100.550376506
 20
177.0409104052
 11
100.5328586611
 21
177.036907418
  0
LINE
  5
255
100
AcDbEntity
  8
0
100
AcDbLine
 62
7
  6
CONTINUOUS
 10
68.9376029155
 20
165.1333828815
 11
71.0735915333
 21
163.9877498128
  0
LINE
  5
256
100
AcDbEntity
  8
0
100
AcDbLine
 62
7
  6
CONTINUOUS
 10
68.0234713442
 20
164.4247172861
 11
63.5193008714
 21
166.9620201754
  0
LINE
  5
257
100
AcDbEntity
  8
0
100
AcDbLine
 62
9
  6
CONTINUOUS
 10
90.8037866436
 20
150.7255578337
 11
90.351310712
 21
150.9868956074
  0
LINE
  5
258
100
AcDbEntity
  8
0
100
AcDbLine
 62
9
  6
CONTINUOUS
 10
69.5642175342
 20
163.1797547416
 11
67.8751536069
 21
164.15531206
  0
LINE
  5
259
100
AcDbEntity
  8
0
100
AcDbLine
 62
7
  6
CONTINUOUS
 10
10.8886107078
 20
215.0753138192
 11
8.9180361266
 21
217.0756364087
  0
LINE
  5
25A
100
AcDbEntity
  8
0
100
AcDbLine
 62
7
  6
CONTINUOUS
 10
45.6618357439
 20
209.1644302649
 11
45.7195741146
 21
206.4312950795
  0
LINE
  5
25B
100
AcDbEntity
  8
0
100
AcDbLine
 62
7
  6
CONTINUOUS
 10
46.8826609705
 20
206.7430715649
 11
46.8249225998
 21
209.4762067503
  0
LINE
  5
25C
100
AcDbEntity
  8
0
100
AcDbLine
 62
7
  6
CONTINUOUS
 10
41.8899210968
 20
219.836797013
 11
41.8899210963
 21
219.1007615574
  0
LINE
  5
25D
100
AcDbEntity
  8
0
100
AcDbLine
 62
7
  6
CONTINUOUS
 10
41.8899210957
 20
218.1814269438
 11
41.8899210953
 21
217.445959253
  0
LINE
  5
25E
100
AcDbEntity
  8
0
100
AcDbLine
 62
7
  6
CONTINUOUS
 10
43.915329166
 20
246.5298395561
 11
43.9153291671
 21
247.9497646348
  0
LINE
  5
25F
100
AcDbEntity
  8
0
100
AcDbLine
 62
7
  6
CONTINUOUS
 10
46.6451307348
 20
251.332471769
 11
46.6451307335
 21
249.2875073139
  0
LINE
  5
260
100
AcDbEntity
  8
0
100
AcDbLine
 62
7
  6
CONTINUOUS
 10
43.2964484473
 20
207.8653553944
 11
43.3534483768
 21
210.4976919333
  0
LINE
  5
261
100
AcDbEntity
  8
0
100
AcDbLine
 62
7
  6
CONTINUOUS
 10
67.0656610091
 20
225.8646536475
 11
69.0959252713
 21
226.4853752809
  0
LINE
  5
262
100
AcDbEntity
  8
0
100
AcDbLine
 62
7
  6
CONTINUOUS
 10
68.4580798665
 20
225.9586253324
 11
66.4278156043
 21
225.337903699
  0
LINE
  5
263
100
AcDbEntity
  8
0
100
AcDbLine
 62
7
  6
CONTINUOUS
 10
66.2676662169
 20
224.7008174622
 11
66.1492821942
 21
224.6646233936
  0
LINE
  5
264
100
AcDbEntity
  8
0
100
AcDbLine
 62
7
  6
CONTINUOUS
 10
67.0936350179
 20
224.953344541
 11
69.1238992801
 21
225.5740661744
  0
LINE
  5
265
100
AcDbEntity
  8
0
100
AcDbLine
 62
7
  6
CONTINUOUS
 10
66.4501948114
 20
224.6088564137
 11
66.2721599535
 21
224.5544250326
  0
LINE
  5
266
100
AcDbEntity
  8
0
100
AcDbLine
 62
7
  6
CONTINUOUS
 10
67.116014225
 20
224.2242972558
 11
66.2900454239
 21
223.9717701769
  0
LINE
  5
267
100
AcDbEntity
  8
0
100
AcDbLine
 62
7
  6
CONTINUOUS
 10
59.0183433757
 20
223.7175538783
 11
60.7010672114
 21
224.2251685411
  0
LINE
  5
268
100
AcDbEntity
  8
0
100
AcDbLine
 62
7
  6
CONTINUOUS
 10
60.0602012914
 20
223.6975012671
 11
58.6441027748
 21
223.2703174621
  0
LINE
  5
269
100
AcDbEntity
  8
0
100
AcDbLine
 62
7
  6
CONTINUOUS
 10
58.6955185768
 20
222.7004157805
 11
60.726020705
 21
223.3129421091
  0
LINE
  5
26A
100
AcDbEntity
  8
0
100
AcDbLine
 62
7
  6
CONTINUOUS
 10
58.7154813717
 20
221.970634635
 11
57.9725995029
 21
221.7465350404
  0
LINE
  5
26B
100
AcDbEntity
  8
0
100
AcDbLine
 62
7
  6
CONTINUOUS
 10
50.4003113895
 20
221.3978700518
 11
52.3061020212
 21
221.9653482003
  0
LINE
  5
26C
100
AcDbEntity
  8
0
100
AcDbLine
 62
7
  6
CONTINUOUS
 10
51.6623441884
 20
221.4368141804
 11
50.0392035342
 21
220.9534993618
  0
LINE
  5
26D
100
AcDbEntity
  8
0
100
AcDbLine
 62
7
  6
CONTINUOUS
 10
50.2974591975
 20
220.4475818979
 11
52.328163602
 21
221.0522550224
  0
LINE
  5
26E
100
AcDbEntity
  8
0
100
AcDbLine
 62
7
  6
CONTINUOUS
 10
49.6492890486
 20
220.1016665135
 11
49.5813978924
 21
220.0814508891
  0
LINE
  5
26F
100
AcDbEntity
  8
0
100
AcDbLine
 62
7
  6
CONTINUOUS
 10
50.3151084622
 20
219.7171073555
 11
49.4889605988
 21
219.4711092631
  0
LINE
  5
270
100
AcDbEntity
  8
0
100
AcDbLine
 62
7
  6
CONTINUOUS
 10
95.1110333776
 20
152.7284950538
 11
96.4521065988
 21
151.9539276888
  0
LINE
  5
271
100
AcDbEntity
  8
0
100
AcDbLine
 62
9
  6
CONTINUOUS
 10
97.6901190525
 20
152.9541329289
 11
98.1425949841
 21
152.6927951551
  0
LINE
  5
272
100
AcDbEntity
  8
0
100
AcDbLine
 62
7
  6
CONTINUOUS
 10
49.4889605988
 20
219.4711092631
 11
49.4809119726
 21
219.8042288933
  0
LINE
  5
273
100
AcDbEntity
  8
0
100
AcDbLine
 62
7
  6
CONTINUOUS
 10
49.6455043583
 20
220.2583087262
 11
49.6492890486
 21
220.1016665135
  0
LINE
  5
274
100
AcDbEntity
  8
0
100
AcDbLine
 62
7
  6
CONTINUOUS
 10
50.2974591975
 20
220.4475818979
 11
50.3151084622
 21
219.7171073555
  0
LINE
  5
275
100
AcDbEntity
  8
0
100
AcDbLine
 62
7
  6
CONTINUOUS
 10
51.7835768727
 20
210.8054211541
 11
51.8036466509
 21
209.8553871228
  0
LINE
  5
276
100
AcDbEntity
  8
0
100
AcDbLine
 62
7
  6
CONTINUOUS
 10
47.2642250501
 20
238.2551267432
 11
47.2642250513
 21
240.1057598718
  0
LINE
  5
277
100
AcDbEntity
  8
0
100
AcDbLine
 62
7
  6
CONTINUOUS
 10
47.8148542792
 20
206.7618125347
 11
47.8148542803
 21
208.814011892
  0
LINE
  5
278
100
AcDbEntity
  8
0
100
AcDbLine
 62
7
  6
CONTINUOUS
 10
47.8566488953
 20
240.8815179916
 11
47.8566465455
 21
242.2919843476
  0
LINE
  5
279
100
AcDbEntity
  8
0
100
AcDbLine
 62
7
  6
CONTINUOUS
 10
48.2043179682
 20
208.7103618538
 11
48.2043179686
 21
209.3998628142
  0
LINE
  5
27A
100
AcDbEntity
  8
0
100
AcDbLine
 62
9
  6
CONTINUOUS
 10
48.3778755897
 20
209.1783270796
 11
48.3778755894
 21
208.4888261192
  0
LINE
  5
27B
100
AcDbEntity
  8
0
100
AcDbLine
 62
7
  6
CONTINUOUS
 10
49.4274887433
 20
209.9357948463
 11
49.4751895055
 21
212.1386828225
  0
LINE
  5
27C
100
AcDbEntity
  8
0
100
AcDbLine
 62
7
  6
CONTINUOUS
 10
52.2457599686
 20
202.5689513854
 11
52.3054871914
 21
205.3272381456
  0
LINE
  5
27D
100
AcDbEntity
  8
0
100
AcDbLine
 62
7
  6
CONTINUOUS
 10
74.853408555
 20
221.0359806135
 11
75.1232171511
 21
221.1521669094
  0
LINE
  5
27E
100
AcDbEntity
  8
0
100
AcDbLine
 62
7
  6
CONTINUOUS
 10
70.6696715082
 20
180.607647102
 11
76.1014831943
 21
182.0636958471
  0
LINE
  5
27F
100
AcDbEntity
  8
0
100
AcDbLine
 62
7
  6
CONTINUOUS
 10
123.7676125809
 20
194.8410548373
 11
129.5123688799
 21
196.3809913601
  0
LINE
  5
280
100
AcDbEntity
  8
0
100
AcDbLine
 62
7
  6
CONTINUOUS
 10
70.6696715082
 20
180.607647102
 11
68.0234713549
 21
181.3351938183
  0
LINE
  5
281
100
AcDbEntity
  8
0
100
AcDbLine
 62
9
  6
CONTINUOUS
 10
103.6962877531
 20
154.1815152835
 11
103.2438118215
 21
154.4428530572
  0
LINE
  5
282
100
AcDbEntity
  8
0
100
AcDbLine
 62
9
  6
CONTINUOUS
 10
82.4567186437
 20
166.6357121914
 11
82.3941013455
 21
166.6718782374
  0
LINE
  5
283
100
AcDbEntity
  8
0
100
AcDbLine
 62
7
  6
CONTINUOUS
 10
108.0035344871
 20
156.1844525036
 11
109.3446077083
 21
155.4098851386
  0
LINE
  5
284
100
AcDbEntity
  8
0
100
AcDbLine
 62
9
  6
CONTINUOUS
 10
110.582620162
 20
156.4100903787
 11
111.0350960936
 21
156.148752605
  0
LINE
  5
285
100
AcDbEntity
  8
0
100
AcDbLine
 62
7
  6
CONTINUOUS
 10
52.8974517293
 20
209.2236351021
 11
52.8579519651
 21
211.0934176082
  0
LINE
  5
286
100
AcDbEntity
  8
0
100
AcDbLine
 62
7
  6
CONTINUOUS
 10
54.6138745585
 20
203.9939764773
 11
54.6743418856
 21
201.1316619391
  0
LINE
  5
287
100
AcDbEntity
  8
0
100
AcDbLine
 62
7
  6
CONTINUOUS
 10
55.8374287414
 20
201.4434384245
 11
55.7769614143
 21
204.3057529627
  0
LINE
  5
288
100
AcDbEntity
  8
0
100
AcDbLine
 62
9
  6
CONTINUOUS
 10
53.3324631094
 20
205.6271913185
 11
53.3324631098
 21
206.3166922788
  0
LINE
  5
289
100
AcDbEntity
  8
0
100
AcDbLine
 62
9
  6
CONTINUOUS
 10
54.7219267977
 20
206.2130422401
 11
54.7219267973
 21
205.5235412797
  0
LINE
  5
28A
100
AcDbEntity
  8
0
100
AcDbLine
 62
7
  6
CONTINUOUS
 10
55.6608796189
 20
240.5059298002
 11
55.6608796201
 21
242.3565629289
  0
LINE
  5
28B
100
AcDbEntity
  8
0
100
AcDbLine
 62
9
  6
CONTINUOUS
 10
56.2095230792
 20
205.922305601
 11
56.2095230796
 21
206.6118065612
  0
LINE
  5
28C
100
AcDbEntity
  8
0
100
AcDbLine
 62
7
  6
CONTINUOUS
 10
56.2533034641
 20
243.1323210487
 11
56.2533011143
 21
244.5427874047
  0
LINE
  5
28D
100
AcDbEntity
  8
0
100
AcDbLine
 62
9
  6
CONTINUOUS
 10
56.4525450969
 20
230.6377105215
 11
56.4525450868
 21
214.8232783492
  0
LINE
  5
28E
100
AcDbEntity
  8
0
100
AcDbLine
 62
7
  6
CONTINUOUS
 10
56.6465017701
 20
206.2474913733
 11
56.6465017705
 21
206.9369923334
  0
LINE
  5
28F
100
AcDbEntity
  8
0
100
AcDbLine
 62
7
  6
CONTINUOUS
 10
57.035965458
 20
206.1438413351
 11
57.0359654556
 21
201.8686754372
  0
LINE
  5
290
100
AcDbEntity
  8
0
100
AcDbLine
 62
7
  6
CONTINUOUS
 10
56.2776613203
 20
211.3450928754
 11
56.3346612497
 21
213.9774294144
  0
LINE
  5
291
100
AcDbEntity
  8
0
100
AcDbLine
 62
7
  6
CONTINUOUS
 10
58.3675010974
 20
204.2099422746
 11
58.4272283202
 21
206.9682290348
  0
LINE
  5
292
100
AcDbEntity
  8
0
100
AcDbLine
 62
7
  6
CONTINUOUS
 10
123.1537743984
 20
200.8062802302
 11
123.1791373423
 21
200.8130790084
  0
LINE
  5
293
100
AcDbEntity
  8
0
100
AcDbLine
 62
7
  6
CONTINUOUS
 10
70.6696715135
 20
188.962459137
 11
76.1014831996
 21
190.4185078822
  0
LINE
  5
294
100
AcDbEntity
  8
0
100
AcDbLine
 62
7
  6
CONTINUOUS
 10
123.7676125862
 20
203.1958668723
 11
129.5123688852
 21
204.7358033951
  0
LINE
  5
295
100
AcDbEntity
  8
0
100
AcDbLine
 62
9
  6
CONTINUOUS
 10
123.1537743964
 20
197.6756970484
 11
123.1941927842
 21
197.6863295789
  0
LINE
  5
296
100
AcDbEntity
  8
0
100
AcDbLine
 62
7
  6
CONTINUOUS
 10
8.9180361045
 20
182.4059487202
 11
10.8886106871
 21
182.4389350368
  0
LINE
  5
297
100
AcDbEntity
  8
0
100
AcDbLine
 62
7
  6
CONTINUOUS
 10
10.9232053158
 20
182.6887559924
 11
9.9097669591
 21
182.671791601
  0
LINE
  5
298
100
AcDbEntity
  8
0
100
AcDbLine
 62
7
  6
CONTINUOUS
 10
71.0735915527
 20
180.2569164799
 11
70.1566940504
 21
180.7486852107
  0
LINE
  5
299
100
AcDbEntity
  8
0
100
AcDbLine
 62
7
  6
CONTINUOUS
 10
10.8886107078
 20
215.0753138192
 11
12.014653326
 21
214.4249422744
  0
LINE
  5
29A
100
AcDbEntity
  8
0
100
AcDbLine
 62
9
  6
CONTINUOUS
 10
116.5887888627
 20
157.6374727333
 11
116.136312931
 21
157.898810507
  0
LINE
  5
29B
100
AcDbEntity
  8
0
100
AcDbLine
 62
7
  6
CONTINUOUS
 10
75.1373674613
 20
181.8052554622
 11
75.8812703259
 21
181.3755974296
  0
LINE
  5
29C
100
AcDbEntity
  8
0
100
AcDbLine
 62
7
  6
CONTINUOUS
 10
58.6955185768
 20
222.7004157805
 11
58.7154813717
 21
221.970634635
  0
LINE
  5
29D
100
AcDbEntity
  8
0
100
AcDbLine
 62
7
  6
CONTINUOUS
 10
58.6430486169
 20
212.6441677459
 11
58.7007869876
 21
209.9110325605
  0
LINE
  5
29E
100
AcDbEntity
  8
0
100
AcDbLine
 62
7
  6
CONTINUOUS
 10
59.7751620801
 20
210.1990290147
 11
59.7174237094
 21
212.9321642001
  0
LINE
  5
29F
100
AcDbEntity
  8
0
100
AcDbLine
 62
7
  6
CONTINUOUS
 10
60.7356156872
 20
205.6349673665
 11
60.7960830143
 21
202.7726528283
  0
LINE
  5
2A0
100
AcDbEntity
  8
0
100
AcDbLine
 62
7
  6
CONTINUOUS
 10
61.8704581068
 20
203.0606492824
 11
61.8099907797
 21
205.9229638206
  0
LINE
  5
2A1
100
AcDbEntity
  8
0
100
AcDbLine
 62
7
  6
CONTINUOUS
 10
60.9155053132
 20
210.0946624777
 11
60.9155053144
 21
212.3319063264
  0
LINE
  5
2A2
100
AcDbEntity
  8
0
100
AcDbLine
 62
7
  6
CONTINUOUS
 10
61.3049690023
 20
212.2282562882
 11
61.3049690027
 21
212.9177572486
  0
LINE
  5
2A3
100
AcDbEntity
  8
0
100
AcDbLine
 62
9
  6
CONTINUOUS
 10
61.4785266239
 20
212.696221514
 11
61.4785266235
 21
212.0067205536
  0
LINE
  5
2A4
100
AcDbEntity
  8
0
100
AcDbLine
 62
7
  6
CONTINUOUS
 10
63.5193008533
 20
138.4626471537
 11
63.5193008714
 21
166.9620201754
  0
LINE
  5
2A5
100
AcDbEntity
  8
0
100
AcDbLine
 62
7
  6
CONTINUOUS
 10
62.0273966622
 20
247.7214455473
 11
62.0859699302
 21
258.6470911699
  0
LINE
  5
2A6
100
AcDbEntity
  8
0
100
AcDbLine
 62
7
  6
CONTINUOUS
 10
62.7061983886
 20
258.3719629689
 11
62.7057070512
 21
258.2803140183
  0
LINE
  5
2A7
100
AcDbEntity
  8
0
100
AcDbLine
 62
7
  6
CONTINUOUS
 10
63.8111518491
 20
258.6681562452
 11
63.8106605117
 21
258.5765072946
  0
LINE
  5
2A8
100
AcDbEntity
  8
0
100
AcDbLine
 62
7
  6
CONTINUOUS
 10
62.6489698012
 20
258.313895173
 11
62.6498984015
 21
258.4052825685
  0
LINE
  5
2A9
100
AcDbEntity
  8
0
100
AcDbLine
 62
7
  6
CONTINUOUS
 10
62.3201235922
 20
213.3979285652
 11
62.3676906151
 21
215.5946402723
  0
LINE
  5
2AA
100
AcDbEntity
  8
0
100
AcDbLine
 62
7
  6
CONTINUOUS
 10
102.8806438249
 20
197.9970496678
 11
94.6162200343
 21
195.781703052
  0
LINE
  5
2AB
100
AcDbEntity
  8
0
100
AcDbLine
 62
9
  6
CONTINUOUS
 10
122.3114911923
 20
203.2676000802
 11
120.7412506726
 21
202.8466821857
  0
LINE
  5
2AC
100
AcDbEntity
  8
0
100
AcDbLine
 62
9
  6
CONTINUOUS
 10
76.6092276438
 20
191.0166740089
 11
75.5710133885
 21
190.7383708108
  0
LINE
  5
2AD
100
AcDbEntity
  8
0
100
AcDbLine
 62
9
  6
CONTINUOUS
 10
94.5430272641
 20
195.8239772024
 11
77.4356700226
 21
191.238209709
  0
LINE
  5
2AE
100
AcDbEntity
  8
0
100
AcDbLine
 62
9
  6
CONTINUOUS
 10
102.8074427412
 20
198.03932862
 11
119.9148082937
 21
202.6250913111
  0
LINE
  5
2AF
100
AcDbEntity
  8
0
100
AcDbLine
 62
7
  6
CONTINUOUS
 10
121.9826647526
 20
203.3267370843
 11
120.4124242202
 21
202.9058191864
  0
LINE
  5
2B0
100
AcDbEntity
  8
0
100
AcDbLine
 62
7
  6
CONTINUOUS
 10
76.2804012273
 20
191.0758110193
 11
75.4019257884
 21
190.840327329
  0
LINE
  5
2B1
100
AcDbEntity
  8
0
100
AcDbLine
 62
7
  6
CONTINUOUS
 10
119.585982231
 20
202.6842284162
 11
102.4786252925
 21
198.098461004
  0
LINE
  5
2B2
100
AcDbEntity
  8
0
100
AcDbLine
 62
7
  6
CONTINUOUS
 10
94.2142012222
 20
195.8831143132
 11
77.1068442604
 21
191.2973468948
  0
LINE
  5
2B3
100
AcDbEntity
  8
0
100
AcDbLine
 62
7
  6
CONTINUOUS
 10
73.4891806397
 20
191.9936752709
 11
121.087514836
 21
204.752861116
  0
LINE
  5
2B4
100
AcDbEntity
  8
0
100
AcDbLine
 62
9
  6
CONTINUOUS
 10
77.5265549645
 20
182.9521038125
 11
77.8546909432
 21
182.7625834111
  0
LINE
  5
2B5
100
AcDbEntity
  8
0
100
AcDbLine
 62
9
  6
CONTINUOUS
 10
77.5118732072
 20
183.1003367511
 11
78.0259684231
 21
182.8034165437
  0
LINE
  5
2B6
100
AcDbEntity
  8
0
100
AcDbLine
 62
7
  6
CONTINUOUS
 10
96.409555187
 20
172.556197914
 11
98.2816631217
 21
171.4749193626
  0
LINE
  5
2B7
100
AcDbEntity
  8
0
100
AcDbLine
 62
9
  6
CONTINUOUS
 10
77.5118730884
 20
183.7475869357
 11
78.3684122498
 21
183.2528732264
  0
LINE
  5
2B8
100
AcDbEntity
  8
0
100
AcDbLine
 62
7
  6
CONTINUOUS
 10
96.8179212056
 20
175.8138083572
 11
98.2816631239
 21
174.9683908939
  0
LINE
  5
2B9
100
AcDbEntity
  8
0
100
AcDbLine
 62
7
  6
CONTINUOUS
 10
34.6251312219
 20
210.294429451
 11
70.6696715135
 21
188.962459137
  0
LINE
  5
2BA
100
AcDbEntity
  8
0
100
AcDbLine
 62
7
  6
CONTINUOUS
 10
54.6743418856
 20
201.1316619391
 11
52.2457599686
 21
202.5689513854
  0
LINE
  5
2BB
100
AcDbEntity
  8
0
100
AcDbLine
 62
7
  6
CONTINUOUS
 10
45.7195741146
 20
206.4312950795
 11
43.2964484473
 21
207.8653553944
  0
LINE
  5
2BC
100
AcDbEntity
  8
0
100
AcDbLine
 62
7
  6
CONTINUOUS
 10
66.2900454239
 20
223.9717701769
 11
66.2676662169
 21
224.7008174622
  0
LINE
  5
2BD
100
AcDbEntity
  8
0
100
AcDbLine
 62
7
  6
CONTINUOUS
 10
66.4278156043
 20
225.337903699
 11
66.4501948114
 21
224.6088564137
  0
LINE
  5
2BE
100
AcDbEntity
  8
0
100
AcDbLine
 62
7
  6
CONTINUOUS
 10
67.0524371316
 20
226.2954478178
 11
67.0656610091
 21
225.8646536475
  0
LINE
  5
2BF
100
AcDbEntity
  8
0
100
AcDbLine
 62
7
  6
CONTINUOUS
 10
67.0936350179
 20
224.953344541
 11
67.116014225
 21
224.2242972558
  0
LINE
  5
2C0
100
AcDbEntity
  8
0
100
AcDbLine
 62
7
  6
CONTINUOUS
 10
64.6760779822
 20
214.2613786039
 11
64.6922520654
 21
213.4957533315
  0
LINE
  5
2C1
100
AcDbEntity
  8
0
100
AcDbLine
 62
7
  6
CONTINUOUS
 10
67.5950874314
 20
207.4737139584
 11
67.6555547585
 21
204.6113994202
  0
LINE
  5
2C2
100
AcDbEntity
  8
0
100
AcDbLine
 62
7
  6
CONTINUOUS
 10
68.729929851
 20
204.8993958743
 11
68.6694625239
 21
207.7617104125
  0
LINE
  5
2C3
100
AcDbEntity
  8
0
100
AcDbLine
 62
7
  6
CONTINUOUS
 10
65.7664784127
 20
212.8753094526
 11
65.731549392
 21
214.5443077462
  0
LINE
  5
2C4
100
AcDbEntity
  8
0
100
AcDbLine
 62
7
  6
CONTINUOUS
 10
66.2899876463
 20
256.2813062536
 11
66.2899876482
 21
259.3330507308
  0
LINE
  5
2C5
100
AcDbEntity
  8
0
100
AcDbLine
 62
9
  6
CONTINUOUS
 10
66.4331141436
 20
209.1450857529
 11
66.433114144
 21
209.8345867132
  0
LINE
  5
2C6
100
AcDbEntity
  8
0
100
AcDbLine
 62
7
  6
CONTINUOUS
 10
66.9961354526
 20
208.7281785515
 11
66.9961354527
 21
208.8198999801
  0
LINE
  5
2C7
100
AcDbEntity
  8
0
100
AcDbLine
 62
9
  6
CONTINUOUS
 10
67.8225778319
 20
209.7309366744
 11
67.8225778315
 21
209.0414357141
  0
LINE
  5
2C8
100
AcDbEntity
  8
0
100
AcDbLine
 62
7
  6
CONTINUOUS
 10
67.8751535968
 20
148.1956631691
 11
67.8751536069
 21
164.15531206
  0
LINE
  5
2C9
100
AcDbEntity
  8
0
100
AcDbLine
 62
7
  6
CONTINUOUS
 10
68.0234713442
 20
164.4247172861
 11
68.0234713549
 21
181.3351938183
  0
LINE
  5
2CA
100
AcDbEntity
  8
0
100
AcDbLine
 62
7
  6
CONTINUOUS
 10
68.9376029155
 20
165.1333828815
 11
68.9376029256
 21
181.0838623301
  0
LINE
  5
2CB
100
AcDbEntity
  8
0
100
AcDbLine
 62
9
  6
CONTINUOUS
 10
69.3101741133
 20
209.4402000354
 11
69.3101741137
 21
210.1297009956
  0
LINE
  5
2CC
100
AcDbEntity
  8
0
100
AcDbLine
 62
7
  6
CONTINUOUS
 10
69.4990140363
 20
214.606428542
 11
69.499014038
 21
217.2763727391
  0
LINE
  5
2CD
100
AcDbEntity
  8
0
100
AcDbLine
 62
7
  6
CONTINUOUS
 10
69.564217524
 20
147.2201058507
 11
69.5642175342
 21
163.1797547416
  0
LINE
  5
2CE
100
AcDbEntity
  8
0
100
AcDbLine
 62
7
  6
CONTINUOUS
 10
69.7471528042
 20
209.7653858077
 11
69.7471528046
 21
210.4548867678
  0
LINE
  5
2CF
100
AcDbEntity
  8
0
100
AcDbLine
 62
7
  6
CONTINUOUS
 10
69.8712970885
 20
257.2409216254
 11
69.8712104363
 21
260.2007684703
  0
LINE
  5
2D0
100
AcDbEntity
  8
0
100
AcDbLine
 62
7
  6
CONTINUOUS
 10
66.0262755923
 20
245.6504419819
 11
66.0257289844
 21
245.5484834622
  0
LINE
  5
2D1
100
AcDbEntity
  8
0
100
AcDbLine
 62
7
  6
CONTINUOUS
 10
67.3921267814
 20
259.6280706085
 11
67.3916353202
 21
259.5364216255
  0
LINE
  5
2D2
100
AcDbEntity
  8
0
100
AcDbLine
 62
7
  6
CONTINUOUS
 10
65.2269728415
 20
206.0486888665
 11
65.2867000643
 21
208.8069756267
  0
LINE
  5
2D3
100
AcDbEntity
  8
0
100
AcDbLine
 62
7
  6
CONTINUOUS
 10
69.1701624298
 20
214.8010503253
 11
69.2271623592
 21
217.4333868642
  0
LINE
  5
2D4
100
AcDbEntity
  8
0
100
AcDbLine
 62
7
  6
CONTINUOUS
 10
12.0146533021
 20
182.7407814614
 11
10.8886106871
 21
182.4389350368
  0
LINE
  5
2D5
100
AcDbEntity
  8
0
100
AcDbLine
 62
7
  6
CONTINUOUS
 10
10.9232053158
 20
182.6887559924
 11
12.0146533023
 21
182.981328998
  0
LINE
  5
2D6
100
AcDbEntity
  8
0
100
AcDbLine
 62
7
  6
CONTINUOUS
 10
9.9097669591
 20
182.671791601
 11
8.9180361045
 21
182.4059487202
  0
LINE
  5
2D7
100
AcDbEntity
  8
0
100
AcDbLine
 62
7
  6
CONTINUOUS
 10
99.9312588245
 20
176.811094711
 11
101.5874326345
 21
175.8545338285
  0
LINE
  5
2D8
100
AcDbEntity
  8
0
100
AcDbLine
 62
7
  6
CONTINUOUS
 10
76.6092276438
 20
191.0166740089
 11
76.7957716297
 21
190.9089312837
  0
LINE
  5
2D9
100
AcDbEntity
  8
0
100
AcDbLine
 62
7
  6
CONTINUOUS
 10
43.3534483768
 20
210.4976919333
 11
45.6618357439
 21
209.1644302649
  0
LINE
  5
2DA
100
AcDbEntity
  8
0
100
AcDbLine
 62
7
  6
CONTINUOUS
 10
52.3054871914
 20
205.3272381456
 11
54.6138745585
 21
203.9939764773
  0
LINE
  5
2DB
100
AcDbEntity
  8
0
100
AcDbLine
 62
7
  6
CONTINUOUS
 10
53.3616276989
 20
205.610346646
 11
53.3324631094
 21
205.6271913185
  0
LINE
  5
2DC
100
AcDbEntity
  8
0
100
AcDbLine
 62
7
  6
CONTINUOUS
 10
48.3778755894
 20
208.4888261192
 11
47.8148542803
 21
208.814011892
  0
LINE
  5
2DD
100
AcDbEntity
  8
0
100
AcDbLine
 62
7
  6
CONTINUOUS
 10
44.5165352326
 20
210.8094684187
 11
46.8249225998
 21
209.4762067503
  0
LINE
  5
2DE
100
AcDbEntity
  8
0
100
AcDbLine
 62
7
  6
CONTINUOUS
 10
53.4685740473
 20
205.6390146311
 11
55.7769614143
 21
204.3057529627
  0
LINE
  5
2DF
100
AcDbEntity
  8
0
100
AcDbLine
 62
9
  6
CONTINUOUS
 10
106.3322835827
 20
175.3751565553
 11
106.8314507079
 21
175.0868512185
  0
LINE
  5
2E0
100
AcDbEntity
  8
0
100
AcDbLine
 62
7
  6
CONTINUOUS
 10
106.3313579249
 20
175.4436352229
 11
106.8305346628
 21
175.1553251353
  0
LINE
  5
2E1
100
AcDbEntity
  8
0
100
AcDbLine
 62
9
  6
CONTINUOUS
 10
106.3323472598
 20
175.5127876992
 11
106.8315125793
 21
175.2244834067
  0
LINE
  5
2E2
100
AcDbEntity
  8
0
100
AcDbLine
 62
7
  6
CONTINUOUS
 10
48.3778755897
 20
209.1783270796
 11
53.3324631098
 21
206.3166922788
  0
LINE
  5
2E3
100
AcDbEntity
  8
0
100
AcDbLine
 62
7
  6
CONTINUOUS
 10
57.035965458
 20
206.1438413351
 11
56.6465017702
 21
206.3687849531
  0
LINE
  5
2E4
100
AcDbEntity
  8
0
100
AcDbLine
 62
7
  6
CONTINUOUS
 10
51.5183566295
 20
210.0201628686
 11
56.4729441492
 21
207.158528068
  0
LINE
  5
2E5
100
AcDbEntity
  8
0
100
AcDbLine
 62
7
  6
CONTINUOUS
 10
77.4356700225
 20
191.238209709
 11
77.6518930274
 21
191.1132702615
  0
LINE
  5
2E6
100
AcDbEntity
  8
0
100
AcDbLine
 62
7
  6
CONTINUOUS
 10
56.383761768
 20
201.6938460403
 11
55.8251594579
 21
202.0242239555
  0
LINE
  5
2E7
100
AcDbEntity
  8
0
100
AcDbLine
 62
7
  6
CONTINUOUS
 10
52.2793747963
 20
204.121331187
 11
46.8704655923
 21
207.3203586772
  0
LINE
  5
2E8
100
AcDbEntity
  8
0
100
AcDbLine
 62
7
  6
CONTINUOUS
 10
60.7960830143
 20
202.7726528283
 11
58.3675010974
 21
204.2099422746
  0
LINE
  5
2E9
100
AcDbEntity
  8
0
100
AcDbLine
 62
7
  6
CONTINUOUS
 10
57.0359654571
 20
204.4253974227
 11
60.0079714028
 21
202.6653498766
  0
LINE
  5
2EA
100
AcDbEntity
  8
0
100
AcDbLine
 62
7
  6
CONTINUOUS
 10
73.4891806397
 20
191.993675271
 11
76.1014831996
 21
190.4185078822
  0
LINE
  5
2EB
100
AcDbEntity
  8
0
100
AcDbLine
 62
7
  6
CONTINUOUS
 10
72.6676631896
 20
213.6549864645
 11
72.6099248189
 21
216.3881216499
  0
LINE
  5
2EC
100
AcDbEntity
  8
0
100
AcDbLine
 62
7
  6
CONTINUOUS
 10
73.6281167968
 20
209.0909248163
 11
73.6885841239
 21
206.2286102781
  0
LINE
  5
2ED
100
AcDbEntity
  8
0
100
AcDbLine
 62
7
  6
CONTINUOUS
 10
74.7629592163
 20
206.5166067323
 11
74.7024918892
 21
209.3789212704
  0
LINE
  5
2EE
100
AcDbEntity
  8
0
100
AcDbLine
 62
7
  6
CONTINUOUS
 10
71.522670173
 20
216.0966727091
 11
71.580043392
 21
213.3634396413
  0
LINE
  5
2EF
100
AcDbEntity
  8
0
100
AcDbLine
 62
7
  6
CONTINUOUS
 10
70.1366164922
 20
209.6617357695
 11
70.1366164898
 21
205.3804294525
  0
LINE
  5
2F0
100
AcDbEntity
  8
0
100
AcDbLine
 62
7
  6
CONTINUOUS
 10
70.3906599182
 20
163.4012904769
 11
70.390659908
 21
147.4416415861
  0
LINE
  5
2F1
100
AcDbEntity
  8
0
100
AcDbLine
 62
7
  6
CONTINUOUS
 10
70.6696715082
 20
180.607647102
 11
70.6696715135
 21
188.962459137
  0
LINE
  5
2F2
100
AcDbEntity
  8
0
100
AcDbLine
 62
7
  6
CONTINUOUS
 10
71.0735915423
 20
163.987749808
 11
71.0735915526
 21
180.25691648
  0
LINE
  5
2F3
100
AcDbEntity
  8
0
100
AcDbLine
 62
7
  6
CONTINUOUS
 10
73.7880211187
 20
213.5624399707
 11
73.78802112
 21
215.7825065263
  0
LINE
  5
2F4
100
AcDbEntity
  8
0
100
AcDbLine
 62
7
  6
CONTINUOUS
 10
74.1774848079
 20
215.6788564881
 11
74.1774848082
 21
216.3683574485
  0
LINE
  5
2F5
100
AcDbEntity
  8
0
100
AcDbLine
 62
9
  6
CONTINUOUS
 10
74.3510424294
 20
216.1468217139
 11
74.3510424291
 21
215.4573207535
  0
LINE
  5
2F6
100
AcDbEntity
  8
0
100
AcDbLine
 62
7
  6
CONTINUOUS
 10
74.853408565
 20
236.8447552095
 11
74.853408555
 21
221.0359806135
  0
LINE
  5
2F7
100
AcDbEntity
  8
0
100
AcDbLine
 62
7
  6
CONTINUOUS
 10
75.1232171511
 20
221.1521669094
 11
75.1232171612
 21
236.9607476652
  0
LINE
  5
2F8
100
AcDbEntity
  8
0
100
AcDbLine
 62
7
  6
CONTINUOUS
 10
70.5260547687
 20
252.732689354
 11
70.4818357345
 21
244.4845325874
  0
LINE
  5
2F9
100
AcDbEntity
  8
0
100
AcDbLine
 62
7
  6
CONTINUOUS
 10
70.9706221768
 20
260.5873203085
 11
70.9701308394
 21
260.4956713579
  0
LINE
  5
2FA
100
AcDbEntity
  8
0
100
AcDbLine
 62
7
  6
CONTINUOUS
 10
71.34254711
 20
251.0982490261
 11
71.3474603361
 21
252.0147108891
  0
LINE
  5
2FB
100
AcDbEntity
  8
0
100
AcDbLine
 62
7
  6
CONTINUOUS
 10
72.5615493171
 20
248.9711966638
 11
72.5592351976
 21
248.5395449789
  0
LINE
  5
2FC
100
AcDbEntity
  8
0
100
AcDbLine
 62
7
  6
CONTINUOUS
 10
72.9773101244
 20
252.250653461
 11
72.9783890063
 21
252.4518968191
  0
LINE
  5
2FD
100
AcDbEntity
  8
0
100
AcDbLine
 62
7
  6
CONTINUOUS
 10
73.1271482945
 20
249.122810845
 11
73.1222350685
 21
248.2063489821
  0
LINE
  5
2FE
100
AcDbEntity
  8
0
100
AcDbLine
 62
7
  6
CONTINUOUS
 10
73.8267874725
 20
252.6793180909
 11
73.8218742465
 21
251.762856228
  0
LINE
  5
2FF
100
AcDbEntity
  8
0
100
AcDbLine
 62
7
  6
CONTINUOUS
 10
75.4747590041
 20
252.2059276959
 11
75.4796722301
 21
253.1223895589
  0
LINE
  5
300
100
AcDbEntity
  8
0
100
AcDbLine
 62
7
  6
CONTINUOUS
 10
71.2600022069
 20
207.6658997244
 11
71.3197294297
 21
210.4241864847
  0
LINE
  5
301
100
AcDbEntity
  8
0
100
AcDbLine
 62
7
  6
CONTINUOUS
 10
75.2126247018
 20
216.8538860159
 11
75.2601917246
 21
219.0505977221
  0
LINE
  5
302
100
AcDbEntity
  8
0
100
AcDbLine
 62
7
  6
CONTINUOUS
 10
54.6743418856
 20
201.1316619391
 11
55.8374287414
 21
201.4434384245
  0
LINE
  5
303
100
AcDbEntity
  8
0
100
AcDbLine
 62
7
  6
CONTINUOUS
 10
60.7960830143
 20
202.7726528283
 11
61.8704581068
 21
203.0606492825
  0
LINE
  5
304
100
AcDbEntity
  8
0
100
AcDbLine
 62
7
  6
CONTINUOUS
 10
67.6555547585
 20
204.6113994202
 11
68.729929851
 21
204.8993958743
  0
LINE
  5
305
100
AcDbEntity
  8
0
100
AcDbLine
 62
7
  6
CONTINUOUS
 10
73.6885841239
 20
206.2286102781
 11
74.7629592163
 21
206.5166067323
  0
LINE
  5
306
100
AcDbEntity
  8
0
100
AcDbLine
 62
7
  6
CONTINUOUS
 10
80.4637709862
 20
208.0447635064
 11
81.6224309605
 21
208.3553533242
  0
LINE
  5
307
100
AcDbEntity
  8
0
100
AcDbLine
 62
7
  6
CONTINUOUS
 10
86.5810852334
 20
209.6845677279
 11
87.6554603258
 21
209.9725641821
  0
LINE
  5
308
100
AcDbEntity
  8
0
100
AcDbLine
 62
7
  6
CONTINUOUS
 10
93.4405569777
 20
211.5233143198
 11
94.51493207
 21
211.811310774
  0
LINE
  5
309
100
AcDbEntity
  8
0
100
AcDbLine
 62
7
  6
CONTINUOUS
 10
99.4735862296
 20
213.1405251474
 11
100.5479614353
 21
213.4285216319
  0
LINE
  5
30A
100
AcDbEntity
  8
0
100
AcDbLine
 62
7
  6
CONTINUOUS
 10
98.6854747338
 20
213.0332222267
 11
95.061265099
 21
212.0617183904
  0
LINE
  5
30B
100
AcDbEntity
  8
0
100
AcDbLine
 62
7
  6
CONTINUOUS
 10
85.7929736235
 20
209.5772647766
 11
82.1687639887
 21
208.6057609404
  0
LINE
  5
30C
100
AcDbEntity
  8
0
100
AcDbLine
 62
7
  6
CONTINUOUS
 10
72.8541640095
 20
206.1088938921
 11
69.2762628784
 21
205.1498034903
  0
LINE
  5
30D
100
AcDbEntity
  8
0
100
AcDbLine
 62
7
  6
CONTINUOUS
 10
60.0079714029
 20
202.6653498766
 11
56.383761768
 21
201.6938460403
  0
LINE
  5
30E
100
AcDbEntity
  8
0
100
AcDbLine
 62
7
  6
CONTINUOUS
 10
60.7356156872
 20
205.6349673665
 11
58.4272283202
 21
206.9682290348
  0
LINE
  5
30F
100
AcDbEntity
  8
0
100
AcDbLine
 62
7
  6
CONTINUOUS
 10
51.7835768727
 20
210.8054211541
 11
49.4751895055
 21
212.1386828225
  0
LINE
  5
310
100
AcDbEntity
  8
0
100
AcDbLine
 62
7
  6
CONTINUOUS
 10
50.5495645979
 20
212.4266792766
 11
52.857951965
 21
211.0934176082
  0
LINE
  5
311
100
AcDbEntity
  8
0
100
AcDbLine
 62
7
  6
CONTINUOUS
 10
59.5016034126
 20
207.256225489
 11
61.8099907797
 21
205.9229638206
  0
LINE
  5
312
100
AcDbEntity
  8
0
100
AcDbLine
 62
7
  6
CONTINUOUS
 10
41.2241016817
 20
217.830518411
 11
41.8899210953
 21
217.445959253
  0
LINE
  5
313
100
AcDbEntity
  8
0
100
AcDbLine
 62
7
  6
CONTINUOUS
 10
40.5165932263
 20
218.2757573734
 11
41.0634787169
 21
217.9598912099
  0
LINE
  5
314
100
AcDbEntity
  8
0
100
AcDbLine
 62
7
  6
CONTINUOUS
 10
41.2241016822
 20
218.5659861018
 11
41.8899210957
 21
218.1814269438
  0
LINE
  5
315
100
AcDbEntity
  8
0
100
AcDbLine
 62
7
  6
CONTINUOUS
 10
41.2948899356
 20
219.4444353487
 11
41.8899210963
 21
219.1007615574
  0
LINE
  5
316
100
AcDbEntity
  8
0
100
AcDbLine
 62
7
  6
CONTINUOUS
 10
43.9213494309
 20
218.7259706153
 11
43.2555300174
 21
219.1105297733
  0
LINE
  5
317
100
AcDbEntity
  8
0
100
AcDbLine
 62
7
  6
CONTINUOUS
 10
67.5950874314
 20
207.4737139584
 11
65.2867000643
 21
208.8069756267
  0
LINE
  5
318
100
AcDbEntity
  8
0
100
AcDbLine
 62
7
  6
CONTINUOUS
 10
58.6430486169
 20
212.644167746
 11
56.3346612497
 21
213.9774294144
  0
LINE
  5
319
100
AcDbEntity
  8
0
100
AcDbLine
 62
7
  6
CONTINUOUS
 10
8.9180361418
 20
241.2193655136
 11
34.6251312319
 21
226.1030183413
  0
LINE
  5
31A
100
AcDbEntity
  8
0
100
AcDbLine
 62
7
  6
CONTINUOUS
 10
13.0063841907
 20
239.6643281837
 11
9.9097669894
 21
241.4852083925
  0
LINE
  5
31B
100
AcDbEntity
  8
0
100
AcDbLine
 62
7
  6
CONTINUOUS
 10
69.2762628784
 20
205.1498034903
 11
68.7176605674
 21
205.480181406
  0
LINE
  5
31C
100
AcDbEntity
  8
0
100
AcDbLine
 62
7
  6
CONTINUOUS
 10
65.2589575046
 20
207.5257853828
 11
59.7629667019
 21
210.7763161276
  0
LINE
  5
31D
100
AcDbEntity
  8
0
100
AcDbLine
 62
7
  6
CONTINUOUS
 10
67.6555547585
 20
204.6113994202
 11
65.2269728415
 21
206.0486888665
  0
LINE
  5
31E
100
AcDbEntity
  8
0
100
AcDbLine
 62
7
  6
CONTINUOUS
 10
58.7007869876
 20
209.9110325605
 11
56.2776613203
 21
211.3450928754
  0
LINE
  5
31F
100
AcDbEntity
  8
0
100
AcDbLine
 62
7
  6
CONTINUOUS
 10
65.8089368055
 20
247.2500593614
 11
66.0262755923
 21
245.6504419819
  0
LINE
  5
320
100
AcDbEntity
  8
0
100
AcDbLine
 62
7
  6
CONTINUOUS
 10
77.5685790918
 20
217.7173360537
 11
77.5851146075
 21
216.9346018106
  0
LINE
  5
321
100
AcDbEntity
  8
0
100
AcDbLine
 62
7
  6
CONTINUOUS
 10
78.6789196859
 20
216.3028497899
 11
78.6429541841
 21
218.0053325078
  0
LINE
  5
322
100
AcDbEntity
  8
0
100
AcDbLine
 62
7
  6
CONTINUOUS
 10
80.4057340236
 20
210.9077295269
 11
80.4637709862
 21
208.0447635064
  0
LINE
  5
323
100
AcDbEntity
  8
0
100
AcDbLine
 62
7
  6
CONTINUOUS
 10
75.8812703258
 20
181.3755974297
 11
75.8812703262
 21
182.004665695
  0
LINE
  5
324
100
AcDbEntity
  8
0
100
AcDbLine
 62
7
  6
CONTINUOUS
 10
76.1014831943
 20
182.0636958471
 11
76.1014831996
 21
190.4185078822
  0
LINE
  5
325
100
AcDbEntity
  8
0
100
AcDbLine
 62
7
  6
CONTINUOUS
 10
77.5118720638
 20
189.3284195951
 11
77.5118732167
 21
183.0486929793
  0
LINE
  5
326
100
AcDbEntity
  8
0
100
AcDbLine
 62
7
  6
CONTINUOUS
 10
78.3684122498
 20
183.2528732264
 11
78.3684122359
 21
189.5326919571
  0
LINE
  5
327
100
AcDbEntity
  8
0
100
AcDbLine
 62
7
  6
CONTINUOUS
 10
78.4510528513
 20
209.3084104593
 11
78.4510528531
 21
212.1059189513
  0
LINE
  5
328
100
AcDbEntity
  8
0
100
AcDbLine
 62
9
  6
CONTINUOUS
 10
79.3056299491
 20
212.5956859528
 11
79.3056299495
 21
213.2851869132
  0
LINE
  5
329
100
AcDbEntity
  8
0
100
AcDbLine
 62
7
  6
CONTINUOUS
 10
79.8686512582
 20
212.1956789686
 11
79.8686512582
 21
212.27050018
  0
LINE
  5
32A
100
AcDbEntity
  8
0
100
AcDbLine
 62
9
  6
CONTINUOUS
 10
80.6950936374
 20
213.1815368744
 11
80.695093637
 21
212.4920359141
  0
LINE
  5
32B
100
AcDbEntity
  8
0
100
AcDbLine
 62
7
  6
CONTINUOUS
 10
80.7046607928
 20
166.1660564333
 11
80.7046607881
 21
158.1940918567
  0
LINE
  5
32C
100
AcDbEntity
  8
0
100
AcDbLine
 62
7
  6
CONTINUOUS
 10
80.7676547102
 20
157.8625811021
 11
80.7676547156
 21
166.2786143031
  0
LINE
  5
32D
100
AcDbEntity
  8
0
100
AcDbLine
 62
7
  6
CONTINUOUS
 10
76.6733154596
 20
250.0733946556
 11
76.67100134
 21
249.6417429707
  0
LINE
  5
32E
100
AcDbEntity
  8
0
100
AcDbLine
 62
7
  6
CONTINUOUS
 10
77.1095220185
 20
253.3583321308
 11
77.1106009004
 21
253.5595754889
  0
LINE
  5
32F
100
AcDbEntity
  8
0
100
AcDbLine
 62
7
  6
CONTINUOUS
 10
77.238914437
 20
250.2250088368
 11
77.234001211
 21
249.3085469738
  0
LINE
  5
330
100
AcDbEntity
  8
0
100
AcDbLine
 62
7
  6
CONTINUOUS
 10
77.9589993666
 20
253.7869967608
 11
77.9540861406
 21
252.8705348978
  0
LINE
  5
331
100
AcDbEntity
  8
0
100
AcDbLine
 62
7
  6
CONTINUOUS
 10
78.7462595227
 20
246.699889927
 11
78.7904785569
 21
254.9480466936
  0
LINE
  5
332
100
AcDbEntity
  8
0
100
AcDbLine
 62
7
  6
CONTINUOUS
 10
78.1194739512
 20
209.5046463163
 11
78.179201174
 21
212.2629330766
  0
LINE
  5
333
100
AcDbEntity
  8
0
100
AcDbLine
 62
7
  6
CONTINUOUS
 10
54.6138745585
 20
203.9939764773
 11
55.7769614143
 21
204.3057529627
  0
LINE
  5
334
100
AcDbEntity
  8
0
100
AcDbLine
 62
7
  6
CONTINUOUS
 10
60.7356156872
 20
205.6349673665
 11
61.8099907797
 21
205.9229638206
  0
LINE
  5
335
100
AcDbEntity
  8
0
100
AcDbLine
 62
7
  6
CONTINUOUS
 10
67.5950874314
 20
207.4737139584
 11
68.6694625239
 21
207.7617104125
  0
LINE
  5
336
100
AcDbEntity
  8
0
100
AcDbLine
 62
7
  6
CONTINUOUS
 10
73.6281167968
 20
209.0909248163
 11
74.7024918892
 21
209.3789212704
  0
LINE
  5
337
100
AcDbEntity
  8
0
100
AcDbLine
 62
7
  6
CONTINUOUS
 10
80.4057340236
 20
210.9077295269
 11
81.5619636334
 21
211.2176678623
  0
LINE
  5
338
100
AcDbEntity
  8
0
100
AcDbLine
 62
7
  6
CONTINUOUS
 10
86.5206179063
 20
212.5468822661
 11
87.5949929987
 21
212.8348787202
  0
LINE
  5
339
100
AcDbEntity
  8
0
100
AcDbLine
 62
7
  6
CONTINUOUS
 10
93.3800896506
 20
214.385628858
 11
94.4544647429
 21
214.6736253121
  0
LINE
  5
33A
100
AcDbEntity
  8
0
100
AcDbLine
 62
7
  6
CONTINUOUS
 10
99.4131200246
 20
216.0028399863
 11
100.4874941082
 21
216.29083617
  0
LINE
  5
33B
100
AcDbEntity
  8
0
100
AcDbLine
 62
7
  6
CONTINUOUS
 10
57.035965458
 20
206.1438413351
 11
56.2095230792
 21
205.922305601
  0
LINE
  5
33C
100
AcDbEntity
  8
0
100
AcDbLine
 62
7
  6
CONTINUOUS
 10
54.7219267973
 20
205.5235412797
 11
54.0024307669
 21
205.3306735308
  0
LINE
  5
33D
100
AcDbEntity
  8
0
100
AcDbLine
 62
7
  6
CONTINUOUS
 10
95.9372912289
 20
216.5778518327
 11
95.1108488501
 21
216.3563160987
  0
LINE
  5
33E
100
AcDbEntity
  8
0
100
AcDbLine
 62
7
  6
CONTINUOUS
 10
93.6232525682
 20
215.9575517774
 11
92.7968101894
 21
215.7360160433
  0
LINE
  5
33F
100
AcDbEntity
  8
0
100
AcDbLine
 62
7
  6
CONTINUOUS
 10
83.0091322977
 20
213.1123359694
 11
82.1826899189
 21
212.8908002354
  0
LINE
  5
340
100
AcDbEntity
  8
0
100
AcDbLine
 62
7
  6
CONTINUOUS
 10
80.695093637
 20
212.4920359141
 11
79.8686512582
 21
212.27050018
  0
LINE
  5
341
100
AcDbEntity
  8
0
100
AcDbLine
 62
7
  6
CONTINUOUS
 10
70.1366164922
 20
209.6617357694
 11
69.3101741134
 21
209.4402000354
  0
LINE
  5
342
100
AcDbEntity
  8
0
100
AcDbLine
 62
7
  6
CONTINUOUS
 10
67.8225778314
 20
209.0414357141
 11
66.9961354527
 21
208.8198999801
  0
LINE
  5
343
100
AcDbEntity
  8
0
100
AcDbLine
 62
7
  6
CONTINUOUS
 10
52.3054871914
 20
205.3272381456
 11
53.4685740473
 21
205.6390146311
  0
LINE
  5
344
100
AcDbEntity
  8
0
100
AcDbLine
 62
7
  6
CONTINUOUS
 10
58.4272283202
 20
206.9682290348
 11
59.5016034126
 21
207.256225489
  0
LINE
  5
345
100
AcDbEntity
  8
0
100
AcDbLine
 62
7
  6
CONTINUOUS
 10
65.2867000643
 20
208.8069756267
 11
66.3610751568
 21
209.0949720809
  0
LINE
  5
346
100
AcDbEntity
  8
0
100
AcDbLine
 62
7
  6
CONTINUOUS
 10
71.3197294297
 20
210.4241864847
 11
72.3941045222
 21
210.7121829388
  0
LINE
  5
347
100
AcDbEntity
  8
0
100
AcDbLine
 62
7
  6
CONTINUOUS
 10
78.179201174
 20
212.2629330766
 11
79.2535762664
 21
212.5509295307
  0
LINE
  5
348
100
AcDbEntity
  8
0
100
AcDbLine
 62
7
  6
CONTINUOUS
 10
84.2122305392
 20
213.8801439345
 11
85.2866056316
 21
214.1681403886
  0
LINE
  5
349
100
AcDbEntity
  8
0
100
AcDbLine
 62
7
  6
CONTINUOUS
 10
91.0717022835
 20
215.7188905264
 11
92.1460773758
 21
216.0068869805
  0
LINE
  5
34A
100
AcDbEntity
  8
0
100
AcDbLine
 62
7
  6
CONTINUOUS
 10
97.1047841526
 20
217.3361154584
 11
98.1791067411
 21
217.6240978384
  0
LINE
  5
34B
100
AcDbEntity
  8
0
100
AcDbLine
 62
7
  6
CONTINUOUS
 10
54.7219267977
 20
206.2130422401
 11
56.2095230796
 21
206.6118065612
  0
LINE
  5
34C
100
AcDbEntity
  8
0
100
AcDbLine
 62
7
  6
CONTINUOUS
 10
67.8225778319
 20
209.7309366744
 11
69.3101741137
 21
210.1297009956
  0
LINE
  5
34D
100
AcDbEntity
  8
0
100
AcDbLine
 62
7
  6
CONTINUOUS
 10
80.6950936374
 20
213.1815368744
 11
82.1826899192
 21
213.5803011955
  0
LINE
  5
34E
100
AcDbEntity
  8
0
100
AcDbLine
 62
7
  6
CONTINUOUS
 10
93.6232525686
 20
216.6470527377
 11
95.1108488504
 21
217.0458170588
  0
LINE
  5
34F
100
AcDbEntity
  8
0
100
AcDbLine
 62
7
  6
CONTINUOUS
 10
123.1537743947
 20
195.0056078918
 11
123.7676125809
 21
194.8410548373
  0
LINE
  5
350
100
AcDbEntity
  8
0
100
AcDbLine
 62
7
  6
CONTINUOUS
 10
57.4090363422
 20
214.2654258686
 11
59.7174237094
 21
212.9321642001
  0
LINE
  5
351
100
AcDbEntity
  8
0
100
AcDbLine
 62
7
  6
CONTINUOUS
 10
66.3610751568
 20
209.0949720809
 11
68.6694625239
 21
207.7617104125
  0
LINE
  5
352
100
AcDbEntity
  8
0
100
AcDbLine
 62
7
  6
CONTINUOUS
 10
66.9961354527
 20
208.8198999801
 11
66.4331141436
 21
209.1450857529
  0
LINE
  5
353
100
AcDbEntity
  8
0
100
AcDbLine
 62
7
  6
CONTINUOUS
 10
61.4785266235
 20
212.0067205536
 11
60.9155053144
 21
212.3319063264
  0
LINE
  5
354
100
AcDbEntity
  8
0
100
AcDbLine
 62
7
  6
CONTINUOUS
 10
61.4785266239
 20
212.696221514
 11
66.433114144
 21
209.8345867132
  0
LINE
  5
355
100
AcDbEntity
  8
0
100
AcDbLine
 62
7
  6
CONTINUOUS
 10
49.6492890486
 20
220.1016665135
 11
50.3151084622
 21
219.7171073555
  0
LINE
  5
356
100
AcDbEntity
  8
0
100
AcDbLine
 62
7
  6
CONTINUOUS
 10
49.8760533457
 20
220.6909744398
 11
50.2974591975
 21
220.4475818979
  0
LINE
  5
357
100
AcDbEntity
  8
0
100
AcDbLine
 62
7
  6
CONTINUOUS
 10
70.1366164922
 20
209.6617357694
 11
69.7471528043
 21
209.8866793875
  0
LINE
  5
358
100
AcDbEntity
  8
0
100
AcDbLine
 62
7
  6
CONTINUOUS
 10
94.6162200343
 20
195.781703052
 11
94.5430272641
 21
195.8239772025
  0
LINE
  5
359
100
AcDbEntity
  8
0
100
AcDbLine
 62
7
  6
CONTINUOUS
 10
64.6190076636
 20
213.5380573029
 11
69.5735951833
 21
210.6764225024
  0
LINE
  5
35A
100
AcDbEntity
  8
0
100
AcDbLine
 62
7
  6
CONTINUOUS
 10
52.328163602
 20
221.0522550224
 11
51.6623441884
 21
221.4368141804
  0
LINE
  5
35B
100
AcDbEntity
  8
0
100
AcDbLine
 62
7
  6
CONTINUOUS
 10
73.6281167968
 20
209.0909248163
 11
71.3197294297
 21
210.4241864847
  0
LINE
  5
35C
100
AcDbEntity
  8
0
100
AcDbLine
 62
7
  6
CONTINUOUS
 10
64.6760779822
 20
214.2613786039
 11
62.3676906151
 21
215.5946402723
  0
LINE
  5
35D
100
AcDbEntity
  8
0
100
AcDbLine
 62
7
  6
CONTINUOUS
 10
72.3941045222
 20
210.7121829388
 11
74.7024918892
 21
209.3789212704
  0
LINE
  5
35E
100
AcDbEntity
  8
0
100
AcDbLine
 62
7
  6
CONTINUOUS
 10
63.7139173863
 20
215.7256226014
 11
63.4420657075
 21
215.8826367265
  0
LINE
  5
35F
100
AcDbEntity
  8
0
100
AcDbLine
 62
9
  6
CONTINUOUS
 10
13.00638418
 20
245.9481619991
 11
11.14841386
 21
247.0212750494
  0
LINE
  5
360
100
AcDbEntity
  8
0
100
AcDbLine
 62
7
  6
CONTINUOUS
 10
63.7139173858
 20
215.7256226017
 11
65.731549392
 21
214.5443077462
  0
LINE
  5
361
100
AcDbEntity
  8
0
100
AcDbLine
 62
7
  6
CONTINUOUS
 10
73.6885841239
 20
206.2286102781
 11
71.2600022069
 21
207.6658997244
  0
LINE
  5
362
100
AcDbEntity
  8
0
100
AcDbLine
 62
7
  6
CONTINUOUS
 10
29.3313881952
 20
232.7761251773
 11
24.0404888553
 21
235.9075744214
  0
LINE
  5
363
100
AcDbEntity
  8
0
100
AcDbLine
 62
7
  6
CONTINUOUS
 10
30.4709159138
 20
235.6041537577
 11
33.9101488877
 21
233.568738266
  0
LINE
  5
364
100
AcDbEntity
  8
0
100
AcDbLine
 62
7
  6
CONTINUOUS
 10
35.0493312367
 20
234.0209123949
 11
31.0633397578
 21
236.3799118775
  0
LINE
  5
365
100
AcDbEntity
  8
0
100
AcDbLine
 62
7
  6
CONTINUOUS
 10
70.1366164911
 20
207.7280095412
 11
72.8541640095
 21
206.1088938921
  0
LINE
  5
366
100
AcDbEntity
  8
0
100
AcDbLine
 62
7
  6
CONTINUOUS
 10
26.1423067205
 20
234.6477767518
 11
24.0401822768
 21
235.9081935189
  0
LINE
  5
367
100
AcDbEntity
  8
0
100
AcDbLine
 62
7
  6
CONTINUOUS
 10
26.1423805565
 20
234.6477961567
 11
24.0401822768
 21
235.9081935189
  0
LINE
  5
368
100
AcDbEntity
  8
0
100
AcDbLine
 62
7
  6
CONTINUOUS
 10
29.7332907138
 20
232.4948510024
 11
29.3134871631
 21
232.7465424204
  0
LINE
  5
369
100
AcDbEntity
  8
0
100
AcDbLine
 62
7
  6
CONTINUOUS
 10
29.7333721596
 20
232.4948724087
 11
29.3135511053
 21
232.7465592265
  0
LINE
  5
36A
100
AcDbEntity
  8
0
100
AcDbLine
 62
7
  6
CONTINUOUS
 10
83.2898127033
 20
166.8934326414
 11
83.2905897109
 21
166.8604365853
  0
LINE
  5
36B
100
AcDbEntity
  8
0
100
AcDbLine
 62
7
  6
CONTINUOUS
 10
81.6224309604
 20
208.3553533241
 11
81.5619636333
 21
211.2176678623
  0
LINE
  5
36C
100
AcDbEntity
  8
0
100
AcDbLine
 62
7
  6
CONTINUOUS
 10
84.4280508398
 20
219.5560826466
 11
84.4857892106
 21
216.8229474612
  0
LINE
  5
36D
100
AcDbEntity
  8
0
100
AcDbLine
 62
7
  6
CONTINUOUS
 10
85.560164299
 20
217.1109439143
 11
85.5024259284
 21
219.8440790997
  0
LINE
  5
36E
100
AcDbEntity
  8
0
100
AcDbLine
 62
7
  6
CONTINUOUS
 10
86.5206179063
 20
212.5468822661
 11
86.5810852334
 21
209.6845677279
  0
LINE
  5
36F
100
AcDbEntity
  8
0
100
AcDbLine
 62
7
  6
CONTINUOUS
 10
83.2963907999
 20
166.8900458023
 11
83.2966210068
 21
166.8573426755
  0
LINE
  5
370
100
AcDbEntity
  8
0
100
AcDbLine
 62
9
  6
CONTINUOUS
 10
82.1826899189
 20
212.8908002354
 11
82.1826899192
 21
213.5803011955
  0
LINE
  5
371
100
AcDbEntity
  8
0
100
AcDbLine
 62
7
  6
CONTINUOUS
 10
82.456718634
 20
151.2758263481
 11
82.4567186437
 21
166.6357121915
  0
LINE
  5
372
100
AcDbEntity
  8
0
100
AcDbLine
 62
7
  6
CONTINUOUS
 10
82.6196686098
 20
213.2159860076
 11
82.6196686102
 21
213.9054869677
  0
LINE
  5
373
100
AcDbEntity
  8
0
100
AcDbLine
 62
7
  6
CONTINUOUS
 10
83.0091322977
 20
213.1123359694
 11
83.0091322953
 21
208.8310296516
  0
LINE
  5
374
100
AcDbEntity
  8
0
100
AcDbLine
 62
7
  6
CONTINUOUS
 10
83.2831610277
 20
166.8572479268
 11
83.2831610176
 21
150.8975990359
  0
LINE
  5
375
100
AcDbEntity
  8
0
100
AcDbLine
 62
7
  6
CONTINUOUS
 10
86.7161800499
 20
216.9973080763
 11
86.7161800512
 21
219.2480223896
  0
LINE
  5
376
100
AcDbEntity
  8
0
100
AcDbLine
 62
7
  6
CONTINUOUS
 10
87.1056437391
 20
219.1443723514
 11
87.1056437394
 21
219.8338733118
  0
LINE
  5
377
100
AcDbEntity
  8
0
100
AcDbLine
 62
7
  6
CONTINUOUS
 10
82.0626635387
 20
218.2570077749
 11
82.1196634683
 21
220.8893443139
  0
LINE
  5
378
100
AcDbEntity
  8
0
100
AcDbLine
 62
7
  6
CONTINUOUS
 10
84.1525033164
 20
211.1218571742
 11
84.2122305392
 21
213.8801439345
  0
LINE
  5
379
100
AcDbEntity
  8
0
100
AcDbLine
 62
7
  6
CONTINUOUS
 10
45.7195741146
 20
206.4312950795
 11
46.8826609705
 21
206.7430715649
  0
LINE
  5
37A
100
AcDbEntity
  8
0
100
AcDbLine
 62
7
  6
CONTINUOUS
 10
58.7007869876
 20
209.9110325606
 11
59.7751620801
 21
210.1990290147
  0
LINE
  5
37B
100
AcDbEntity
  8
0
100
AcDbLine
 62
7
  6
CONTINUOUS
 10
71.5800433919
 20
213.3634396413
 11
72.6676631896
 21
213.6549864645
  0
LINE
  5
37C
100
AcDbEntity
  8
0
100
AcDbLine
 62
7
  6
CONTINUOUS
 10
84.485789208
 20
216.8229474606
 11
85.560164299
 21
217.1109439143
  0
LINE
  5
37D
100
AcDbEntity
  8
0
100
AcDbLine
 62
7
  6
CONTINUOUS
 10
47.8148542803
 20
208.814011892
 11
48.2043179683
 21
208.918411335
  0
LINE
  5
37E
100
AcDbEntity
  8
0
100
AcDbLine
 62
7
  6
CONTINUOUS
 10
60.9155053144
 20
212.3319063264
 11
61.3049690025
 21
212.4363057694
  0
LINE
  5
37F
100
AcDbEntity
  8
0
100
AcDbLine
 62
7
  6
CONTINUOUS
 10
73.78802112
 20
215.7825065264
 11
74.177484808
 21
215.8869059693
  0
LINE
  5
380
100
AcDbEntity
  8
0
100
AcDbLine
 62
7
  6
CONTINUOUS
 10
86.7161800512
 20
219.2480223896
 11
87.1056437392
 21
219.3524218326
  0
LINE
  5
381
100
AcDbEntity
  8
0
100
AcDbLine
 62
7
  6
CONTINUOUS
 10
46.8409518597
 20
208.7174369124
 11
48.2043179684
 21
209.082900155
  0
LINE
  5
382
100
AcDbEntity
  8
0
100
AcDbLine
 62
7
  6
CONTINUOUS
 10
59.7334529693
 20
212.1733943623
 11
61.3049690025
 21
212.5946541703
  0
LINE
  5
383
100
AcDbEntity
  8
0
100
AcDbLine
 62
7
  6
CONTINUOUS
 10
72.6259540788
 20
215.6293518121
 11
74.1774848081
 21
216.0452543695
  0
LINE
  5
384
100
AcDbEntity
  8
0
100
AcDbLine
 62
7
  6
CONTINUOUS
 10
85.5184551882
 20
219.0853092619
 11
87.1056437393
 21
219.5107702372
  0
LINE
  5
385
100
AcDbEntity
  8
0
100
AcDbLine
 62
7
  6
CONTINUOUS
 10
48.6412966594
 20
209.7250485864
 11
50.1288929414
 21
210.1238129075
  0
LINE
  5
386
100
AcDbEntity
  8
0
100
AcDbLine
 62
7
  6
CONTINUOUS
 10
61.7419476936
 20
213.2429430208
 11
63.2295439755
 21
213.6417073419
  0
LINE
  5
387
100
AcDbEntity
  8
0
100
AcDbLine
 62
7
  6
CONTINUOUS
 10
74.6144634991
 20
216.6935432207
 11
76.102059781
 21
217.0923075419
  0
LINE
  5
388
100
AcDbEntity
  8
0
100
AcDbLine
 62
7
  6
CONTINUOUS
 10
87.5426224303
 20
220.159059084
 11
89.0302187122
 21
220.5578234052
  0
LINE
  5
389
100
AcDbEntity
  8
0
100
AcDbLine
 62
7
  6
CONTINUOUS
 10
45.6618357439
 20
209.1644302649
 11
46.8249225998
 21
209.4762067503
  0
LINE
  5
38A
100
AcDbEntity
  8
0
100
AcDbLine
 62
7
  6
CONTINUOUS
 10
51.7835768727
 20
210.8054211541
 11
52.857951965
 21
211.0934176082
  0
LINE
  5
38B
100
AcDbEntity
  8
0
100
AcDbLine
 62
7
  6
CONTINUOUS
 10
58.6430486169
 20
212.6441677459
 11
59.7174237094
 21
212.9321642001
  0
LINE
  5
38C
100
AcDbEntity
  8
0
100
AcDbLine
 62
7
  6
CONTINUOUS
 10
64.6760779822
 20
214.2613786039
 11
65.731549392
 21
214.5443077462
  0
LINE
  5
38D
100
AcDbEntity
  8
0
100
AcDbLine
 62
7
  6
CONTINUOUS
 10
71.522670173
 20
216.0966727091
 11
72.6099248189
 21
216.3881216499
  0
LINE
  5
38E
100
AcDbEntity
  8
0
100
AcDbLine
 62
7
  6
CONTINUOUS
 10
77.5685790918
 20
217.7173360537
 11
78.6429541841
 21
218.0053325078
  0
LINE
  5
38F
100
AcDbEntity
  8
0
100
AcDbLine
 62
7
  6
CONTINUOUS
 10
84.4280508373
 20
219.5560826459
 11
85.5024259284
 21
219.8440790997
  0
LINE
  5
390
100
AcDbEntity
  8
0
100
AcDbLine
 62
7
  6
CONTINUOUS
 10
90.4610802013
 20
221.1732935035
 11
91.5354552937
 21
221.4612899576
  0
LINE
  5
391
100
AcDbEntity
  8
0
100
AcDbLine
 62
7
  6
CONTINUOUS
 10
43.3534483768
 20
210.4976919333
 11
44.5165352326
 21
210.8094684187
  0
LINE
  5
392
100
AcDbEntity
  8
0
100
AcDbLine
 62
7
  6
CONTINUOUS
 10
49.4751895055
 20
212.1386828225
 11
50.5495645979
 21
212.4266792766
  0
LINE
  5
393
100
AcDbEntity
  8
0
100
AcDbLine
 62
7
  6
CONTINUOUS
 10
56.3346612497
 20
213.9774294144
 11
57.4090363422
 21
214.2654258686
  0
LINE
  5
394
100
AcDbEntity
  8
0
100
AcDbLine
 62
7
  6
CONTINUOUS
 10
62.3676906151
 20
215.5946402723
 11
63.4420657075
 21
215.8826367265
  0
LINE
  5
395
100
AcDbEntity
  8
0
100
AcDbLine
 62
7
  6
CONTINUOUS
 10
69.2271623592
 20
217.4333868642
 11
70.3015374517
 21
217.7213833184
  0
LINE
  5
396
100
AcDbEntity
  8
0
100
AcDbLine
 62
7
  6
CONTINUOUS
 10
75.2601917246
 20
219.0505977221
 11
76.334566817
 21
219.3385941763
  0
LINE
  5
397
100
AcDbEntity
  8
0
100
AcDbLine
 62
7
  6
CONTINUOUS
 10
82.1196634683
 20
220.8893443139
 11
83.1940385612
 21
221.1773407682
  0
LINE
  5
398
100
AcDbEntity
  8
0
100
AcDbLine
 62
7
  6
CONTINUOUS
 10
88.1526928341
 20
222.506555172
 11
89.2270679265
 21
222.7945516261
  0
LINE
  5
399
100
AcDbEntity
  8
0
100
AcDbLine
 62
7
  6
CONTINUOUS
 10
34.6251312219
 20
210.294429451
 11
35.072873169
 21
210.3725706997
  0
LINE
  5
39A
100
AcDbEntity
  8
0
100
AcDbLine
 62
7
  6
CONTINUOUS
 10
31.0656592325
 20
237.7914406921
 11
28.8690757065
 21
239.0588147341
  0
LINE
  5
39B
100
AcDbEntity
  8
0
100
AcDbLine
 62
7
  6
CONTINUOUS
 10
58.1519737736
 20
222.2961012751
 11
58.7154813717
 21
221.970634635
  0
LINE
  5
39C
100
AcDbEntity
  8
0
100
AcDbLine
 62
7
  6
CONTINUOUS
 10
58.4142777865
 20
222.8628528007
 11
58.6955185768
 21
222.7004157805
  0
LINE
  5
39D
100
AcDbEntity
  8
0
100
AcDbLine
 62
9
  6
CONTINUOUS
 10
12.8012986164
 20
249.3030157465
 11
14.6592689364
 21
248.2299026962
  0
LINE
  5
39E
100
AcDbEntity
  8
0
100
AcDbLine
 62
7
  6
CONTINUOUS
 10
78.4510528536
 20
212.105918951
 11
78.179201174
 21
212.2629330766
  0
LINE
  5
39F
100
AcDbEntity
  8
0
100
AcDbLine
 62
7
  6
CONTINUOUS
 10
69.4990140379
 20
217.2763727392
 11
69.2271623592
 21
217.4333868642
  0
LINE
  5
3A0
100
AcDbEntity
  8
0
100
AcDbLine
 62
7
  6
CONTINUOUS
 10
102.8806438249
 20
197.9970496678
 11
102.8074427412
 21
198.03932862
  0
LINE
  5
3A1
100
AcDbEntity
  8
0
100
AcDbLine
 62
9
  6
CONTINUOUS
 10
12.8095511386
 20
250.0670022918
 11
13.7103852331
 21
249.5467050553
  0
LINE
  5
3A2
100
AcDbEntity
  8
0
100
AcDbLine
 62
7
  6
CONTINUOUS
 10
70.3015374517
 20
217.7213833184
 11
72.6099248189
 21
216.3881216499
  0
LINE
  5
3A3
100
AcDbEntity
  8
0
100
AcDbLine
 62
7
  6
CONTINUOUS
 10
79.2535762664
 20
212.5509295307
 11
81.5619636334
 21
211.2176678623
  0
LINE
  5
3A4
100
AcDbEntity
  8
0
100
AcDbLine
 62
7
  6
CONTINUOUS
 10
60.726020705
 20
223.3129421091
 11
60.0602012914
 21
223.6975012671
  0
LINE
  5
3A5
100
AcDbEntity
  8
0
100
AcDbLine
 62
7
  6
CONTINUOUS
 10
79.8686512582
 20
212.27050018
 11
79.3056299491
 21
212.5956859528
  0
LINE
  5
3A6
100
AcDbEntity
  8
0
100
AcDbLine
 62
7
  6
CONTINUOUS
 10
74.351042429
 20
215.4573207536
 11
73.78802112
 21
215.7825065264
  0
LINE
  5
3A7
100
AcDbEntity
  8
0
100
AcDbLine
 62
7
  6
CONTINUOUS
 10
74.3510424294
 20
216.1468217139
 11
79.3056299495
 21
213.2851869132
  0
LINE
  5
3A8
100
AcDbEntity
  8
0
100
AcDbLine
 62
9
  6
CONTINUOUS
 10
16.0244238938
 20
250.167005114
 11
15.1235897993
 21
250.6873023505
  0
LINE
  5
3A9
100
AcDbEntity
  8
0
100
AcDbLine
 62
7
  6
CONTINUOUS
 10
16.4421181986
 20
250.2789720427
 11
15.8738065392
 21
250.6072133778
  0
LINE
  5
3AA
100
AcDbEntity
  8
0
100
AcDbLine
 62
9
  6
CONTINUOUS
 10
18.7914808292
 20
249.3375813722
 11
16.9335105091
 21
250.4106944224
  0
LINE
  5
3AB
100
AcDbEntity
  8
0
100
AcDbLine
 62
7
  6
CONTINUOUS
 10
69.499014038
 20
217.2763727391
 11
71.522670173
 21
216.0966727091
  0
LINE
  5
3AC
100
AcDbEntity
  8
0
100
AcDbLine
 62
7
  6
CONTINUOUS
 10
82.1687639887
 20
208.6057609404
 11
81.6101616769
 21
208.9361388565
  0
LINE
  5
3AD
100
AcDbEntity
  8
0
100
AcDbLine
 62
7
  6
CONTINUOUS
 10
78.1514586143
 20
210.9817428332
 11
72.6554678113
 21
214.2322735781
  0
LINE
  5
3AE
100
AcDbEntity
  8
0
100
AcDbLine
 62
7
  6
CONTINUOUS
 10
69.1701624298
 20
214.8010503253
 11
69.4990140351
 21
214.6064285427
  0
LINE
  5
3AF
100
AcDbEntity
  8
0
100
AcDbLine
 62
7
  6
CONTINUOUS
 10
78.1194739512
 20
209.5046463163
 11
78.4510528518
 21
209.3084104591
  0
LINE
  5
3B0
100
AcDbEntity
  8
0
100
AcDbLine
 62
7
  6
CONTINUOUS
 10
31.063337408
 20
237.7903782335
 11
36.3542352034
 21
234.6586660613
  0
LINE
  5
3B1
100
AcDbEntity
  8
0
100
AcDbLine
 62
7
  6
CONTINUOUS
 10
37.7280427639
 20
235.0269282344
 11
32.4371449687
 21
238.1586404066
  0
LINE
  5
3B2
100
AcDbEntity
  8
0
100
AcDbLine
 62
7
  6
CONTINUOUS
 10
38.8675704825
 20
237.8549568148
 11
42.3068034565
 21
235.8195413231
  0
LINE
  5
3B3
100
AcDbEntity
  8
0
100
AcDbLine
 62
7
  6
CONTINUOUS
 10
86.5810852334
 20
209.6845677279
 11
84.1525033164
 21
211.1218571742
  0
LINE
  5
3B4
100
AcDbEntity
  8
0
100
AcDbLine
 62
7
  6
CONTINUOUS
 10
83.0091322966
 20
211.225879613
 11
85.7929736235
 21
209.5772647766
  0
LINE
  5
3B5
100
AcDbEntity
  8
0
100
AcDbLine
 62
7
  6
CONTINUOUS
 10
71.580043392
 20
213.3634396413
 11
69.4990140363
 21
214.606428542
  0
LINE
  5
3B6
100
AcDbEntity
  8
0
100
AcDbLine
 62
7
  6
CONTINUOUS
 10
38.129685263
 20
234.7452529222
 11
37.7100029878
 21
234.9968347477
  0
LINE
  5
3B7
100
AcDbEntity
  8
0
100
AcDbLine
 62
7
  6
CONTINUOUS
 10
38.1298758238
 20
234.745303013
 11
37.710177875
 21
234.9968807216
  0
LINE
  5
3B8
100
AcDbEntity
  8
0
100
AcDbLine
 62
7
  6
CONTINUOUS
 10
34.5382556813
 20
236.8976902243
 11
32.4348225178
 21
238.158457923
  0
LINE
  5
3B9
100
AcDbEntity
  8
0
100
AcDbLine
 62
7
  6
CONTINUOUS
 10
30.2949303572
 20
239.4410286242
 11
32.4348225178
 21
238.158457923
  0
LINE
  5
3BA
100
AcDbEntity
  8
0
100
AcDbLine
 62
7
  6
CONTINUOUS
 10
34.5384594279
 20
236.8977438015
 11
32.4348225178
 21
238.158457923
  0
LINE
  5
3BB
100
AcDbEntity
  8
0
100
AcDbLine
 62
7
  6
CONTINUOUS
 10
80.4057340236
 20
210.9077295269
 11
78.4510528536
 21
212.105918951
  0
LINE
  5
3BC
100
AcDbEntity
  8
0
100
AcDbLine
 62
7
  6
CONTINUOUS
 10
78.4510528518
 20
209.3084104591
 11
80.4637709862
 21
208.0447635064
  0
LINE
  5
3BD
100
AcDbEntity
  8
0
100
AcDbLine
 62
7
  6
CONTINUOUS
 10
87.6554603258
 20
209.9725641821
 11
87.5949929987
 21
212.8348787202
  0
LINE
  5
3BE
100
AcDbEntity
  8
0
100
AcDbLine
 62
7
  6
CONTINUOUS
 10
90.4610802013
 20
221.1732935035
 11
90.4769708483
 21
220.421085119
  0
LINE
  5
3BF
100
AcDbEntity
  8
0
100
AcDbLine
 62
7
  6
CONTINUOUS
 10
91.5707759267
 20
219.7893330984
 11
91.5354552937
 21
221.4612899576
  0
LINE
  5
3C0
100
AcDbEntity
  8
0
100
AcDbLine
 62
9
  6
CONTINUOUS
 10
87.2792013606
 20
219.6123375772
 11
87.2792013603
 21
218.9228366168
  0
LINE
  5
3C1
100
AcDbEntity
  8
0
100
AcDbLine
 62
7
  6
CONTINUOUS
 10
88.8824015753
 20
228.7815326373
 11
88.8824015854
 21
244.5726962963
  0
LINE
  5
3C2
100
AcDbEntity
  8
0
100
AcDbLine
 62
9
  6
CONTINUOUS
 10
92.2337888803
 20
216.0612018161
 11
92.2337888807
 21
216.7507027765
  0
LINE
  5
3C3
100
AcDbEntity
  8
0
100
AcDbLine
 62
7
  6
CONTINUOUS
 10
92.7968101893
 20
215.6310414318
 11
92.7968101894
 21
215.7360160433
  0
LINE
  5
3C4
100
AcDbEntity
  8
0
100
AcDbLine
 62
7
  6
CONTINUOUS
 10
88.1051258112
 20
220.3098434612
 11
88.1526928341
 21
222.506555172
  0
LINE
  5
3C5
100
AcDbEntity
  8
0
100
AcDbLine
 62
7
  6
CONTINUOUS
 10
91.0119750607
 20
212.9606037661
 11
91.0717022835
 21
215.7188905264
  0
LINE
  5
3C6
100
AcDbEntity
  8
0
100
AcDbLine
 62
7
  6
CONTINUOUS
 10
75.1232171536
 20
225.0932524889
 11
88.8824015753
 21
228.7815326373
  0
LINE
  5
3C7
100
AcDbEntity
  8
0
100
AcDbLine
 62
7
  6
CONTINUOUS
 10
39.4623138013
 20
240.0422437492
 11
37.2657302753
 21
241.3096177911
  0
LINE
  5
3C8
100
AcDbEntity
  8
0
100
AcDbLine
 62
7
  6
CONTINUOUS
 10
19.7917698158
 20
249.2307960752
 11
17.9337994958
 21
250.3039091255
  0
LINE
  5
3C9
100
AcDbEntity
  8
0
100
AcDbLine
 62
7
  6
CONTINUOUS
 10
83.0091322977
 20
213.1123359694
 11
82.6196686098
 21
213.3372795875
  0
LINE
  5
3CA
100
AcDbEntity
  8
0
100
AcDbLine
 62
7
  6
CONTINUOUS
 10
77.4915234692
 20
216.9886575029
 11
82.4461109888
 21
214.1270227024
  0
LINE
  5
3CB
100
AcDbEntity
  8
0
100
AcDbLine
 62
7
  6
CONTINUOUS
 10
86.5206179063
 20
212.5468822661
 11
84.2122305392
 21
213.8801439345
  0
LINE
  5
3CC
100
AcDbEntity
  8
0
100
AcDbLine
 62
7
  6
CONTINUOUS
 10
77.5685790917
 20
217.7173360537
 11
75.2601917246
 21
219.0505977221
  0
LINE
  5
3CD
100
AcDbEntity
  8
0
100
AcDbLine
 62
7
  6
CONTINUOUS
 10
66.1760370648
 20
224.7537399646
 11
66.2676662169
 21
224.7008174622
  0
LINE
  5
3CE
100
AcDbEntity
  8
0
100
AcDbLine
 62
7
  6
CONTINUOUS
 10
66.4501948114
 20
224.6088564137
 11
67.116014225
 21
224.2242972558
  0
LINE
  5
3CF
100
AcDbEntity
  8
0
100
AcDbLine
 62
7
  6
CONTINUOUS
 10
76.334566817
 20
219.3385941763
 11
78.6429541841
 21
218.0053325078
  0
LINE
  5
3D0
100
AcDbEntity
  8
0
100
AcDbLine
 62
7
  6
CONTINUOUS
 10
85.2866056316
 20
214.1681403886
 11
87.5949929987
 21
212.8348787202
  0
LINE
  5
3D1
100
AcDbEntity
  8
0
100
AcDbLine
 62
7
  6
CONTINUOUS
 10
66.4278156043
 20
225.337903699
 11
67.0936350179
 21
224.953344541
  0
LINE
  5
3D2
100
AcDbEntity
  8
0
100
AcDbLine
 62
9
  6
CONTINUOUS
 10
120.8608858479
 20
194.5465966535
 11
121.1662853818
 21
194.3702081343
  0
LINE
  5
3D3
100
AcDbEntity
  8
0
100
AcDbLine
 62
9
  6
CONTINUOUS
 10
120.8475493634
 20
194.6940548825
 11
121.3255282634
 21
194.4179942736
  0
LINE
  5
3D4
100
AcDbEntity
  8
0
100
AcDbLine
 62
7
  6
CONTINUOUS
 10
66.8252730166
 20
226.0034952043
 11
67.0656610091
 21
225.8646536475
  0
LINE
  5
3D5
100
AcDbEntity
  8
0
100
AcDbLine
 62
9
  6
CONTINUOUS
 10
120.8475494627
 20
195.3386671193
 11
121.6438941809
 21
194.8787201006
  0
LINE
  5
3D6
100
AcDbEntity
  8
0
100
AcDbLine
 62
7
  6
CONTINUOUS
 10
69.1238992801
 20
225.5740661744
 11
68.4580798665
 21
225.9586253324
  0
LINE
  5
3D7
100
AcDbEntity
  8
0
100
AcDbLine
 62
9
  6
CONTINUOUS
 10
33.2903421333
 20
247.5145392707
 11
36.1054486787
 21
245.8886104067
  0
LINE
  5
3D8
100
AcDbEntity
  8
0
100
AcDbLine
 62
7
  6
CONTINUOUS
 10
33.1302561153
 20
245.0587233061
 11
30.0336389177
 21
246.8796035156
  0
LINE
  5
3D9
100
AcDbEntity
  8
0
100
AcDbLine
 62
7
  6
CONTINUOUS
 10
43.4459858055
 20
236.271715452
 11
39.4599943265
 21
238.6307149345
  0
LINE
  5
3DA
100
AcDbEntity
  8
0
100
AcDbLine
 62
7
  6
CONTINUOUS
 10
39.4599919768
 20
240.0411812906
 11
44.7508897722
 21
236.9094691183
  0
LINE
  5
3DB
100
AcDbEntity
  8
0
100
AcDbLine
 62
7
  6
CONTINUOUS
 10
46.1246973327
 20
237.2777312915
 11
40.8337995375
 21
240.4094434637
  0
LINE
  5
3DC
100
AcDbEntity
  8
0
100
AcDbLine
 62
7
  6
CONTINUOUS
 10
93.4405569777
 20
211.5233143198
 11
91.0119750607
 21
212.9606037661
  0
LINE
  5
3DD
100
AcDbEntity
  8
0
100
AcDbLine
 62
7
  6
CONTINUOUS
 10
84.4857892106
 20
216.8229474612
 11
82.0626635387
 21
218.2570077749
  0
LINE
  5
3DE
100
AcDbEntity
  8
0
100
AcDbLine
 62
7
  6
CONTINUOUS
 10
47.2642250513
 20
240.1057598718
 11
50.7034580253
 21
238.0703443801
  0
LINE
  5
3DF
100
AcDbEntity
  8
0
100
AcDbLine
 62
7
  6
CONTINUOUS
 10
46.5263398318
 20
236.9960559792
 11
46.1066575565
 21
237.2476378048
  0
LINE
  5
3E0
100
AcDbEntity
  8
0
100
AcDbLine
 62
7
  6
CONTINUOUS
 10
46.5265303925
 20
236.99610607
 11
46.1068324438
 21
237.2476837787
  0
LINE
  5
3E1
100
AcDbEntity
  8
0
100
AcDbLine
 62
7
  6
CONTINUOUS
 10
42.9349102501
 20
239.1484932814
 11
40.8314770865
 21
240.40926098
  0
LINE
  5
3E2
100
AcDbEntity
  8
0
100
AcDbLine
 62
7
  6
CONTINUOUS
 10
38.691584926
 20
241.6918316812
 11
40.8314770865
 21
240.40926098
  0
LINE
  5
3E3
100
AcDbEntity
  8
0
100
AcDbLine
 62
7
  6
CONTINUOUS
 10
42.9351139967
 20
239.1485468585
 11
40.8314770865
 21
240.40926098
  0
LINE
  5
3E4
100
AcDbEntity
  8
0
100
AcDbLine
 62
7
  6
CONTINUOUS
 10
96.3393298809
 20
167.4962400256
 11
96.3403636399
 21
167.4858076253
  0
LINE
  5
3E5
100
AcDbEntity
  8
0
100
AcDbLine
 62
7
  6
CONTINUOUS
 10
96.3331198403
 20
167.4983928228
 11
96.333976684
 21
167.4880177245
  0
LINE
  5
3E6
100
AcDbEntity
  8
0
100
AcDbLine
 62
7
  6
CONTINUOUS
 10
93.3800896506
 20
214.385628858
 11
93.4405569777
 21
211.5233143198
  0
LINE
  5
3E7
100
AcDbEntity
  8
0
100
AcDbLine
 62
7
  6
CONTINUOUS
 10
94.51493207
 20
211.8113107739
 11
94.4544647429
 21
214.6736253121
  0
LINE
  5
3E8
100
AcDbEntity
  8
0
100
AcDbLine
 62
7
  6
CONTINUOUS
 10
93.5971619014
 20
168.0050634855
 11
93.5971618976
 21
161.6500493064
  0
LINE
  5
3E9
100
AcDbEntity
  8
0
100
AcDbLine
 62
9
  6
CONTINUOUS
 10
93.6232525686
 20
216.6470527377
 11
93.6232525682
 21
215.9575517774
  0
LINE
  5
3EA
100
AcDbEntity
  8
0
100
AcDbLine
 62
7
  6
CONTINUOUS
 10
93.6601558198
 20
161.3185385518
 11
93.660155824
 21
167.9864850827
  0
LINE
  5
3EB
100
AcDbEntity
  8
0
100
AcDbLine
 62
9
  6
CONTINUOUS
 10
95.1108488501
 20
216.3563160987
 11
95.1108488504
 21
217.0458170588
  0
LINE
  5
3EC
100
AcDbEntity
  8
0
100
AcDbLine
 62
7
  6
CONTINUOUS
 10
95.3492197435
 20
154.7317837978
 11
95.3492197517
 21
167.6250790481
  0
LINE
  5
3ED
100
AcDbEntity
  8
0
100
AcDbLine
 62
7
  6
CONTINUOUS
 10
95.547827541
 20
216.6815018709
 11
95.5478275413
 21
217.371002831
  0
LINE
  5
3EE
100
AcDbEntity
  8
0
100
AcDbLine
 62
7
  6
CONTINUOUS
 10
95.9372912289
 20
216.5778518327
 11
95.9372912265
 21
212.2965455194
  0
LINE
  5
3EF
100
AcDbEntity
  8
0
100
AcDbLine
 62
7
  6
CONTINUOUS
 10
96.1756621355
 20
167.502786365
 11
96.1756621271
 21
154.3535564857
  0
LINE
  5
3F0
100
AcDbEntity
  8
0
100
AcDbLine
 62
7
  6
CONTINUOUS
 10
96.4095551867
 20
172.0204221622
 11
96.4095551889
 21
175.5331474896
  0
LINE
  5
3F1
100
AcDbEntity
  8
0
100
AcDbLine
 62
7
  6
CONTINUOUS
 10
98.2816631217
 20
171.4749193626
 11
98.2816631239
 21
174.9683908939
  0
LINE
  5
3F2
100
AcDbEntity
  8
0
100
AcDbLine
 62
7
  6
CONTINUOUS
 10
97.0450582622
 20
214.5778290554
 11
97.1047841526
 21
217.3361154584
  0
LINE
  5
3F3
100
AcDbEntity
  8
0
100
AcDbLine
 62
7
  6
CONTINUOUS
 10
41.8899210953
 20
217.445959253
 11
41.0634787165
 21
217.224423519
  0
LINE
  5
3F4
100
AcDbEntity
  8
0
100
AcDbLine
 62
7
  6
CONTINUOUS
 10
41.2241016817
 20
217.830518411
 11
41.0634787168
 21
217.7874618987
  0
LINE
  5
3F5
100
AcDbEntity
  8
0
100
AcDbLine
 62
7
  6
CONTINUOUS
 10
41.0634787169
 20
217.9598912099
 11
40.3183666246
 21
217.7601568321
  0
LINE
  5
3F6
100
AcDbEntity
  8
0
100
AcDbLine
 62
7
  6
CONTINUOUS
 10
41.8899210957
 20
218.1814269438
 11
43.9213494309
 21
218.7259706153
  0
LINE
  5
3F7
100
AcDbEntity
  8
0
100
AcDbLine
 62
7
  6
CONTINUOUS
 10
43.2555300174
 20
219.1105297733
 11
41.2241016822
 21
218.5659861018
  0
LINE
  5
3F8
100
AcDbEntity
  8
0
100
AcDbLine
 62
7
  6
CONTINUOUS
 10
41.0634787175
 20
218.8792258235
 11
40.7996112927
 21
218.8084936525
  0
LINE
  5
3F9
100
AcDbEntity
  8
0
100
AcDbLine
 62
7
  6
CONTINUOUS
 10
41.8899210963
 20
219.1007615574
 11
43.9213494315
 21
219.6453052289
  0
LINE
  5
3FA
100
AcDbEntity
  8
0
100
AcDbLine
 62
7
  6
CONTINUOUS
 10
41.629781018
 20
219.7670639925
 11
41.8899210968
 21
219.836797013
  0
LINE
  5
3FB
100
AcDbEntity
  8
0
100
AcDbLine
 62
7
  6
CONTINUOUS
 10
47.8589683701
 20
242.2930468063
 11
45.662384844
 21
243.5604208482
  0
LINE
  5
3FC
100
AcDbEntity
  8
0
100
AcDbLine
 62
7
  6
CONTINUOUS
 10
91.0717022835
 20
215.7188905264
 11
93.3800896506
 21
214.385628858
  0
LINE
  5
3FD
100
AcDbEntity
  8
0
100
AcDbLine
 62
7
  6
CONTINUOUS
 10
84.4280508373
 20
219.5560826459
 11
82.1196634683
 21
220.8893443139
  0
LINE
  5
3FE
100
AcDbEntity
  8
0
100
AcDbLine
 62
7
  6
CONTINUOUS
 10
83.1940385612
 20
221.1773407682
 11
85.5024259284
 21
219.8440790997
  0
LINE
  5
3FF
100
AcDbEntity
  8
0
100
AcDbLine
 62
7
  6
CONTINUOUS
 10
92.1460773758
 20
216.0068869805
 11
94.4544647429
 21
214.6736253121
  0
LINE
  5
400
100
AcDbEntity
  8
0
100
AcDbLine
 62
7
  6
CONTINUOUS
 10
92.7968101894
 20
215.7360160433
 11
92.2337888803
 21
216.0612018161
  0
LINE
  5
401
100
AcDbEntity
  8
0
100
AcDbLine
 62
7
  6
CONTINUOUS
 10
87.2792013602
 20
218.9228366168
 11
86.7161800512
 21
219.2480223896
  0
LINE
  5
402
100
AcDbEntity
  8
0
100
AcDbLine
 62
7
  6
CONTINUOUS
 10
87.2792013606
 20
219.6123375772
 11
92.2337888807
 21
216.7507027765
  0
LINE
  5
403
100
AcDbEntity
  8
0
100
AcDbLine
 62
7
  6
CONTINUOUS
 10
42.6978156015
 20
246.2767550925
 11
42.7844745682
 21
246.2267032337
  0
LINE
  5
404
100
AcDbEntity
  8
0
100
AcDbLine
 62
7
  6
CONTINUOUS
 10
119.9148082937
 20
202.6250913111
 11
120.1315285992
 21
202.4999195656
  0
LINE
  5
405
100
AcDbEntity
  8
0
100
AcDbLine
 62
7
  6
CONTINUOUS
 10
95.9372912289
 20
216.5778518327
 11
95.547827541
 21
216.8027954508
  0
LINE
  5
406
100
AcDbEntity
  8
0
100
AcDbLine
 62
7
  6
CONTINUOUS
 10
120.7412506726
 20
202.8466821857
 11
120.927395854
 21
202.739169799
  0
LINE
  5
407
100
AcDbEntity
  8
0
100
AcDbLine
 62
7
  6
CONTINUOUS
 10
90.4196824003
 20
220.4541733662
 11
95.37426992
 21
217.5925385657
  0
LINE
  5
408
100
AcDbEntity
  8
0
100
AcDbLine
 62
7
  6
CONTINUOUS
 10
88.1526928341
 20
222.506555172
 11
90.4610802013
 21
221.1732935035
  0
LINE
  5
409
100
AcDbEntity
  8
0
100
AcDbLine
 62
7
  6
CONTINUOUS
 10
97.1047841526
 20
217.3361154584
 11
99.4131200246
 21
216.0028399863
  0
LINE
  5
40A
100
AcDbEntity
  8
0
100
AcDbLine
 62
7
  6
CONTINUOUS
 10
40.6153072219
 20
245.6452373113
 11
38.9566749
 21
246.6205502326
  0
LINE
  5
40B
100
AcDbEntity
  8
0
100
AcDbLine
 62
7
  6
CONTINUOUS
 10
45.5739614891
 20
246.9744517135
 11
43.9153291671
 21
247.9497646348
  0
LINE
  5
40C
100
AcDbEntity
  8
0
100
AcDbLine
 62
7
  6
CONTINUOUS
 10
95.061265099
 20
212.0617183904
 11
94.5026627864
 21
212.392096307
  0
LINE
  5
40D
100
AcDbEntity
  8
0
100
AcDbLine
 62
7
  6
CONTINUOUS
 10
91.0439597238
 20
214.4377002837
 11
85.5479689208
 21
217.6882310287
  0
LINE
  5
40E
100
AcDbEntity
  8
0
100
AcDbLine
 62
7
  6
CONTINUOUS
 10
51.8426403743
 20
238.522518509
 11
47.8566488953
 21
240.8815179916
  0
LINE
  5
40F
100
AcDbEntity
  8
0
100
AcDbLine
 62
7
  6
CONTINUOUS
 10
47.8566465455
 20
242.2919843476
 11
53.1475443409
 21
239.1602721754
  0
LINE
  5
410
100
AcDbEntity
  8
0
100
AcDbLine
 62
7
  6
CONTINUOUS
 10
54.5213519015
 20
239.5285343485
 11
49.2304541063
 21
242.6602465207
  0
LINE
  5
411
100
AcDbEntity
  8
0
100
AcDbLine
 62
7
  6
CONTINUOUS
 10
99.4735860028
 20
213.1405250866
 11
97.0450582622
 21
214.5778290554
  0
LINE
  5
412
100
AcDbEntity
  8
0
100
AcDbLine
 62
7
  6
CONTINUOUS
 10
95.9372912278
 20
214.6607166618
 11
98.6854747338
 21
213.0332222267
  0
LINE
  5
413
100
AcDbEntity
  8
0
100
AcDbLine
 62
7
  6
CONTINUOUS
 10
54.9229944006
 20
239.2468590363
 11
54.5033121253
 21
239.4984408618
  0
LINE
  5
414
100
AcDbEntity
  8
0
100
AcDbLine
 62
7
  6
CONTINUOUS
 10
54.9231849613
 20
239.2469091271
 11
54.5034870126
 21
239.4984868358
  0
LINE
  5
415
100
AcDbEntity
  8
0
100
AcDbLine
 62
7
  6
CONTINUOUS
 10
51.3315648188
 20
241.3992963384
 11
49.2281316553
 21
242.6600640371
  0
LINE
  5
416
100
AcDbEntity
  8
0
100
AcDbLine
 62
7
  6
CONTINUOUS
 10
47.0882394947
 20
243.9426347383
 11
49.2281316553
 21
242.6600640371
  0
LINE
  5
417
100
AcDbEntity
  8
0
100
AcDbLine
 62
7
  6
CONTINUOUS
 10
51.3317685655
 20
241.3993499156
 11
49.2281316553
 21
242.6600640371
  0
LINE
  5
418
100
AcDbEntity
  8
0
100
AcDbLine
 62
7
  6
CONTINUOUS
 10
127.0442659848
 20
195.7193929228
 11
127.5592380596
 21
195.3984308529
  0
LINE
  5
419
100
AcDbEntity
  8
0
100
AcDbLine
 62
7
  6
CONTINUOUS
 10
99.4131200246
 20
216.0028399863
 11
99.4735860028
 21
213.1405250866
  0
LINE
  5
41A
100
AcDbEntity
  8
0
100
AcDbLine
 62
7
  6
CONTINUOUS
 10
100.5479614353
 20
213.4285216319
 11
100.4874941082
 21
216.29083617
  0
LINE
  5
41B
100
AcDbEntity
  8
0
100
AcDbLine
 62
7
  6
CONTINUOUS
 10
100.5417670828
 20
176.640832626
 11
100.5417670827
 21
176.4584817698
  0
LINE
  5
41C
100
AcDbEntity
  8
0
100
AcDbLine
 62
7
  6
CONTINUOUS
 10
101.5874326345
 20
175.8545338285
 11
101.5874326322
 21
172.3610622972
  0
LINE
  5
41D
100
AcDbEntity
  8
0
100
AcDbLine
 62
7
  6
CONTINUOUS
 10
98.4685674434
 20
176.4457871443
 11
98.4532143062
 21
176.4407359719
  0
LINE
  5
41E
100
AcDbEntity
  8
0
100
AcDbLine
 62
7
  6
CONTINUOUS
 10
98.4685726414
 20
176.4454465816
 11
98.4532143062
 21
176.4407359719
  0
LINE
  5
41F
100
AcDbEntity
  8
0
100
AcDbLine
 62
7
  6
CONTINUOUS
 10
35.0728731791
 20
226.1813446741
 11
34.6251312319
 21
226.1030183413
  0
LINE
  5
420
100
AcDbEntity
  8
0
100
AcDbLine
 62
7
  6
CONTINUOUS
 10
56.2556229388
 20
244.5438498633
 11
54.0590394128
 21
245.8112239052
  0
LINE
  5
421
100
AcDbEntity
  8
0
100
AcDbLine
 62
7
  6
CONTINUOUS
 10
122.3114911923
 20
203.2676000802
 11
122.4375170839
 21
203.1948109579
  0
LINE
  5
422
100
AcDbEntity
  8
0
100
AcDbLine
 62
7
  6
CONTINUOUS
 10
89.2270679265
 20
222.7945516261
 11
91.5354552937
 21
221.4612899576
  0
LINE
  5
423
100
AcDbEntity
  8
0
100
AcDbLine
 62
7
  6
CONTINUOUS
 10
98.1791067411
 20
217.6240978384
 11
100.4874941082
 21
216.29083617
  0
LINE
  5
424
100
AcDbEntity
  8
0
100
AcDbLine
 62
9
  6
CONTINUOUS
 10
46.7665553711
 20
248.7464213763
 11
43.9514488256
 21
250.3723502403
  0
LINE
  5
425
100
AcDbEntity
  8
0
100
AcDbLine
 62
7
  6
CONTINUOUS
 10
44.9517378099
 20
250.2655649427
 11
47.3617465121
 21
248.8736095591
  0
LINE
  5
426
100
AcDbEntity
  8
0
100
AcDbLine
 62
7
  6
CONTINUOUS
 10
121.0875148367
 20
204.7528611156
 11
123.7676125862
 21
203.1958668723
  0
LINE
  5
427
100
AcDbEntity
  8
0
100
AcDbLine
 62
7
  6
CONTINUOUS
 10
46.6451307348
 20
251.332471769
 11
49.7417479357
 21
249.5115915605
  0
LINE
  5
428
100
AcDbEntity
  8
0
100
AcDbLine
 62
7
  6
CONTINUOUS
 10
55.6608796201
 20
242.3565629289
 11
59.094424088
 21
240.3245140231
  0
LINE
  5
429
100
AcDbEntity
  8
0
100
AcDbLine
 62
7
  6
CONTINUOUS
 10
60.1933712448
 20
240.8005002445
 11
56.2533034641
 21
243.1323210487
  0
LINE
  5
42A
100
AcDbEntity
  8
0
100
AcDbLine
 62
7
  6
CONTINUOUS
 10
56.2533011143
 20
244.5427874047
 11
61.5441989097
 21
241.4110752324
  0
LINE
  5
42B
100
AcDbEntity
  8
0
100
AcDbLine
 62
7
  6
CONTINUOUS
 10
129.5123688852
 20
204.7358033951
 11
88.8824015753
 21
228.7815326373
  0
LINE
  5
42C
100
AcDbEntity
  8
0
100
AcDbLine
 62
7
  6
CONTINUOUS
 10
70.5946096256
 20
239.6704798585
 11
75.1232171612
 21
236.9607476652
  0
LINE
  5
42D
100
AcDbEntity
  8
0
100
AcDbLine
 62
7
  6
CONTINUOUS
 10
106.489663011
 20
171.5686994594
 11
106.4896630071
 21
165.1060067563
  0
LINE
  5
42E
100
AcDbEntity
  8
0
100
AcDbLine
 62
7
  6
CONTINUOUS
 10
106.5526569293
 20
164.7744960018
 11
106.5526569337
 21
171.6245012314
  0
LINE
  5
42F
100
AcDbEntity
  8
0
100
AcDbLine
 62
7
  6
CONTINUOUS
 10
108.241720853
 20
158.1877412477
 11
108.2417208625
 21
173.1548965501
  0
LINE
  5
430
100
AcDbEntity
  8
0
100
AcDbLine
 62
7
  6
CONTINUOUS
 10
109.0681632467
 20
173.6192961521
 11
109.0681632367
 21
157.8095139355
  0
LINE
  5
431
100
AcDbEntity
  8
0
100
AcDbLine
 62
7
  6
CONTINUOUS
 10
96.4035439885
 20
167.573252072
 11
96.1953752346
 21
167.5027608537
  0
LINE
  5
432
100
AcDbEntity
  8
0
100
AcDbLine
 62
7
  6
CONTINUOUS
 10
96.4034112688
 20
167.5685631245
 11
96.1953752346
 21
167.5027608537
  0
LINE
  5
433
100
AcDbEntity
  8
0
100
AcDbLine
 62
7
  6
CONTINUOUS
 10
68.619465746
 20
237.4106846879
 11
61.2717923175
 21
235.4410709948
  0
LINE
  5
434
100
AcDbEntity
  8
0
100
AcDbLine
 62
7
  6
CONTINUOUS
 10
60.2228111772
 20
235.1598816308
 11
52.8751377488
 21
233.1902679377
  0
LINE
  5
435
100
AcDbEntity
  8
0
100
AcDbLine
 62
7
  6
CONTINUOUS
 10
51.8261566084
 20
232.9090785738
 11
44.47848318
 21
230.9394648807
  0
LINE
  5
436
100
AcDbEntity
  8
0
100
AcDbLine
 62
7
  6
CONTINUOUS
 10
43.4295020397
 20
230.6582755167
 11
36.0818286112
 21
228.6886618236
  0
LINE
  5
437
100
AcDbEntity
  8
0
100
AcDbLine
 62
7
  6
CONTINUOUS
 10
70.5946096256
 20
239.6704798585
 11
88.8824015854
 21
244.5726962963
  0
LINE
  5
438
100
AcDbEntity
  8
0
100
AcDbLine
 62
7
  6
CONTINUOUS
 10
65.8176334777
 20
245.492701484
 11
60.3120369679
 21
248.730115433
  0
LINE
  5
439
100
AcDbEntity
  8
0
100
AcDbLine
 62
7
  6
CONTINUOUS
 10
70.4818357345
 20
244.4845325874
 11
65.8089368055
 21
247.2500593614
  0
LINE
  5
43A
100
AcDbEntity
  8
0
100
AcDbLine
 62
7
  6
CONTINUOUS
 10
62.7057070512
 20
258.2803140183
 11
65.45905593
 21
255.7314533258
  0
LINE
  5
43B
100
AcDbEntity
  8
0
100
AcDbLine
 62
7
  6
CONTINUOUS
 10
66.5639431149
 20
256.0276959624
 11
63.8106605117
 21
258.5765072946
  0
LINE
  5
43C
100
AcDbEntity
  8
0
100
AcDbLine
 62
7
  6
CONTINUOUS
 10
28.5499923456
 20
233.2385988109
 11
30.4709159126
 21
233.7535206291
  0
LINE
  5
43D
100
AcDbEntity
  8
0
100
AcDbLine
 62
7
  6
CONTINUOUS
 10
36.9466922255
 20
235.4894140141
 11
38.8675704814
 21
236.0043236861
  0
LINE
  5
43E
100
AcDbEntity
  8
0
100
AcDbLine
 62
7
  6
CONTINUOUS
 10
45.3433467943
 20
237.7402170711
 11
47.2642250501
 21
238.2551267432
  0
LINE
  5
43F
100
AcDbEntity
  8
0
100
AcDbLine
 62
7
  6
CONTINUOUS
 10
53.7400013631
 20
239.9910201282
 11
55.6608796189
 21
240.5059298002
  0
LINE
  5
440
100
AcDbEntity
  8
0
100
AcDbLine
 62
7
  6
CONTINUOUS
 10
78.7462595227
 20
246.699889927
 11
70.4818357345
 21
244.4845325874
  0
LINE
  5
441
100
AcDbEntity
  8
0
100
AcDbLine
 62
7
  6
CONTINUOUS
 10
26.3978813078
 20
234.5123381224
 11
30.4709159138
 21
235.6041537577
  0
LINE
  5
442
100
AcDbEntity
  8
0
100
AcDbLine
 62
7
  6
CONTINUOUS
 10
34.7947059833
 20
236.7631867782
 11
38.8675704825
 21
237.8549568148
  0
LINE
  5
443
100
AcDbEntity
  8
0
100
AcDbLine
 62
7
  6
CONTINUOUS
 10
43.1913605521
 20
239.0139898352
 11
47.2642250513
 21
240.1057598718
  0
LINE
  5
444
100
AcDbEntity
  8
0
100
AcDbLine
 62
7
  6
CONTINUOUS
 10
51.5880151208
 20
241.2647928923
 11
55.6608796201
 21
242.3565629289
  0
LINE
  5
445
100
AcDbEntity
  8
0
100
AcDbLine
 62
7
  6
CONTINUOUS
 10
67.8553676815
 20
246.0389355035
 11
65.8176334777
 21
245.492701484
  0
LINE
  5
446
100
AcDbEntity
  8
0
100
AcDbLine
 62
7
  6
CONTINUOUS
 10
67.7369653954
 20
246.1090086416
 11
66.0262755923
 21
245.6504419819
  0
LINE
  5
447
100
AcDbEntity
  8
0
100
AcDbLine
 62
7
  6
CONTINUOUS
 10
77.234001211
 20
249.3085469738
 11
75.0673869297
 21
248.7277654247
  0
LINE
  5
448
100
AcDbEntity
  8
0
100
AcDbLine
 62
7
  6
CONTINUOUS
 10
73.1222350685
 20
248.2063489821
 11
70.9351750356
 21
247.6200867549
  0
LINE
  5
449
100
AcDbEntity
  8
0
100
AcDbLine
 62
7
  6
CONTINUOUS
 10
76.67100134
 20
249.6417429707
 11
75.1970536005
 21
249.2466372711
  0
LINE
  5
44A
100
AcDbEntity
  8
0
100
AcDbLine
 62
7
  6
CONTINUOUS
 10
72.5592351976
 20
248.5395449789
 11
71.0648417064
 21
248.1389586012
  0
LINE
  5
44B
100
AcDbEntity
  8
0
100
AcDbLine
 62
7
  6
CONTINUOUS
 10
72.5592351976
 20
248.5395449789
 11
73.1222350685
 21
248.2063489821
  0
LINE
  5
44C
100
AcDbEntity
  8
0
100
AcDbLine
 62
7
  6
CONTINUOUS
 10
65.45905593
 20
255.7314533258
 11
70.5260547687
 21
252.732689354
  0
LINE
  5
44D
100
AcDbEntity
  8
0
100
AcDbLine
 62
7
  6
CONTINUOUS
 10
66.2899876481
 20
259.2411144965
 11
69.0432304576
 21
256.6923328016
  0
LINE
  5
44E
100
AcDbEntity
  8
0
100
AcDbLine
 62
7
  6
CONTINUOUS
 10
70.144984218
 20
256.9875609373
 11
67.3916353391
 21
259.5364216306
  0
LINE
  5
44F
100
AcDbEntity
  8
0
100
AcDbLine
 62
7
  6
CONTINUOUS
 10
69.8712104363
 20
260.2007684703
 11
72.6243113544
 21
257.6521681392
  0
LINE
  5
450
100
AcDbEntity
  8
0
100
AcDbLine
 62
7
  6
CONTINUOUS
 10
73.7234797182
 20
257.9468106654
 11
70.9701308394
 21
260.4956713579
  0
LINE
  5
451
100
AcDbEntity
  8
0
100
AcDbLine
 62
7
  6
CONTINUOUS
 10
119.3821641214
 20
176.5339287827
 11
119.3821641167
 21
168.5619642061
  0
LINE
  5
452
100
AcDbEntity
  8
0
100
AcDbLine
 62
7
  6
CONTINUOUS
 10
120.8475503229
 20
200.9195407694
 11
120.847549355
 21
194.6397959498
  0
LINE
  5
453
100
AcDbEntity
  8
0
100
AcDbLine
 62
7
  6
CONTINUOUS
 10
121.0875148356
 20
203.0867836418
 11
121.0875148367
 21
204.7528611156
  0
LINE
  5
454
100
AcDbEntity
  8
0
100
AcDbLine
 62
7
  6
CONTINUOUS
 10
71.3183804975
 20
248.6379534469
 11
73.1271482945
 21
249.122810845
  0
LINE
  5
455
100
AcDbEntity
  8
0
100
AcDbLine
 62
7
  6
CONTINUOUS
 10
75.4505923916
 20
249.7456321167
 11
77.238914437
 21
250.2250088368
  0
LINE
  5
456
100
AcDbEntity
  8
0
100
AcDbLine
 62
7
  6
CONTINUOUS
 10
54.0590394128
 20
245.8112239052
 11
47.0882394947
 21
243.9426347383
  0
LINE
  5
457
100
AcDbEntity
  8
0
100
AcDbLine
 62
7
  6
CONTINUOUS
 10
45.662384844
 20
243.5604208482
 11
38.691584926
 21
241.6918316812
  0
LINE
  5
458
100
AcDbEntity
  8
0
100
AcDbLine
 62
7
  6
CONTINUOUS
 10
37.2657302753
 20
241.3096177911
 11
30.2949303572
 21
239.4410286242
  0
LINE
  5
459
100
AcDbEntity
  8
0
100
AcDbLine
 62
7
  6
CONTINUOUS
 10
28.8690757065
 20
239.0588147341
 11
21.8982757884
 21
237.1902255671
  0
LINE
  5
45A
100
AcDbEntity
  8
0
100
AcDbLine
 62
7
  6
CONTINUOUS
 10
61.0310641925
 20
248.3073113349
 11
62.0319759349
 21
248.5756152399
  0
LINE
  5
45B
100
AcDbEntity
  8
0
100
AcDbLine
 62
7
  6
CONTINUOUS
 10
77.9540861406
 20
252.8705348978
 11
75.4747590041
 21
252.2059276959
  0
LINE
  5
45C
100
AcDbEntity
  8
0
100
AcDbLine
 62
7
  6
CONTINUOUS
 10
73.8218742465
 20
251.762856228
 11
71.34254711
 21
251.0982490261
  0
LINE
  5
45D
100
AcDbEntity
  8
0
100
AcDbLine
 62
7
  6
CONTINUOUS
 10
60.3120369679
 20
248.730115433
 11
62.0352806768
 21
249.1920472865
  0
LINE
  5
45E
100
AcDbEntity
  8
0
100
AcDbLine
 62
7
  6
CONTINUOUS
 10
77.1095220185
 20
253.3583321308
 11
75.4785933483
 21
252.9211462008
  0
LINE
  5
45F
100
AcDbEntity
  8
0
100
AcDbLine
 62
7
  6
CONTINUOUS
 10
72.9773101244
 20
252.250653461
 11
71.3463814542
 21
251.813467531
  0
LINE
  5
460
100
AcDbEntity
  8
0
100
AcDbLine
 62
7
  6
CONTINUOUS
 10
71.3474603361
 20
252.0147108891
 11
73.8267874725
 21
252.6793180909
  0
LINE
  5
461
100
AcDbEntity
  8
0
100
AcDbLine
 62
7
  6
CONTINUOUS
 10
75.4796722301
 20
253.1223895589
 11
77.9589993666
 21
253.7869967608
  0
LINE
  5
462
100
AcDbEntity
  8
0
100
AcDbLine
 62
7
  6
CONTINUOUS
 10
78.7904785569
 20
254.9480466936
 11
70.5260547687
 21
252.732689354
  0
LINE
  5
463
100
AcDbEntity
  8
0
100
AcDbLine
 62
7
  6
CONTINUOUS
 10
40.6153072219
 20
245.6452373113
 11
45.5739614891
 21
246.9744517135
  0
LINE
  5
464
100
AcDbEntity
  8
0
100
AcDbLine
 62
7
  6
CONTINUOUS
 10
40.5297060429
 20
245.6955727201
 11
43.9153291661
 21
246.6031211745
  0
LINE
  5
465
100
AcDbEntity
  8
0
100
AcDbLine
 62
7
  6
CONTINUOUS
 10
72.9773101244
 20
252.250653461
 11
73.8218742465
 21
251.762856228
  0
LINE
  5
466
100
AcDbEntity
  8
0
100
AcDbLine
 62
7
  6
CONTINUOUS
 10
77.1095220185
 20
253.3583321308
 11
77.9540861406
 21
252.8705348978
  0
LINE
  5
467
100
AcDbEntity
  8
0
100
AcDbLine
 62
7
  6
CONTINUOUS
 10
88.8824015854
 20
244.5726962963
 11
78.766744422
 21
250.5209290711
  0
LINE
  5
468
100
AcDbEntity
  8
0
100
AcDbLine
 62
7
  6
CONTINUOUS
 10
76.67100134
 20
249.6417429707
 11
77.234001211
 21
249.3085469738
  0
LINE
  5
469
100
AcDbEntity
  8
0
100
AcDbLine
 62
7
  6
CONTINUOUS
 10
62.0859699302
 20
258.6470911699
 11
62.6489698012
 21
258.313895173
  0
LINE
  5
46A
100
AcDbEntity
  8
0
100
AcDbLine
 62
7
  6
CONTINUOUS
 10
62.6498984015
 20
258.4052825685
 11
62.7061983886
 21
258.3719629689
  0
LINE
  5
46B
100
AcDbEntity
  8
0
100
AcDbLine
 62
7
  6
CONTINUOUS
 10
123.1973790182
 20
197.0246050438
 11
123.1770901881
 21
201.2382367906
  0
LINE
  5
46C
100
AcDbEntity
  8
0
100
AcDbLine
 62
7
  6
CONTINUOUS
 10
121.6438941809
 20
194.8787201006
 11
121.6438947691
 21
201.1584276395
  0
LINE
  5
46D
100
AcDbEntity
  8
0
100
AcDbLine
 62
7
  6
CONTINUOUS
 10
122.361998225
 20
154.2359914119
 11
122.3619982398
 21
177.5345938097
  0
LINE
  5
46E
100
AcDbEntity
  8
0
100
AcDbLine
 62
7
  6
CONTINUOUS
 10
123.1537743989
 20
201.6143028594
 11
123.1537743941
 21
194.0474414125
  0
LINE
  5
46F
100
AcDbEntity
  8
0
100
AcDbLine
 62
7
  6
CONTINUOUS
 10
123.7676125809
 20
194.8410548373
 11
123.7676125862
 21
203.1958668723
  0
LINE
  5
470
100
AcDbEntity
  8
0
100
AcDbLine
 62
7
  6
CONTINUOUS
 10
66.5639446128
 20
256.0277065688
 11
65.45905593
 21
255.7314533258
  0
LINE
  5
471
100
AcDbEntity
  8
0
100
AcDbLine
 62
7
  6
CONTINUOUS
 10
20.4443656052
 20
241.6581497893
 11
13.0063841924
 21
239.6643281828
  0
LINE
  5
472
100
AcDbEntity
  8
0
100
AcDbLine
 62
7
  6
CONTINUOUS
 10
33.1302561153
 20
245.0587233061
 11
38.9566749
 21
246.6205502326
  0
LINE
  5
473
100
AcDbEntity
  8
0
100
AcDbLine
 62
7
  6
CONTINUOUS
 10
43.9153291671
 20
247.9497646348
 11
49.7417479357
 21
249.5115915605
  0
LINE
  5
474
100
AcDbEntity
  8
0
100
AcDbLine
 62
7
  6
CONTINUOUS
 10
46.7665553711
 20
248.7464213763
 11
36.1054486787
 21
245.8886104067
  0
LINE
  5
475
100
AcDbEntity
  8
0
100
AcDbLine
 62
7
  6
CONTINUOUS
 10
69.0432051359
 20
256.6923474258
 11
66.563927293
 21
256.0277051001
  0
LINE
  5
476
100
AcDbEntity
  8
0
100
AcDbLine
 62
7
  6
CONTINUOUS
 10
73.7234797182
 20
257.9468106654
 11
70.1449843013
 21
256.9875609596
  0
LINE
  5
477
100
AcDbEntity
  8
0
100
AcDbLine
 62
7
  6
CONTINUOUS
 10
70.1449843013
 20
256.9875609596
 11
69.043232855
 21
256.6923497764
  0
LINE
  5
478
100
AcDbEntity
  8
0
100
AcDbLine
 62
7
  6
CONTINUOUS
 10
43.9514488256
 20
250.3723502403
 11
33.2903421333
 21
247.5145392707
  0
LINE
  5
479
100
AcDbEntity
  8
0
100
AcDbLine
 62
7
  6
CONTINUOUS
 10
8.9180361418
 20
241.2193655136
 11
9.9097669894
 21
241.4852083925
  0
LINE
  5
47A
100
AcDbEntity
  8
0
100
AcDbLine
 62
7
  6
CONTINUOUS
 10
20.4443655911
 20
244.3091076661
 11
30.0336389177
 21
246.8796035156
  0
LINE
  5
47B
100
AcDbEntity
  8
0
100
AcDbLine
 62
7
  6
CONTINUOUS
 10
46.6451307348
 20
251.332471769
 11
62.068921019
 21
255.4669653389
  0
LINE
  5
47C
100
AcDbEntity
  8
0
100
AcDbLine
 62
7
  6
CONTINUOUS
 10
78.7904785569
 20
254.9480466936
 11
73.7234797182
 21
257.9468106654
  0
LINE
  5
47D
100
AcDbEntity
  8
0
100
AcDbLine
 62
7
  6
CONTINUOUS
 10
70.807404077
 20
260.5919794919
 11
70.3503937184
 21
260.8624485095
  0
LINE
  5
47E
100
AcDbEntity
  8
0
100
AcDbLine
 62
7
  6
CONTINUOUS
 10
70.9143221897
 20
260.6206399082
 11
70.9706221768
 21
260.5873203085
  0
LINE
  5
47F
100
AcDbEntity
  8
0
100
AcDbLine
 62
7
  6
CONTINUOUS
 10
127.5592380596
 20
195.3984308529
 11
127.5592380492
 21
179.1201954204
  0
LINE
  5
480
100
AcDbEntity
  8
0
100
AcDbLine
 62
7
  6
CONTINUOUS
 10
129.5123688799
 20
196.3809913601
 11
129.5123688852
 21
204.7358033951
  0
LINE
  5
481
100
AcDbEntity
  8
0
100
AcDbLine
 62
7
  6
CONTINUOUS
 10
70.9701308394
 20
260.4956713579
 11
69.8709618684
 21
260.2009155784
  0
LINE
  5
482
100
AcDbEntity
  8
0
100
AcDbLine
 62
7
  6
CONTINUOUS
 10
63.8109061806
 20
258.6683016375
 11
62.7061983886
 21
258.3719629689
  0
LINE
  5
483
100
AcDbEntity
  8
0
100
AcDbLine
 62
7
  6
CONTINUOUS
 10
67.3916353202
 20
259.5364216255
 11
66.2899876481
 21
259.2411144965
  0
LINE
  5
484
100
AcDbEntity
  8
0
100
AcDbLine
 62
7
  6
CONTINUOUS
 10
63.8106605117
 20
258.5765072946
 11
62.7057070512
 21
258.2803140183
  0
LINE
  5
485
100
AcDbEntity
  8
0
100
AcDbLine
 62
7
  6
CONTINUOUS
 10
70.9706221768
 20
260.5873203085
 11
69.8714538192
 21
260.292677784
  0
LINE
  5
486
100
AcDbEntity
  8
0
100
AcDbLine
 62
7
  6
CONTINUOUS
 10
67.3918811185
 20
259.6282160023
 11
63.8109061806
 21
258.6683016375
  0
LINE
  5
487
100
AcDbEntity
  8
0
100
AcDbLine
 62
7
  6
CONTINUOUS
 10
69.8714538192
 20
260.292677784
 11
67.3918811185
 21
259.6282160023
  0
LINE
  5
488
100
AcDbEntity
  8
0
100
AcDbLine
 62
7
  6
CONTINUOUS
 10
70.9143221897
 20
260.6206399082
 11
62.6498984015
 21
258.4052825685
  0
LINE
  5
489
100
AcDbEntity
  8
0
100
AcDbLine
 62
7
  6
CONTINUOUS
 10
70.3503937184
 20
260.8624485095
 11
62.0859699302
 21
258.6470911699
  0
LINE
  5
48A
100
AcDbEntity
  8
0
100
AcDbLine
 62
7
  6
CONTINUOUS
 10
18.7914808292
 20
249.3375813722
 11
14.6592689364
 21
248.2299026962
  0
LINE
  5
48B
100
AcDbEntity
  8
0
100
AcDbLine
 62
7
  6
CONTINUOUS
 10
16.9335105091
 20
250.4106944224
 11
16.0244238938
 21
250.167005114
  0
LINE
  5
48C
100
AcDbEntity
  8
0
100
AcDbLine
 62
7
  6
CONTINUOUS
 10
13.7103852331
 20
249.5467050553
 11
12.8012986164
 21
249.3030157465
  0
LINE
  5
48D
100
AcDbEntity
  8
0
100
AcDbLine
 62
7
  6
CONTINUOUS
 10
15.1235897993
 20
250.6873023505
 11
12.8095511386
 21
250.0670022918
  0
LINE
  5
48E
100
AcDbEntity
  8
0
100
AcDbLine
 62
7
  6
CONTINUOUS
 10
67.3916353202
 20
259.5364216255
 11
69.871453709
 21
260.2006278748
  0
ARC
  5
48F
100
AcDbEntity
  8
0
100
AcDbCircle
 62
9
  6
CONTINUOUS
 10
-82.6801456821
 20
880.7573764826
 40
709.6505611552
100
AcDbArc
 50
286.7335926553
 51
286.8609304753
  0
ARC
  5
490
100
AcDbEntity
  8
0
100
AcDbCircle
 62
9
  6
CONTINUOUS
 10
-82.8686664176
 20
880.3852269397
 40
707.6280721408
100
AcDbArc
 50
286.738220937
 51
286.865912617
  0
ARC
  5
491
100
AcDbEntity
  8
0
100
AcDbCircle
 62
7
  6
CONTINUOUS
 10
115.996719646
 20
109.5552568086
 40
61.2105440616
100
AcDbArc
 50
101.5368035154
 51
101.8183733598
  0
ARC
  5
492
100
AcDbEntity
  8
0
100
AcDbCircle
 62
7
  6
CONTINUOUS
 10
118.2502386758
 20
164.5478341167
 40
47.8658074972
100
AcDbArc
 50
181.2356862344
 51
181.3687358387
  0
ARC
  5
493
100
AcDbEntity
  8
0
100
AcDbCircle
 62
7
  6
CONTINUOUS
 10
101.3848810588
 20
165.6106163922
 40
11.1799045404
100
AcDbArc
 50
115.7486188286
 51
116.6188776757
  0
ARC
  5
494
100
AcDbEntity
  8
0
100
AcDbCircle
 62
7
  6
CONTINUOUS
 10
100.9078708
 20
174.6473916125
 40
5.8567411329
100
AcDbArc
 50
296.0188142747
 51
299.0838787099
  0
ARC
  5
495
100
AcDbEntity
  8
0
100
AcDbCircle
 62
7
  6
CONTINUOUS
 10
71.5833683898
 20
164.1432592433
 40
3.7085506052
100
AcDbArc
 50
174.7385697424
 51
175.4968911511
  0
ARC
  5
496
100
AcDbEntity
  8
0
100
AcDbCircle
 62
7
  6
CONTINUOUS
 10
85.9008533671
 20
166.6356444715
 40
3.4441347241
100
AcDbArc
 50
179.1445072467
 51
179.9988734267
  0
ARC
  5
497
100
AcDbEntity
  8
0
100
AcDbCircle
 62
7
  6
CONTINUOUS
 10
77.3196861334
 20
166.1662554077
 40
3.3849746652
100
AcDbArc
 50
359.9966320585
 51
1.6491444852
  0
ARC
  5
498
100
AcDbEntity
  8
0
100
AcDbCircle
 62
7
  6
CONTINUOUS
 10
116.0023284464
 20
176.5341958429
 40
3.3798356855
100
AcDbArc
 50
359.9954727316
 51
1.9037919338
  0
ARC
  5
499
100
AcDbEntity
  8
0
100
AcDbCircle
 62
9
  6
CONTINUOUS
 10
95.2197877889
 20
172.6975561288
 40
3.3050095867
100
AcDbArc
 50
251.7121351278
 51
252.0563539673
  0
ARC
  5
49A
100
AcDbEntity
  8
0
100
AcDbCircle
 62
9
  6
CONTINUOUS
 10
104.6436932115
 20
172.899728553
 40
2.7480865522
100
AcDbArc
 50
104.4848655845
 51
104.8169555318
  0
ARC
  5
49B
100
AcDbEntity
  8
0
100
AcDbCircle
 62
9
  6
CONTINUOUS
 10
104.631336464
 20
172.9465185929
 40
2.6996923723
100
AcDbArc
 50
104.8173767255
 51
105.0044682509
  0
ARC
  5
49C
100
AcDbEntity
  8
0
100
AcDbCircle
 62
7
  6
CONTINUOUS
 10
58.1684439983
 20
223.7397755653
 40
2.5872032889
100
AcDbArc
 50
11.0024522921
 51
13.4292912526
  0
ARC
  5
49D
100
AcDbEntity
  8
0
100
AcDbCircle
 62
7
  6
CONTINUOUS
 10
66.5708444734
 20
225.9918350815
 40
2.5813223483
100
AcDbArc
 50
11.2094283136
 51
13.4738278901
  0
ARC
  5
49E
100
AcDbEntity
  8
0
100
AcDbCircle
 62
7
  6
CONTINUOUS
 10
104.2643480196
 20
175.0867913098
 40
2.5671016741
100
AcDbArc
 50
0.0013563305
 51
1.5298434744
  0
ARC
  5
49F
100
AcDbEntity
  8
0
100
AcDbCircle
 62
7
  6
CONTINUOUS
 10
95.6251539691
 20
171.3958408443
 40
2.5620534173
100
AcDbArc
 50
178.4482516591
 51
179.9938826116
  0
ARC
  5
4A0
100
AcDbEntity
  8
0
100
AcDbCircle
 62
9
  6
CONTINUOUS
 10
103.7996225456
 20
175.3751753947
 40
2.5326610794
100
AcDbArc
 50
359.9995740572
 51
1.548940636
  0
ARC
  5
4A1
100
AcDbEntity
  8
0
100
AcDbCircle
 62
7
  6
CONTINUOUS
 10
98.9390007538
 20
175.5337343124
 40
2.529445633
100
AcDbArc
 50
178.129724567
 51
180.0132924272
  0
ARC
  5
4A2
100
AcDbEntity
  8
0
100
AcDbCircle
 62
7
  6
CONTINUOUS
 10
49.8723938882
 20
221.5126140901
 40
2.4838591316
100
AcDbArc
 50
13.399794003
 51
15.8896327113
  0
ARC
  5
4A3
100
AcDbEntity
  8
0
100
AcDbCircle
 62
7
  6
CONTINUOUS
 10
58.269955963
 20
223.7636574478
 40
2.4829205099
100
AcDbArc
 50
13.4372934929
 51
15.8900329102
  0
ARC
  5
4A4
100
AcDbEntity
  8
0
100
AcDbCircle
 62
7
  6
CONTINUOUS
 10
85.7048741164
 20
166.8572158515
 40
2.4217130889
100
AcDbArc
 50
179.2987685737
 51
179.9992411246
  0
ARC
  5
4A5
100
AcDbEntity
  8
0
100
AcDbCircle
 62
7
  6
CONTINUOUS
 10
49.9531843335
 20
221.5350894939
 40
2.4000022392
100
AcDbArc
 50
15.9016311438
 51
17.6890513013
  0
ARC
  5
4A6
100
AcDbEntity
  8
0
100
AcDbCircle
 62
7
  6
CONTINUOUS
 10
58.3505665104
 20
223.7861048454
 40
2.3992443083
100
AcDbArc
 50
15.9015161392
 51
17.75271055
  0
ARC
  5
4A7
100
AcDbEntity
  8
0
100
AcDbCircle
 62
7
  6
CONTINUOUS
 10
116.1708037346
 20
176.3124728355
 40
2.384918004
100
AcDbArc
 50
359.9980831512
 51
2.1582984376
  0
ARC
  5
4A8
100
AcDbEntity
  8
0
100
AcDbCircle
 62
7
  6
CONTINUOUS
 10
77.5006362033
 20
165.9446640718
 40
2.3775822096
100
AcDbArc
 50
359.9965449268
 51
2.8725127241
  0
ARC
  5
4A9
100
AcDbEntity
  8
0
100
AcDbCircle
 62
9
  6
CONTINUOUS
 10
100.5143040198
 20
176.2103053698
 40
2.0504580694
100
AcDbArc
 50
173.2712233666
 51
173.9989033901
  0
ARC
  5
4AA
100
AcDbEntity
  8
0
100
AcDbCircle
 62
7
  6
CONTINUOUS
 10
67.1311423662
 20
226.2121642141
 40
1.9758046339
100
AcDbArc
 50
32.1847854319
 51
34.4140870034
  0
ARC
  5
4AB
100
AcDbEntity
  8
0
100
AcDbCircle
 62
7
  6
CONTINUOUS
 10
41.949121394
 20
219.4650250004
 40
1.9662736643
100
AcDbArc
 50
32.6908611837
 51
34.4182076744
  0
ARC
  5
4AC
100
AcDbEntity
  8
0
100
AcDbCircle
 62
7
  6
CONTINUOUS
 10
41.9691996701
 20
219.4786826326
 40
1.9419907227
100
AcDbArc
 50
34.4206323858
 51
35.2069873545
  0
ARC
  5
4AD
100
AcDbEntity
  8
0
100
AcDbCircle
 62
7
  6
CONTINUOUS
 10
67.1624442621
 20
226.2333697687
 40
1.9379966357
100
AcDbArc
 50
34.4199066064
 51
35.7816360468
  0
ARC
  5
4AE
100
AcDbEntity
  8
0
100
AcDbCircle
 62
7
  6
CONTINUOUS
 10
121.2722736426
 20
201.4899184167
 40
1.9251329188
100
AcDbArc
 50
2.0105190137
 51
3.780262965
  0
ARC
  5
4AF
100
AcDbEntity
  8
0
100
AcDbCircle
 62
7
  6
CONTINUOUS
 10
67.1747480459
 20
226.2422062213
 40
1.9228485223
100
AcDbArc
 50
35.7823932152
 51
36.5957501765
  0
ARC
  5
4B0
100
AcDbEntity
  8
0
100
AcDbCircle
 62
7
  6
CONTINUOUS
 10
110.5359839648
 20
157.4730637757
 40
1.382411481
100
AcDbArc
 50
243.6482658632
 51
246.2501179129
  0
ARC
  5
4B1
100
AcDbEntity
  8
0
100
AcDbCircle
 62
7
  6
CONTINUOUS
 10
97.6434828552
 20
154.0171063259
 40
1.382411481
100
AcDbArc
 50
243.6482658632
 51
246.2501179129
  0
ARC
  5
4B2
100
AcDbEntity
  8
0
100
AcDbCircle
 62
7
  6
CONTINUOUS
 10
84.7509817457
 20
150.561148876
 40
1.382411481
100
AcDbArc
 50
243.6482658632
 51
246.2501179129
  0
ARC
  5
4B3
100
AcDbEntity
  8
0
100
AcDbCircle
 62
7
  6
CONTINUOUS
 10
71.8584806361
 20
147.1051914262
 40
1.3824114809
100
AcDbArc
 50
243.6482658632
 51
246.2501179129
  0
SPLINE
  5
4B4
100
AcDbEntity
  8
0
100
AcDbSpline
 62
7
  6
CONTINUOUS
 70
0
 71
3
 72
14
 73
10
 74
0
 42
0.0000001
 43
0.0000001
 44
0.0000000001
 40
0.0
 40
0.0
 40
0.0
 40
0.0
 40
0.2625586546
 40
0.3905448104
 40
0.5163476832
 40
0.6400519679
 40
0.7617821651
 40
0.8816992194
 40
1.0
 40
1.0
 40
1.0
 40
1.0
 10
37.3965968903
 20
153.177985551
 30
0.0
 10
37.3048242959
 20
153.139189084
 30
0.0
 10
37.1646860978
 20
153.0894299689
 30
0.0
 10
36.9744592062
 20
153.0420184733
 30
0.0
 10
36.8333561134
 20
153.016636588
 30
0.0
 10
36.6932073168
 20
153.0012577886
 30
0.0
 10
36.5545426205
 20
152.9959423953
 30
0.0
 10
36.4179128937
 20
153.0007085915
 30
0.0
 10
36.3279595533
 20
153.0106737534
 30
0.0
 10
36.2835650564
 20
153.0173452419
 30
0.0
  0
SPLINE
  5
4B5
100
AcDbEntity
  8
0
100
AcDbSpline
 62
7
  6
CONTINUOUS
 70
0
 71
3
 72
9
 73
5
 74
0
 42
0.0000001
 43
0.0000001
 44
0.0000000001
 40
0.0
 40
0.0
 40
0.0
 40
0.0
 40
0.2475126199
 40
1.0
 40
1.0
 40
1.0
 40
1.0
 10
68.4799736519
 20
226.2970298653
 30
0.0
 10
68.4796570877
 20
226.269046187
 30
0.0
 10
68.4768454507
 20
226.1560079465
 30
0.0
 10
68.467968946
 20
226.0431300373
 30
0.0
 10
68.4580798665
 20
225.9586253324
 30
0.0
  0
SPLINE
  5
4B6
100
AcDbEntity
  8
0
100
AcDbSpline
 62
7
  6
CONTINUOUS
 70
0
 71
3
 72
29
 73
25
 74
0
 42
0.0000001
 43
0.0000001
 44
0.0000000001
 40
0.0
 40
0.0
 40
0.0
 40
0.0
 40
0.0316295718
 40
0.0635838119
 40
0.1282826059
 40
0.1609749953
 40
0.1938504397
 40
0.2599897621
 40
0.293190236
 40
0.3264223704
 40
0.3928144071
 40
0.4588703509
 40
0.5242917218
 40
0.5888003579
 40
0.6206405608
 40
0.652162304
 40
0.7141362254
 40
0.7745758037
 40
0.8333774194
 40
0.8905036291
 40
0.9184576546
 40
0.9460131215
 40
0.9731865663
 40
1.0
 40
1.0
 40
1.0
 40
1.0
 10
69.1238992801
 20
225.5740661744
 30
0.0
 10
69.1180825999
 20
225.5243611592
 30
0.0
 10
69.1041452611
 20
225.4246878911
 30
0.0
 10
69.0673069488
 20
225.2250439691
 30
0.0
 10
69.01720708
 20
225.026320654
 30
0.0
 10
68.954516208
 20
224.8299315329
 30
0.0
 10
68.8830346935
 20
224.6341369378
 30
0.0
 10
68.7993508803
 20
224.4421199168
 30
0.0
 10
68.7041365158
 20
224.2551712987
 30
0.0
 10
68.6013382228
 20
224.0718186327
 30
0.0
 10
68.4595256309
 20
223.8509917713
 30
0.0
 10
68.269594465
 20
223.6016972905
 30
0.0
 10
68.0620127786
 20
223.370878924
 30
0.0
 10
67.8753679145
 20
223.1952466594
 30
0.0
 10
67.7192981636
 20
223.0664160036
 30
0.0
 10
67.560930814
 20
222.9469743292
 30
0.0
 10
67.3568010771
 20
222.8134467719
 30
0.0
 10
67.1028013474
 20
222.6794916539
 30
0.0
 10
66.8438770706
 20
222.5741911736
 30
0.0
 10
66.6247072898
 20
222.5108497418
 30
0.0
 10
66.4498715743
 20
222.4759102386
 30
0.0
 10
66.3202544801
 20
222.4576432894
 30
0.0
 10
66.1915898971
 20
222.4471935547
 30
0.0
 10
66.1061260435
 20
222.4454487065
 30
0.0
 10
66.063704407
 20
222.4459082845
 30
0.0
  0
SPLINE
  5
4B7
100
AcDbEntity
  8
0
100
AcDbSpline
 62
7
  6
CONTINUOUS
 70
0
 71
3
 72
9
 73
5
 74
0
 42
0.0000001
 43
0.0000001
 44
0.0000000001
 40
0.0
 40
0.0
 40
0.0
 40
0.0
 40
0.2475036505
 40
1.0
 40
1.0
 40
1.0
 40
1.0
 10
60.0832255763
 20
224.0387594806
 30
0.0
 10
60.0828382784
 20
224.0105364539
 30
0.0
 10
60.079717416
 20
223.8965311663
 30
0.0
 10
60.0704395059
 20
223.7827041469
 30
0.0
 10
60.0602012914
 20
223.6975012671
 30
0.0
  0
SPLINE
  5
4B8
100
AcDbEntity
  8
0
100
AcDbSpline
 62
7
  6
CONTINUOUS
 70
0
 71
3
 72
9
 73
5
 74
0
 42
0.0000001
 43
0.0000001
 44
0.0000000001
 40
0.0
 40
0.0
 40
0.0
 40
0.0
 40
0.2474952115
 40
1.0
 40
1.0
 40
1.0
 40
1.0
 10
51.6864646959
 20
221.780811004
 30
0.0
 10
51.6860087371
 20
221.7523581754
 30
0.0
 10
51.6825877939
 20
221.6374245159
 30
0.0
 10
51.6729207182
 20
221.5226867271
 30
0.0
 10
51.6623441884
 20
221.4368141804
 30
0.0
  0
SPLINE
  5
4B9
100
AcDbEntity
  8
0
100
AcDbSpline
 62
7
  6
CONTINUOUS
 70
0
 71
3
 72
9
 73
5
 74
0
 42
0.0000001
 43
0.0000001
 44
0.0000000001
 40
0.0
 40
0.0
 40
0.0
 40
0.0
 40
0.2474356417
 40
1.0
 40
1.0
 40
1.0
 40
1.0
 10
43.2884642095
 20
219.475618829
 30
0.0
 10
43.2874539052
 20
219.4453925451
 30
0.0
 10
43.281612847
 20
219.3232980021
 30
0.0
 10
43.2688190782
 20
219.2015479786
 30
0.0
 10
43.2555300174
 20
219.1105297733
 30
0.0
  0
SPLINE
  5
4BA
100
AcDbEntity
  8
0
100
AcDbSpline
 62
7
  6
CONTINUOUS
 70
0
 71
3
 72
20
 73
16
 74
0
 42
0.0000001
 43
0.0000001
 44
0.0000000001
 40
0.0
 40
0.0
 40
0.0
 40
0.0
 40
0.0414917629
 40
0.0838056112
 40
0.1277072801
 40
0.1738563716
 40
0.2748223998
 40
0.3304929902
 40
0.3898658358
 40
0.4530623608
 40
0.5201354109
 40
0.5910728852
 40
0.6658248162
 40
0.8263048977
 40
1.0
 40
1.0
 40
1.0
 40
1.0
 10
87.1056522886
 20
219.8338733201
 30
0.0
 10
87.1056504653
 20
219.8418663682
 30
0.0
 10
87.106905249
 20
219.8580383702
 30
0.0
 10
87.112550416
 20
219.8820725188
 30
0.0
 10
87.1219078816
 20
219.9058814442
 30
0.0
 10
87.1397697454
 20
219.9381527964
 30
0.0
 10
87.1647382974
 20
219.9686394487
 30
0.0
 10
87.1951041158
 20
219.9971179678
 30
0.0
 10
87.2219642047
 20
220.0185702735
 30
0.0
 10
87.2520606163
 20
220.0393226154
 30
0.0
 10
87.2852968775
 20
220.0593104256
 30
0.0
 10
87.3215504918
 20
220.0784712945
 30
0.0
 10
87.3750204364
 20
220.1034146105
 30
0.0
 10
87.4486244144
 20
220.1317605404
 30
0.0
 10
87.510302537
 20
220.1503954295
 30
0.0
 10
87.5426224303
 20
220.159059084
 30
0.0
  0
SPLINE
  5
4BB
100
AcDbEntity
  8
0
100
AcDbSpline
 62
7
  6
CONTINUOUS
 70
0
 71
3
 72
15
 73
11
 74
0
 42
0.0000001
 43
0.0000001
 44
0.0000000001
 40
0.0
 40
0.0
 40
0.0
 40
0.0
 40
0.1592695856
 40
0.3073044517
 40
0.4442241228
 40
0.5705214721
 40
0.6873319776
 40
0.7963078621
 40
0.8996355389
 40
1.0
 40
1.0
 40
1.0
 40
1.0
 10
95.37426992
 20
217.5925385657
 30
0.0
 10
95.3877917569
 20
217.584728721
 30
0.0
 10
95.4133882109
 20
217.5687750082
 30
0.0
 10
95.4484403369
 20
217.5428394313
 30
0.0
 10
95.4785449194
 20
217.5159145031
 30
0.0
 10
95.5034849253
 20
217.4881161987
 30
0.0
 10
95.5231158113
 20
217.4595895984
 30
0.0
 10
95.5373047378
 20
217.4304530418
 30
0.0
 10
95.5458865129
 20
217.4008613339
 30
0.0
 10
95.5478167475
 20
217.3808427978
 30
0.0
 10
95.5478189921
 20
217.3710028227
 30
0.0
  0
SPLINE
  5
4BC
100
AcDbEntity
  8
0
100
AcDbSpline
 62
7
  6
CONTINUOUS
 70
0
 71
3
 72
21
 73
17
 74
0
 42
0.0000001
 43
0.0000001
 44
0.0000000001
 40
0.0
 40
0.0
 40
0.0
 40
0.0
 40
0.0605484665
 40
0.1238607243
 40
0.1893696263
 40
0.2565472926
 40
0.324884589
 40
0.3938441295
 40
0.5313306106
 40
0.6645742022
 40
0.7282930398
 40
0.7894035667
 40
0.8474784121
 40
0.9021525762
 40
0.9530923174
 40
1.0
 40
1.0
 40
1.0
 40
1.0
 10
89.0302187122
 20
220.5578234052
 30
0.0
 10
89.0579216936
 20
220.5652494526
 30
0.0
 10
89.1150112837
 20
220.5789071861
 30
0.0
 10
89.2031706454
 20
220.5956272962
 30
0.0
 10
89.2950917901
 20
220.6088779875
 30
0.0
 10
89.3898494375
 20
220.6185321559
 30
0.0
 10
89.4865485184
 20
220.6244995502
 30
0.0
 10
89.6167031827
 20
220.6274588626
 30
0.0
 10
89.7776798638
 20
220.6218837136
 30
0.0
 10
89.93528788
 20
220.6039963626
 30
0.0
 10
90.0556186142
 20
220.5822337588
 30
0.0
 10
90.1400911581
 20
220.5628182958
 30
0.0
 10
90.2193361037
 20
220.5402550194
 30
0.0
 10
90.2926134248
 20
220.5147548629
 30
0.0
 10
90.3591918481
 20
220.4865633632
 30
0.0
 10
90.4004415471
 20
220.465286359
 30
0.0
 10
90.4196824003
 20
220.4541733662
 30
0.0
  0
SPLINE
  5
4BD
100
AcDbEntity
  8
0
100
AcDbSpline
 62
7
  6
CONTINUOUS
 70
0
 71
3
 72
15
 73
11
 74
0
 42
0.0000001
 43
0.0000001
 44
0.0000000001
 40
0.0
 40
0.0
 40
0.0
 40
0.0
 40
0.1003644686
 40
0.2036921537
 40
0.3126680425
 40
0.4294785477
 40
0.5557758836
 40
0.6926955381
 40
0.8407304026
 40
1.0
 40
1.0
 40
1.0
 40
1.0
 10
87.1056522859
 20
219.1443723597
 30
0.0
 10
87.1056545314
 20
219.1345323839
 30
0.0
 10
87.1075847696
 20
219.1145138466
 30
0.0
 10
87.1161665456
 20
219.0849221373
 30
0.0
 10
87.1303554719
 20
219.055785579
 30
0.0
 10
87.1499863592
 20
219.0272589808
 30
0.0
 10
87.1749263615
 20
218.9994606775
 30
0.0
 10
87.2050309408
 20
218.9725357502
 30
0.0
 10
87.2400830673
 20
218.9466001749
 30
0.0
 10
87.2656795224
 20
218.9306464621
 30
0.0
 10
87.2792013602
 20
218.9228366168
 30
0.0
  0
SPLINE
  5
4BE
100
AcDbEntity
  8
0
100
AcDbSpline
 62
7
  6
CONTINUOUS
 70
0
 71
3
 72
21
 73
17
 74
0
 42
0.0000001
 43
0.0000001
 44
0.0000000001
 40
0.0
 40
0.0
 40
0.0
 40
0.0
 40
0.0469076864
 40
0.097847437
 40
0.1525216122
 40
0.2105964664
 40
0.2717069974
 40
0.3354258399
 40
0.468669437
 40
0.6061559148
 40
0.6751154524
 40
0.7434527451
 40
0.8106304026
 40
0.8761392913
 40
0.9394515379
 40
1.0
 40
1.0
 40
1.0
 40
1.0
 10
92.2337888803
 20
216.0612018161
 30
0.0
 10
92.2530297351
 20
216.0500888225
 30
0.0
 10
92.2942794404
 20
216.0288118167
 30
0.0
 10
92.3608578748
 20
216.0006203137
 30
0.0
 10
92.4341352086
 20
215.9751201515
 30
0.0
 10
92.5133801662
 20
215.9525568757
 30
0.0
 10
92.5978527183
 20
215.9331414112
 30
0.0
 10
92.7181834607
 20
215.9113788136
 30
0.0
 10
92.8757914802
 20
215.893491464
 30
0.0
 10
93.0367681612
 20
215.8879163172
 30
0.0
 10
93.1669228206
 20
215.8908756364
 30
0.0
 10
93.2636218941
 20
215.8968430305
 30
0.0
 10
93.358379529
 20
215.9064972009
 30
0.0
 10
93.4503006582
 20
215.9197478889
 30
0.0
 10
93.5384600062
 20
215.9364679975
 30
0.0
 10
93.5955495889
 20
215.9501257305
 30
0.0
 10
93.6232525682
 20
215.9575517774
 30
0.0
  0
SPLINE
  5
4BF
100
AcDbEntity
  8
0
100
AcDbSpline
 62
7
  6
CONTINUOUS
 70
0
 71
3
 72
20
 73
16
 74
0
 42
0.0000001
 43
0.0000001
 44
0.0000000001
 40
0.0
 40
0.0
 40
0.0
 40
0.0
 40
0.0414917629
 40
0.0838056112
 40
0.1277072801
 40
0.1738563716
 40
0.2748223998
 40
0.3304929902
 40
0.3898658358
 40
0.4530623608
 40
0.5201354109
 40
0.5910728852
 40
0.6658248162
 40
0.8263048977
 40
1.0
 40
1.0
 40
1.0
 40
1.0
 10
95.5478189921
 20
217.3710028227
 30
0.0
 10
95.5478208155
 20
217.3630097747
 30
0.0
 10
95.5465660318
 20
217.3468377726
 30
0.0
 10
95.5409208648
 20
217.3228036241
 30
0.0
 10
95.5315633992
 20
217.2989946986
 30
0.0
 10
95.5137015354
 20
217.2667233464
 30
0.0
 10
95.4887329834
 20
217.2362366942
 30
0.0
 10
95.458367165
 20
217.2077581751
 30
0.0
 10
95.4315070761
 20
217.1863058693
 30
0.0
 10
95.4014106645
 20
217.1655535275
 30
0.0
 10
95.3681744033
 20
217.1455657172
 30
0.0
 10
95.331920789
 20
217.1264048483
 30
0.0
 10
95.2784508444
 20
217.1014615323
 30
0.0
 10
95.2048468664
 20
217.0731156025
 30
0.0
 10
95.1431687438
 20
217.0544807134
 30
0.0
 10
95.1108488505
 20
217.0458170588
 30
0.0
  0
SPLINE
  5
4C0
100
AcDbEntity
  8
0
100
AcDbSpline
 62
7
  6
CONTINUOUS
 70
0
 71
3
 72
20
 73
16
 74
0
 42
0.0000001
 43
0.0000001
 44
0.0000000001
 40
0.0
 40
0.0
 40
0.0
 40
0.0
 40
0.1736951017
 40
0.3341752054
 40
0.4089271449
 40
0.4798646215
 40
0.5469376709
 40
0.6101341935
 40
0.6695070335
 40
0.7251776188
 40
0.8261436445
 40
0.8722927318
 40
0.9161943968
 40
0.9585082417
 40
1.0
 40
1.0
 40
1.0
 40
1.0
 10
95.1108488501
 20
216.3563160987
 30
0.0
 10
95.1431687433
 20
216.3649797532
 30
0.0
 10
95.2048468694
 20
216.3836146454
 30
0.0
 10
95.2784508532
 20
216.4119605762
 30
0.0
 10
95.3319208037
 20
216.4369038948
 30
0.0
 10
95.3681744191
 20
216.4560647658
 30
0.0
 10
95.4014106795
 20
216.476052577
 30
0.0
 10
95.4315070901
 20
216.4968049175
 30
0.0
 10
95.4583671753
 20
216.5182572241
 30
0.0
 10
95.4887329882
 20
216.546735745
 30
0.0
 10
95.5137015416
 20
216.5772223932
 30
0.0
 10
95.531563402
 20
216.6094937453
 30
0.0
 10
95.5409208643
 20
216.6333026694
 30
0.0
 10
95.5465660345
 20
216.6573368147
 30
0.0
 10
95.5478208181
 20
216.6735088155
 30
0.0
 10
95.5478189941
 20
216.6815018626
 30
0.0
  0
SPLINE
  5
4C1
100
AcDbEntity
  8
0
100
AcDbSpline
 62
7
  6
CONTINUOUS
 70
0
 71
3
 72
21
 73
17
 74
0
 42
0.0000001
 43
0.0000001
 44
0.0000000001
 40
0.0
 40
0.0
 40
0.0
 40
0.0
 40
0.0605484665
 40
0.1238607243
 40
0.1893696263
 40
0.2565472925
 40
0.3248845889
 40
0.3938441295
 40
0.5313306106
 40
0.6645742022
 40
0.7282930397
 40
0.7894035666
 40
0.8474784121
 40
0.9021525762
 40
0.9530923174
 40
1.0
 40
1.0
 40
1.0
 40
1.0
 10
93.6232525685
 20
216.6470527377
 30
0.0
 10
93.5955495872
 20
216.6396266903
 30
0.0
 10
93.5384599971
 20
216.6259689568
 30
0.0
 10
93.4503006355
 20
216.6092488466
 30
0.0
 10
93.3583794908
 20
216.5959981553
 30
0.0
 10
93.2636218435
 20
216.586343987
 30
0.0
 10
93.1669227626
 20
216.5803765927
 30
0.0
 10
93.0367680984
 20
216.5774172803
 30
0.0
 10
92.8757914174
 20
216.5829924292
 30
0.0
 10
92.7181834012
 20
216.6008797802
 30
0.0
 10
92.5978526671
 20
216.622642384
 30
0.0
 10
92.5133801232
 20
216.642057847
 30
0.0
 10
92.4341351776
 20
216.6646211233
 30
0.0
 10
92.3608578565
 20
216.6901212797
 30
0.0
 10
92.2942794331
 20
216.7183127794
 30
0.0
 10
92.2530297342
 20
216.7395897837
 30
0.0
 10
92.2337888809
 20
216.7507027764
 30
0.0
  0
SPLINE
  5
4C2
100
AcDbEntity
  8
0
100
AcDbSpline
 62
7
  6
CONTINUOUS
 70
0
 71
3
 72
15
 73
11
 74
0
 42
0.0000001
 43
0.0000001
 44
0.0000000001
 40
0.0
 40
0.0
 40
0.0
 40
0.0
 40
0.1592695856
 40
0.3073044517
 40
0.4442241228
 40
0.5705214721
 40
0.6873319775
 40
0.7963078621
 40
0.8996355388
 40
1.0
 40
1.0
 40
1.0
 40
1.0
 10
87.2792013604
 20
219.6123375774
 30
0.0
 10
87.2656795236
 20
219.6201474221
 30
0.0
 10
87.2400830696
 20
219.6361011349
 30
0.0
 10
87.2050309437
 20
219.6620367118
 30
0.0
 10
87.1749263612
 20
219.6889616399
 30
0.0
 10
87.1499863554
 20
219.7167599442
 30
0.0
 10
87.1303554695
 20
219.7452865445
 30
0.0
 10
87.116166543
 20
219.7744231011
 30
0.0
 10
87.1075847679
 20
219.804014809
 30
0.0
 10
87.1056545333
 20
219.824033345
 30
0.0
 10
87.1056522886
 20
219.8338733201
 30
0.0
  0
SPLINE
  5
4C3
100
AcDbEntity
  8
0
100
AcDbSpline
 62
7
  6
CONTINUOUS
 70
0
 71
3
 72
20
 73
16
 74
0
 42
0.0000001
 43
0.0000001
 44
0.0000000001
 40
0.0
 40
0.0
 40
0.0
 40
0.0
 40
0.0414917629
 40
0.0838056112
 40
0.1277072801
 40
0.1738563716
 40
0.2748223998
 40
0.3304929902
 40
0.3898658358
 40
0.4530623608
 40
0.5201354109
 40
0.5910728852
 40
0.6658248162
 40
0.8263048977
 40
1.0
 40
1.0
 40
1.0
 40
1.0
 10
74.1774933574
 20
216.3683574569
 30
0.0
 10
74.1774915341
 20
216.3763505049
 30
0.0
 10
74.1787463178
 20
216.3925225069
 30
0.0
 10
74.1843914848
 20
216.4165566555
 30
0.0
 10
74.1937489504
 20
216.4403655809
 30
0.0
 10
74.2116108142
 20
216.4726369331
 30
0.0
 10
74.2365793662
 20
216.5031235854
 30
0.0
 10
74.2669451846
 20
216.5316021045
 30
0.0
 10
74.2938052735
 20
216.5530544102
 30
0.0
 10
74.3239016851
 20
216.5738067521
 30
0.0
 10
74.3571379463
 20
216.5937945624
 30
0.0
 10
74.3933915606
 20
216.6129554312
 30
0.0
 10
74.4468615052
 20
216.6378987472
 30
0.0
 10
74.5204654832
 20
216.6662446771
 30
0.0
 10
74.5821436058
 20
216.6848795662
 30
0.0
 10
74.6144634991
 20
216.6935432207
 30
0.0
  0
SPLINE
  5
4C4
100
AcDbEntity
  8
0
100
AcDbSpline
 62
7
  6
CONTINUOUS
 70
0
 71
3
 72
15
 73
11
 74
0
 42
0.0000001
 43
0.0000001
 44
0.0000000001
 40
0.0
 40
0.0
 40
0.0
 40
0.0
 40
0.1592695856
 40
0.3073044517
 40
0.4442241228
 40
0.5705214721
 40
0.6873319776
 40
0.7963078621
 40
0.8996355389
 40
1.0
 40
1.0
 40
1.0
 40
1.0
 10
82.4461109888
 20
214.1270227024
 30
0.0
 10
82.4596328257
 20
214.1192128577
 30
0.0
 10
82.4852292797
 20
214.1032591449
 30
0.0
 10
82.5202814057
 20
214.077323568
 30
0.0
 10
82.5503859882
 20
214.0503986398
 30
0.0
 10
82.5753259941
 20
214.0226003355
 30
0.0
 10
82.5949568801
 20
213.9940737352
 30
0.0
 10
82.6091458066
 20
213.9649371785
 30
0.0
 10
82.6177275817
 20
213.9353454706
 30
0.0
 10
82.6196578163
 20
213.9153269345
 30
0.0
 10
82.619660061
 20
213.9054869594
 30
0.0
  0
SPLINE
  5
4C5
100
AcDbEntity
  8
0
100
AcDbSpline
 62
7
  6
CONTINUOUS
 70
0
 71
3
 72
21
 73
17
 74
0
 42
0.0000001
 43
0.0000001
 44
0.0000000001
 40
0.0
 40
0.0
 40
0.0
 40
0.0
 40
0.0605484665
 40
0.1238607243
 40
0.1893696263
 40
0.2565472926
 40
0.324884589
 40
0.3938441295
 40
0.5313306106
 40
0.6645742022
 40
0.7282930398
 40
0.7894035667
 40
0.8474784121
 40
0.9021525762
 40
0.9530923174
 40
1.0
 40
1.0
 40
1.0
 40
1.0
 10
76.102059781
 20
217.0923075419
 30
0.0
 10
76.1297627624
 20
217.0997335893
 30
0.0
 10
76.1868523525
 20
217.1133913228
 30
0.0
 10
76.2750117142
 20
217.1301114329
 30
0.0
 10
76.3669328589
 20
217.1433621243
 30
0.0
 10
76.4616905063
 20
217.1530162926
 30
0.0
 10
76.5583895872
 20
217.1589836869
 30
0.0
 10
76.6885442515
 20
217.1619429993
 30
0.0
 10
76.8495209326
 20
217.1563678503
 30
0.0
 10
77.0071289488
 20
217.1384804993
 30
0.0
 10
77.127459683
 20
217.1167178955
 30
0.0
 10
77.2119322269
 20
217.0973024325
 30
0.0
 10
77.2911771725
 20
217.0747391561
 30
0.0
 10
77.3644544936
 20
217.0492389997
 30
0.0
 10
77.431032917
 20
217.0210474999
 30
0.0
 10
77.4722826159
 20
216.9997704957
 30
0.0
 10
77.4915234692
 20
216.9886575029
 30
0.0
  0
SPLINE
  5
4C6
100
AcDbEntity
  8
0
100
AcDbSpline
 62
7
  6
CONTINUOUS
 70
0
 71
3
 72
15
 73
11
 74
0
 42
0.0000001
 43
0.0000001
 44
0.0000000001
 40
0.0
 40
0.0
 40
0.0
 40
0.0
 40
0.1003644686
 40
0.2036921537
 40
0.3126680425
 40
0.4294785477
 40
0.5557758836
 40
0.6926955381
 40
0.8407304026
 40
1.0
 40
1.0
 40
1.0
 40
1.0
 10
74.1774933547
 20
215.6788564965
 30
0.0
 10
74.1774956002
 20
215.6690165206
 30
0.0
 10
74.1794258384
 20
215.6489979833
 30
0.0
 10
74.1880076144
 20
215.619406274
 30
0.0
 10
74.2021965407
 20
215.5902697158
 30
0.0
 10
74.221827428
 20
215.5617431175
 30
0.0
 10
74.2467674303
 20
215.5339448142
 30
0.0
 10
74.2768720097
 20
215.5070198869
 30
0.0
 10
74.3119241361
 20
215.4810843116
 30
0.0
 10
74.3375205912
 20
215.4651305988
 30
0.0
 10
74.351042429
 20
215.4573207536
 30
0.0
  0
SPLINE
  5
4C7
100
AcDbEntity
  8
0
100
AcDbSpline
 62
7
  6
CONTINUOUS
 70
0
 71
3
 72
21
 73
17
 74
0
 42
0.0000001
 43
0.0000001
 44
0.0000000001
 40
0.0
 40
0.0
 40
0.0
 40
0.0
 40
0.0469076864
 40
0.097847437
 40
0.1525216122
 40
0.2105964664
 40
0.2717069974
 40
0.3354258399
 40
0.468669437
 40
0.6061559148
 40
0.6751154524
 40
0.7434527451
 40
0.8106304026
 40
0.8761392913
 40
0.9394515379
 40
1.0
 40
1.0
 40
1.0
 40
1.0
 10
79.3056299491
 20
212.5956859528
 30
0.0
 10
79.3248708039
 20
212.5845729592
 30
0.0
 10
79.3661205092
 20
212.5632959535
 30
0.0
 10
79.4326989436
 20
212.5351044504
 30
0.0
 10
79.5059762774
 20
212.5096042883
 30
0.0
 10
79.585221235
 20
212.4870410124
 30
0.0
 10
79.6696937871
 20
212.4676255479
 30
0.0
 10
79.7900245295
 20
212.4458629503
 30
0.0
 10
79.947632549
 20
212.4279756007
 30
0.0
 10
80.10860923
 20
212.4224004539
 30
0.0
 10
80.2387638894
 20
212.4253597731
 30
0.0
 10
80.3354629629
 20
212.4313271672
 30
0.0
 10
80.4302205978
 20
212.4409813376
 30
0.0
 10
80.522141727
 20
212.4542320256
 30
0.0
 10
80.6103010751
 20
212.4709521342
 30
0.0
 10
80.6673906577
 20
212.4846098672
 30
0.0
 10
80.695093637
 20
212.4920359141
 30
0.0
  0
SPLINE
  5
4C8
100
AcDbEntity
  8
0
100
AcDbSpline
 62
7
  6
CONTINUOUS
 70
0
 71
3
 72
20
 73
16
 74
0
 42
0.0000001
 43
0.0000001
 44
0.0000000001
 40
0.0
 40
0.0
 40
0.0
 40
0.0
 40
0.0414917629
 40
0.0838056112
 40
0.1277072801
 40
0.1738563716
 40
0.2748223998
 40
0.3304929902
 40
0.3898658358
 40
0.4530623608
 40
0.5201354109
 40
0.5910728852
 40
0.6658248162
 40
0.8263048977
 40
1.0
 40
1.0
 40
1.0
 40
1.0
 10
82.619660061
 20
213.9054869594
 30
0.0
 10
82.6196618843
 20
213.8974939114
 30
0.0
 10
82.6184071006
 20
213.8813219093
 30
0.0
 10
82.6127619336
 20
213.8572877608
 30
0.0
 10
82.603404468
 20
213.8334788353
 30
0.0
 10
82.5855426042
 20
213.8012074832
 30
0.0
 10
82.5605740522
 20
213.7707208309
 30
0.0
 10
82.5302082338
 20
213.7422423118
 30
0.0
 10
82.5033481449
 20
213.7207900061
 30
0.0
 10
82.4732517333
 20
213.7000376642
 30
0.0
 10
82.4400154721
 20
213.6800498539
 30
0.0
 10
82.4037618578
 20
213.660888985
 30
0.0
 10
82.3502919132
 20
213.635945669
 30
0.0
 10
82.2766879352
 20
213.6075997392
 30
0.0
 10
82.2150098126
 20
213.5889648501
 30
0.0
 10
82.1826899193
 20
213.5803011956
 30
0.0
  0
SPLINE
  5
4C9
100
AcDbEntity
  8
0
100
AcDbSpline
 62
7
  6
CONTINUOUS
 70
0
 71
3
 72
20
 73
16
 74
0
 42
0.0000001
 43
0.0000001
 44
0.0000000001
 40
0.0
 40
0.0
 40
0.0
 40
0.0
 40
0.1736951017
 40
0.3341752054
 40
0.4089271449
 40
0.4798646215
 40
0.5469376709
 40
0.6101341935
 40
0.6695070335
 40
0.7251776188
 40
0.8261436445
 40
0.8722927318
 40
0.9161943968
 40
0.9585082417
 40
1.0
 40
1.0
 40
1.0
 40
1.0
 10
82.1826899189
 20
212.8908002354
 30
0.0
 10
82.2150098121
 20
212.8994638899
 30
0.0
 10
82.2766879382
 20
212.9180987822
 30
0.0
 10
82.350291922
 20
212.9464447129
 30
0.0
 10
82.4037618725
 20
212.9713880315
 30
0.0
 10
82.4400154879
 20
212.9905489025
 30
0.0
 10
82.4732517483
 20
213.0105367137
 30
0.0
 10
82.5033481589
 20
213.0312890542
 30
0.0
 10
82.5302082441
 20
213.0527413608
 30
0.0
 10
82.560574057
 20
213.0812198818
 30
0.0
 10
82.5855426104
 20
213.1117065299
 30
0.0
 10
82.6034044708
 20
213.143977882
 30
0.0
 10
82.6127619331
 20
213.1677868061
 30
0.0
 10
82.6184071033
 20
213.1918209514
 30
0.0
 10
82.6196618869
 20
213.2079929522
 30
0.0
 10
82.6196600629
 20
213.2159859993
 30
0.0
  0
SPLINE
  5
4CA
100
AcDbEntity
  8
0
100
AcDbSpline
 62
7
  6
CONTINUOUS
 70
0
 71
3
 72
21
 73
17
 74
0
 42
0.0000001
 43
0.0000001
 44
0.0000000001
 40
0.0
 40
0.0
 40
0.0
 40
0.0
 40
0.0605484665
 40
0.1238607243
 40
0.1893696263
 40
0.2565472925
 40
0.3248845889
 40
0.3938441295
 40
0.5313306106
 40
0.6645742022
 40
0.7282930397
 40
0.7894035666
 40
0.8474784121
 40
0.9021525762
 40
0.9530923174
 40
1.0
 40
1.0
 40
1.0
 40
1.0
 10
80.6950936374
 20
213.1815368744
 30
0.0
 10
80.667390656
 20
213.174110827
 30
0.0
 10
80.6103010659
 20
213.1604530935
 30
0.0
 10
80.5221417043
 20
213.1437329834
 30
0.0
 10
80.4302205596
 20
213.1304822921
 30
0.0
 10
80.3354629123
 20
213.1208281237
 30
0.0
 10
80.2387638314
 20
213.1148607294
 30
0.0
 10
80.1086091672
 20
213.111901417
 30
0.0
 10
79.9476324862
 20
213.1174765659
 30
0.0
 10
79.79002447
 20
213.1353639169
 30
0.0
 10
79.6696937359
 20
213.1571265207
 30
0.0
 10
79.585221192
 20
213.1765419837
 30
0.0
 10
79.5059762464
 20
213.19910526
 30
0.0
 10
79.4326989253
 20
213.2246054164
 30
0.0
 10
79.3661205019
 20
213.2527969161
 30
0.0
 10
79.324870803
 20
213.2740739204
 30
0.0
 10
79.3056299497
 20
213.2851869131
 30
0.0
  0
SPLINE
  5
4CB
100
AcDbEntity
  8
0
100
AcDbSpline
 62
7
  6
CONTINUOUS
 70
0
 71
3
 72
15
 73
11
 74
0
 42
0.0000001
 43
0.0000001
 44
0.0000000001
 40
0.0
 40
0.0
 40
0.0
 40
0.0
 40
0.1592695856
 40
0.3073044517
 40
0.4442241228
 40
0.5705214721
 40
0.6873319775
 40
0.7963078621
 40
0.8996355388
 40
1.0
 40
1.0
 40
1.0
 40
1.0
 10
74.3510424292
 20
216.1468217141
 30
0.0
 10
74.3375205924
 20
216.1546315588
 30
0.0
 10
74.3119241384
 20
216.1705852716
 30
0.0
 10
74.2768720125
 20
216.1965208485
 30
0.0
 10
74.24676743
 20
216.2234457767
 30
0.0
 10
74.2218274242
 20
216.251244081
 30
0.0
 10
74.2021965383
 20
216.2797706812
 30
0.0
 10
74.1880076118
 20
216.3089072378
 30
0.0
 10
74.1794258367
 20
216.3384989457
 30
0.0
 10
74.1774956021
 20
216.3585174818
 30
0.0
 10
74.1774933574
 20
216.3683574569
 30
0.0
  0
SPLINE
  5
4CC
100
AcDbEntity
  8
0
100
AcDbSpline
 62
7
  6
CONTINUOUS
 70
0
 71
3
 72
20
 73
16
 74
0
 42
0.0000001
 43
0.0000001
 44
0.0000000001
 40
0.0
 40
0.0
 40
0.0
 40
0.0
 40
0.0414917629
 40
0.0838056112
 40
0.1277072801
 40
0.1738563716
 40
0.2748223998
 40
0.3304929902
 40
0.3898658358
 40
0.4530623608
 40
0.5201354109
 40
0.5910728852
 40
0.6658248162
 40
0.8263048977
 40
1.0
 40
1.0
 40
1.0
 40
1.0
 10
61.3049775519
 20
212.9177572569
 30
0.0
 10
61.3049757286
 20
212.9257503049
 30
0.0
 10
61.3062305123
 20
212.941922307
 30
0.0
 10
61.3118756793
 20
212.9659564555
 30
0.0
 10
61.3212331449
 20
212.989765381
 30
0.0
 10
61.3390950087
 20
213.0220367332
 30
0.0
 10
61.3640635606
 20
213.0525233855
 30
0.0
 10
61.3944293791
 20
213.0810019045
 30
0.0
 10
61.421289468
 20
213.1024542103
 30
0.0
 10
61.4513858796
 20
213.1232065521
 30
0.0
 10
61.4846221408
 20
213.1431943624
 30
0.0
 10
61.520875755
 20
213.1623552313
 30
0.0
 10
61.5743456997
 20
213.1872985473
 30
0.0
 10
61.6479496777
 20
213.2156444771
 30
0.0
 10
61.7096278003
 20
213.2342793662
 30
0.0
 10
61.7419476936
 20
213.2429430208
 30
0.0
  0
SPLINE
  5
4CD
100
AcDbEntity
  8
0
100
AcDbSpline
 62
7
  6
CONTINUOUS
 70
0
 71
3
 72
15
 73
11
 74
0
 42
0.0000001
 43
0.0000001
 44
0.0000000001
 40
0.0
 40
0.0
 40
0.0
 40
0.0
 40
0.1592695856
 40
0.3073044517
 40
0.4442241228
 40
0.5705214721
 40
0.6873319776
 40
0.7963078621
 40
0.8996355389
 40
1.0
 40
1.0
 40
1.0
 40
1.0
 10
69.5735951833
 20
210.6764225024
 30
0.0
 10
69.5871170202
 20
210.6686126578
 30
0.0
 10
69.6127134741
 20
210.6526589449
 30
0.0
 10
69.6477656001
 20
210.626723368
 30
0.0
 10
69.6778701827
 20
210.5997984398
 30
0.0
 10
69.7028101886
 20
210.5720001355
 30
0.0
 10
69.7224410745
 20
210.5434735352
 30
0.0
 10
69.7366300011
 20
210.5143369786
 30
0.0
 10
69.7452117762
 20
210.4847452707
 30
0.0
 10
69.7471420107
 20
210.4647267346
 30
0.0
 10
69.7471442554
 20
210.4548867595
 30
0.0
  0
SPLINE
  5
4CE
100
AcDbEntity
  8
0
100
AcDbSpline
 62
7
  6
CONTINUOUS
 70
0
 71
3
 72
21
 73
17
 74
0
 42
0.0000001
 43
0.0000001
 44
0.0000000001
 40
0.0
 40
0.0
 40
0.0
 40
0.0
 40
0.0605484665
 40
0.1238607243
 40
0.1893696263
 40
0.2565472926
 40
0.324884589
 40
0.3938441295
 40
0.5313306106
 40
0.6645742022
 40
0.7282930398
 40
0.7894035667
 40
0.8474784121
 40
0.9021525762
 40
0.9530923174
 40
1.0
 40
1.0
 40
1.0
 40
1.0
 10
63.2295439755
 20
213.6417073419
 30
0.0
 10
63.2572469569
 20
213.6491333893
 30
0.0
 10
63.314336547
 20
213.6627911229
 30
0.0
 10
63.4024959087
 20
213.679511233
 30
0.0
 10
63.4944170534
 20
213.6927619243
 30
0.0
 10
63.5891747008
 20
213.7024160927
 30
0.0
 10
63.6858737817
 20
213.7083834869
 30
0.0
 10
63.816028446
 20
213.7113427994
 30
0.0
 10
63.9770051271
 20
213.7057676504
 30
0.0
 10
64.1346131433
 20
213.6878802994
 30
0.0
 10
64.2549438775
 20
213.6661176955
 30
0.0
 10
64.3394164213
 20
213.6467022325
 30
0.0
 10
64.418661367
 20
213.6241389561
 30
0.0
 10
64.4919386881
 20
213.5986387997
 30
0.0
 10
64.5585171114
 20
213.5704473
 30
0.0
 10
64.5997668104
 20
213.5491702957
 30
0.0
 10
64.6190076636
 20
213.5380573029
 30
0.0
  0
SPLINE
  5
4CF
100
AcDbEntity
  8
0
100
AcDbSpline
 62
7
  6
CONTINUOUS
 70
0
 71
3
 72
15
 73
11
 74
0
 42
0.0000001
 43
0.0000001
 44
0.0000000001
 40
0.0
 40
0.0
 40
0.0
 40
0.0
 40
0.1003644686
 40
0.2036921537
 40
0.3126680425
 40
0.4294785477
 40
0.5557758836
 40
0.6926955381
 40
0.8407304026
 40
1.0
 40
1.0
 40
1.0
 40
1.0
 10
61.3049775492
 20
212.2282562965
 30
0.0
 10
61.3049797946
 20
212.2184163206
 30
0.0
 10
61.3069100329
 20
212.1983977833
 30
0.0
 10
61.3154918089
 20
212.168806074
 30
0.0
 10
61.3296807352
 20
212.1396695158
 30
0.0
 10
61.3493116225
 20
212.1111429176
 30
0.0
 10
61.3742516248
 20
212.0833446142
 30
0.0
 10
61.4043562041
 20
212.0564196869
 30
0.0
 10
61.4394083306
 20
212.0304841117
 30
0.0
 10
61.4650047857
 20
212.0145303988
 30
0.0
 10
61.4785266235
 20
212.0067205536
 30
0.0
  0
SPLINE
  5
4D0
100
AcDbEntity
  8
0
100
AcDbSpline
 62
7
  6
CONTINUOUS
 70
0
 71
3
 72
21
 73
17
 74
0
 42
0.0000001
 43
0.0000001
 44
0.0000000001
 40
0.0
 40
0.0
 40
0.0
 40
0.0
 40
0.0469076864
 40
0.097847437
 40
0.1525216122
 40
0.2105964664
 40
0.2717069974
 40
0.3354258399
 40
0.468669437
 40
0.6061559148
 40
0.6751154524
 40
0.7434527451
 40
0.8106304026
 40
0.8761392913
 40
0.9394515379
 40
1.0
 40
1.0
 40
1.0
 40
1.0
 10
66.4331141436
 20
209.1450857529
 30
0.0
 10
66.4523549984
 20
209.1339727592
 30
0.0
 10
66.4936047037
 20
209.1126957535
 30
0.0
 10
66.560183138
 20
209.0845042504
 30
0.0
 10
66.6334604719
 20
209.0590040883
 30
0.0
 10
66.7127054295
 20
209.0364408125
 30
0.0
 10
66.7971779816
 20
209.0170253479
 30
0.0
 10
66.9175087239
 20
208.9952627504
 30
0.0
 10
67.0751167435
 20
208.9773754008
 30
0.0
 10
67.2360934244
 20
208.9718002539
 30
0.0
 10
67.3662480838
 20
208.9747595731
 30
0.0
 10
67.4629471574
 20
208.9807269673
 30
0.0
 10
67.5577047923
 20
208.9903811376
 30
0.0
 10
67.6496259214
 20
209.0036318256
 30
0.0
 10
67.7377852695
 20
209.0203519343
 30
0.0
 10
67.7948748521
 20
209.0340096672
 30
0.0
 10
67.8225778314
 20
209.0414357141
 30
0.0
  0
SPLINE
  5
4D1
100
AcDbEntity
  8
0
100
AcDbSpline
 62
7
  6
CONTINUOUS
 70
0
 71
3
 72
20
 73
16
 74
0
 42
0.0000001
 43
0.0000001
 44
0.0000000001
 40
0.0
 40
0.0
 40
0.0
 40
0.0
 40
0.0414917629
 40
0.0838056112
 40
0.1277072801
 40
0.1738563716
 40
0.2748223998
 40
0.3304929902
 40
0.3898658358
 40
0.4530623608
 40
0.5201354109
 40
0.5910728852
 40
0.6658248162
 40
0.8263048977
 40
1.0
 40
1.0
 40
1.0
 40
1.0
 10
69.7471442554
 20
210.4548867595
 30
0.0
 10
69.7471460788
 20
210.4468937114
 30
0.0
 10
69.7458912951
 20
210.4307217094
 30
0.0
 10
69.740246128
 20
210.4066875608
 30
0.0
 10
69.7308886625
 20
210.3828786354
 30
0.0
 10
69.7130267987
 20
210.3506072832
 30
0.0
 10
69.6880582467
 20
210.3201206309
 30
0.0
 10
69.6576924283
 20
210.2916421118
 30
0.0
 10
69.6308323393
 20
210.2701898061
 30
0.0
 10
69.6007359278
 20
210.2494374642
 30
0.0
 10
69.5674996666
 20
210.229449654
 30
0.0
 10
69.5312460523
 20
210.2102887851
 30
0.0
 10
69.4777761077
 20
210.1853454691
 30
0.0
 10
69.4041721297
 20
210.1569995392
 30
0.0
 10
69.342494007
 20
210.1383646501
 30
0.0
 10
69.3101741137
 20
210.1297009956
 30
0.0
  0
SPLINE
  5
4D2
100
AcDbEntity
  8
0
100
AcDbSpline
 62
7
  6
CONTINUOUS
 70
0
 71
3
 72
20
 73
16
 74
0
 42
0.0000001
 43
0.0000001
 44
0.0000000001
 40
0.0
 40
0.0
 40
0.0
 40
0.0
 40
0.1736951017
 40
0.3341752054
 40
0.4089271449
 40
0.4798646215
 40
0.5469376709
 40
0.6101341935
 40
0.6695070335
 40
0.7251776188
 40
0.8261436445
 40
0.8722927318
 40
0.9161943968
 40
0.9585082417
 40
1.0
 40
1.0
 40
1.0
 40
1.0
 10
69.3101741134
 20
209.4402000354
 30
0.0
 10
69.3424940066
 20
209.4488636899
 30
0.0
 10
69.4041721326
 20
209.4674985822
 30
0.0
 10
69.4777761165
 20
209.495844513
 30
0.0
 10
69.531246067
 20
209.5207878315
 30
0.0
 10
69.5674996823
 20
209.5399487026
 30
0.0
 10
69.6007359428
 20
209.5599365137
 30
0.0
 10
69.6308323534
 20
209.5806888542
 30
0.0
 10
69.6576924386
 20
209.6021411608
 30
0.0
 10
69.6880582515
 20
209.6306196818
 30
0.0
 10
69.7130268049
 20
209.6611063299
 30
0.0
 10
69.7308886653
 20
209.693377682
 30
0.0
 10
69.7402461276
 20
209.7171866061
 30
0.0
 10
69.7458912978
 20
209.7412207515
 30
0.0
 10
69.7471460814
 20
209.7573927522
 30
0.0
 10
69.7471442574
 20
209.7653857993
 30
0.0
  0
SPLINE
  5
4D3
100
AcDbEntity
  8
0
100
AcDbSpline
 62
7
  6
CONTINUOUS
 70
0
 71
3
 72
21
 73
17
 74
0
 42
0.0000001
 43
0.0000001
 44
0.0000000001
 40
0.0
 40
0.0
 40
0.0
 40
0.0
 40
0.0605484665
 40
0.1238607243
 40
0.1893696263
 40
0.2565472925
 40
0.3248845889
 40
0.3938441295
 40
0.5313306106
 40
0.6645742022
 40
0.7282930397
 40
0.7894035666
 40
0.8474784121
 40
0.9021525762
 40
0.9530923174
 40
1.0
 40
1.0
 40
1.0
 40
1.0
 10
67.8225778318
 20
209.7309366744
 30
0.0
 10
67.7948748505
 20
209.723510627
 30
0.0
 10
67.7377852604
 20
209.7098528935
 30
0.0
 10
67.6496258988
 20
209.6931327834
 30
0.0
 10
67.5577047541
 20
209.6798820921
 30
0.0
 10
67.4629471067
 20
209.6702279237
 30
0.0
 10
67.3662480259
 20
209.6642605295
 30
0.0
 10
67.2360933616
 20
209.661301217
 30
0.0
 10
67.0751166807
 20
209.666876366
 30
0.0
 10
66.9175086645
 20
209.6847637169
 30
0.0
 10
66.7971779303
 20
209.7065263207
 30
0.0
 10
66.7127053865
 20
209.7259417837
 30
0.0
 10
66.6334604409
 20
209.7485050601
 30
0.0
 10
66.5601831197
 20
209.7740052165
 30
0.0
 10
66.4936046964
 20
209.8021967162
 30
0.0
 10
66.4523549974
 20
209.8234737204
 30
0.0
 10
66.4331141442
 20
209.8345867132
 30
0.0
  0
SPLINE
  5
4D4
100
AcDbEntity
  8
0
100
AcDbSpline
 62
7
  6
CONTINUOUS
 70
0
 71
3
 72
15
 73
11
 74
0
 42
0.0000001
 43
0.0000001
 44
0.0000000001
 40
0.0
 40
0.0
 40
0.0
 40
0.0
 40
0.1592695856
 40
0.3073044517
 40
0.4442241228
 40
0.5705214721
 40
0.6873319775
 40
0.7963078621
 40
0.8996355388
 40
1.0
 40
1.0
 40
1.0
 40
1.0
 10
61.4785266237
 20
212.6962215142
 30
0.0
 10
61.4650047869
 20
212.7040313588
 30
0.0
 10
61.4394083329
 20
212.7199850716
 30
0.0
 10
61.404356207
 20
212.7459206485
 30
0.0
 10
61.3742516245
 20
212.7728455767
 30
0.0
 10
61.3493116186
 20
212.800643881
 30
0.0
 10
61.3296807328
 20
212.8291704813
 30
0.0
 10
61.3154918062
 20
212.8583070379
 30
0.0
 10
61.3069100312
 20
212.8878987457
 30
0.0
 10
61.3049797966
 20
212.9079172818
 30
0.0
 10
61.3049775519
 20
212.9177572569
 30
0.0
  0
SPLINE
  5
4D5
100
AcDbEntity
  8
0
100
AcDbSpline
 62
7
  6
CONTINUOUS
 70
0
 71
3
 72
20
 73
16
 74
0
 42
0.0000001
 43
0.0000001
 44
0.0000000001
 40
0.0
 40
0.0
 40
0.0
 40
0.0
 40
0.0414917629
 40
0.0838056112
 40
0.1277072801
 40
0.1738563716
 40
0.2748223998
 40
0.3304929902
 40
0.3898658358
 40
0.4530623608
 40
0.5201354109
 40
0.5910728852
 40
0.6658248162
 40
0.8263048977
 40
1.0
 40
1.0
 40
1.0
 40
1.0
 10
48.2043265178
 20
209.3998628225
 30
0.0
 10
48.2043246944
 20
209.4078558705
 30
0.0
 10
48.2055794781
 20
209.4240278726
 30
0.0
 10
48.2112246452
 20
209.4480620211
 30
0.0
 10
48.2205821107
 20
209.4718709466
 30
0.0
 10
48.2384439745
 20
209.5041422988
 30
0.0
 10
48.2634125265
 20
209.5346289511
 30
0.0
 10
48.2937783449
 20
209.5631074701
 30
0.0
 10
48.3206384339
 20
209.5845597759
 30
0.0
 10
48.3507348454
 20
209.6053121178
 30
0.0
 10
48.3839711066
 20
209.625299928
 30
0.0
 10
48.4202247209
 20
209.6444607969
 30
0.0
 10
48.4736946655
 20
209.6694041129
 30
0.0
 10
48.5472986435
 20
209.6977500428
 30
0.0
 10
48.6089767662
 20
209.7163849318
 30
0.0
 10
48.6412966594
 20
209.7250485864
 30
0.0
  0
SPLINE
  5
4D6
100
AcDbEntity
  8
0
100
AcDbSpline
 62
7
  6
CONTINUOUS
 70
0
 71
3
 72
15
 73
11
 74
0
 42
0.0000001
 43
0.0000001
 44
0.0000000001
 40
0.0
 40
0.0
 40
0.0
 40
0.0
 40
0.1592695856
 40
0.3073044517
 40
0.4442241228
 40
0.5705214721
 40
0.6873319776
 40
0.7963078621
 40
0.8996355389
 40
1.0
 40
1.0
 40
1.0
 40
1.0
 10
56.4729441492
 20
207.158528068
 30
0.0
 10
56.486465986
 20
207.1507182234
 30
0.0
 10
56.51206244
 20
207.1347645105
 30
0.0
 10
56.547114566
 20
207.1088289336
 30
0.0
 10
56.5772191485
 20
207.0819040054
 30
0.0
 10
56.6021591545
 20
207.0541057011
 30
0.0
 10
56.6217900404
 20
207.0255791008
 30
0.0
 10
56.6359789669
 20
206.9964425442
 30
0.0
 10
56.644560742
 20
206.9668508363
 30
0.0
 10
56.6464909766
 20
206.9468323002
 30
0.0
 10
56.6464932213
 20
206.9369923251
 30
0.0
  0
SPLINE
  5
4D7
100
AcDbEntity
  8
0
100
AcDbSpline
 62
7
  6
CONTINUOUS
 70
0
 71
3
 72
21
 73
17
 74
0
 42
0.0000001
 43
0.0000001
 44
0.0000000001
 40
0.0
 40
0.0
 40
0.0
 40
0.0
 40
0.0605484665
 40
0.1238607243
 40
0.1893696263
 40
0.2565472926
 40
0.324884589
 40
0.3938441295
 40
0.5313306106
 40
0.6645742022
 40
0.7282930398
 40
0.7894035667
 40
0.8474784121
 40
0.9021525762
 40
0.9530923174
 40
1.0
 40
1.0
 40
1.0
 40
1.0
 10
50.1288929414
 20
210.1238129075
 30
0.0
 10
50.1565959227
 20
210.131238955
 30
0.0
 10
50.2136855128
 20
210.1448966885
 30
0.0
 10
50.3018448745
 20
210.1616167986
 30
0.0
 10
50.3937660193
 20
210.1748674899
 30
0.0
 10
50.4885236666
 20
210.1845216583
 30
0.0
 10
50.5852227475
 20
210.1904890525
 30
0.0
 10
50.7153774119
 20
210.193448365
 30
0.0
 10
50.8763540929
 20
210.187873216
 30
0.0
 10
51.0339621092
 20
210.169985865
 30
0.0
 10
51.1542928433
 20
210.1482232612
 30
0.0
 10
51.2387653872
 20
210.1288077981
 30
0.0
 10
51.3180103328
 20
210.1062445218
 30
0.0
 10
51.391287654
 20
210.0807443653
 30
0.0
 10
51.4578660773
 20
210.0525528656
 30
0.0
 10
51.4991157763
 20
210.0312758613
 30
0.0
 10
51.5183566295
 20
210.0201628686
 30
0.0
  0
SPLINE
  5
4D8
100
AcDbEntity
  8
0
100
AcDbSpline
 62
7
  6
CONTINUOUS
 70
0
 71
3
 72
15
 73
11
 74
0
 42
0.0000001
 43
0.0000001
 44
0.0000000001
 40
0.0
 40
0.0
 40
0.0
 40
0.0
 40
0.1003644686
 40
0.2036921537
 40
0.3126680425
 40
0.4294785477
 40
0.5557758836
 40
0.6926955381
 40
0.8407304026
 40
1.0
 40
1.0
 40
1.0
 40
1.0
 10
48.204326515
 20
208.7103618621
 30
0.0
 10
48.2043287605
 20
208.7005218863
 30
0.0
 10
48.2062589987
 20
208.680503349
 30
0.0
 10
48.2148407747
 20
208.6509116396
 30
0.0
 10
48.2290297011
 20
208.6217750814
 30
0.0
 10
48.2486605883
 20
208.5932484832
 30
0.0
 10
48.2736005907
 20
208.5654501798
 30
0.0
 10
48.30370517
 20
208.5385252526
 30
0.0
 10
48.3387572964
 20
208.5125896773
 30
0.0
 10
48.3643537515
 20
208.4966359644
 30
0.0
 10
48.3778755894
 20
208.4888261192
 30
0.0
  0
SPLINE
  5
4D9
100
AcDbEntity
  8
0
100
AcDbSpline
 62
7
  6
CONTINUOUS
 70
0
 71
3
 72
9
 73
5
 74
0
 42
0.0000001
 43
0.0000001
 44
0.0000000001
 40
0.0
 40
0.0
 40
0.0
 40
0.0
 40
0.2454360503
 40
1.0
 40
1.0
 40
1.0
 40
1.0
 10
53.3324631094
 20
205.6271913185
 30
0.0
 10
53.3349191128
 20
205.6257727978
 30
0.0
 10
53.3449612634
 20
205.620054727
 30
0.0
 10
53.3551405856
 20
205.6145782586
 30
0.0
 10
53.3628854135
 20
205.6105720732
 30
0.0
  0
SPLINE
  5
4DA
100
AcDbEntity
  8
0
100
AcDbSpline
 62
7
  6
CONTINUOUS
 70
0
 71
3
 72
15
 73
11
 74
0
 42
0.0000001
 43
0.0000001
 44
0.0000000001
 40
0.0
 40
0.0
 40
0.0
 40
0.0
 40
0.121592278
 40
0.2479333394
 40
0.377180633
 40
0.5074202728
 40
0.6366836472
 40
0.7630755073
 40
0.8848142376
 40
1.0
 40
1.0
 40
1.0
 40
1.0
 10
53.7088116909
 20
205.4973627884
 30
0.0
 10
53.7494168794
 20
205.4893120132
 30
0.0
 10
53.8327563395
 20
205.4755479959
 30
0.0
 10
53.9605001926
 20
205.4619016902
 30
0.0
 10
54.091733916
 20
205.4549826184
 30
0.0
 10
54.2241421076
 20
205.4549402117
 30
0.0
 10
54.3554026524
 20
205.4617463723
 30
0.0
 10
54.4832358264
 20
205.4752992763
 30
0.0
 10
54.6053545168
 20
205.4953679018
 30
0.0
 10
54.6840495102
 20
205.5133879129
 30
0.0
 10
54.7219267973
 20
205.5235412797
 30
0.0
  0
SPLINE
  5
4DB
100
AcDbEntity
  8
0
100
AcDbSpline
 62
7
  6
CONTINUOUS
 70
0
 71
3
 72
20
 73
16
 74
0
 42
0.0000001
 43
0.0000001
 44
0.0000000001
 40
0.0
 40
0.0
 40
0.0
 40
0.0
 40
0.0414917629
 40
0.0838056112
 40
0.1277072801
 40
0.1738563716
 40
0.2748223998
 40
0.3304929902
 40
0.3898658358
 40
0.4530623608
 40
0.5201354109
 40
0.5910728852
 40
0.6658248162
 40
0.8263048977
 40
1.0
 40
1.0
 40
1.0
 40
1.0
 10
56.6464932213
 20
206.9369923251
 30
0.0
 10
56.6464950446
 20
206.9289992771
 30
0.0
 10
56.6452402609
 20
206.912827275
 30
0.0
 10
56.6395950939
 20
206.8887931265
 30
0.0
 10
56.6302376283
 20
206.864984201
 30
0.0
 10
56.6123757645
 20
206.8327128488
 30
0.0
 10
56.5874072126
 20
206.8022261965
 30
0.0
 10
56.5570413941
 20
206.7737476775
 30
0.0
 10
56.5301813052
 20
206.7522953717
 30
0.0
 10
56.5000848936
 20
206.7315430298
 30
0.0
 10
56.4668486324
 20
206.7115552196
 30
0.0
 10
56.4305950181
 20
206.6923943507
 30
0.0
 10
56.3771250735
 20
206.6674510347
 30
0.0
 10
56.3035210955
 20
206.6391051048
 30
0.0
 10
56.2418429729
 20
206.6204702158
 30
0.0
 10
56.2095230796
 20
206.6118065612
 30
0.0
  0
SPLINE
  5
4DC
100
AcDbEntity
  8
0
100
AcDbSpline
 62
7
  6
CONTINUOUS
 70
0
 71
3
 72
20
 73
16
 74
0
 42
0.0000001
 43
0.0000001
 44
0.0000000001
 40
0.0
 40
0.0
 40
0.0
 40
0.0
 40
0.1736951017
 40
0.3341752054
 40
0.4089271449
 40
0.4798646215
 40
0.5469376709
 40
0.6101341935
 40
0.6695070335
 40
0.7251776188
 40
0.8261436445
 40
0.8722927318
 40
0.9161943968
 40
0.9585082417
 40
1.0
 40
1.0
 40
1.0
 40
1.0
 10
56.2095230792
 20
205.922305601
 30
0.0
 10
56.2418429724
 20
205.9309692556
 30
0.0
 10
56.3035210985
 20
205.9496041478
 30
0.0
 10
56.3771250823
 20
205.9779500786
 30
0.0
 10
56.4305950328
 20
206.0028933971
 30
0.0
 10
56.4668486482
 20
206.0220542682
 30
0.0
 10
56.5000849086
 20
206.0420420794
 30
0.0
 10
56.5301813192
 20
206.0627944199
 30
0.0
 10
56.5570414044
 20
206.0842467264
 30
0.0
 10
56.5874072173
 20
206.1127252474
 30
0.0
 10
56.6123757707
 20
206.1432118955
 30
0.0
 10
56.6302376311
 20
206.1754832476
 30
0.0
 10
56.6395950934
 20
206.1992921718
 30
0.0
 10
56.6452402636
 20
206.2233263171
 30
0.0
 10
56.6464950472
 20
206.2394983178
 30
0.0
 10
56.6464932233
 20
206.247491365
 30
0.0
  0
SPLINE
  5
4DD
100
AcDbEntity
  8
0
100
AcDbSpline
 62
7
  6
CONTINUOUS
 70
0
 71
3
 72
21
 73
17
 74
0
 42
0.0000001
 43
0.0000001
 44
0.0000000001
 40
0.0
 40
0.0
 40
0.0
 40
0.0
 40
0.0605484665
 40
0.1238607243
 40
0.1893696263
 40
0.2565472925
 40
0.3248845889
 40
0.3938441295
 40
0.5313306106
 40
0.6645742022
 40
0.7282930397
 40
0.7894035666
 40
0.8474784121
 40
0.9021525762
 40
0.9530923174
 40
1.0
 40
1.0
 40
1.0
 40
1.0
 10
54.7219267977
 20
206.2130422401
 30
0.0
 10
54.6942238164
 20
206.2056161926
 30
0.0
 10
54.6371342263
 20
206.1919584591
 30
0.0
 10
54.5489748646
 20
206.175238349
 30
0.0
 10
54.4570537199
 20
206.1619876577
 30
0.0
 10
54.3622960726
 20
206.1523334893
 30
0.0
 10
54.2655969918
 20
206.1463660951
 30
0.0
 10
54.1354423275
 20
206.1434067826
 30
0.0
 10
53.9744656465
 20
206.1489819316
 30
0.0
 10
53.8168576303
 20
206.1668692825
 30
0.0
 10
53.6965268962
 20
206.1886318863
 30
0.0
 10
53.6120543524
 20
206.2080473493
 30
0.0
 10
53.5328094067
 20
206.2306106257
 30
0.0
 10
53.4595320856
 20
206.2561107821
 30
0.0
 10
53.3929536623
 20
206.2843022818
 30
0.0
 10
53.3517039633
 20
206.305579286
 30
0.0
 10
53.3324631101
 20
206.3166922788
 30
0.0
  0
SPLINE
  5
4DE
100
AcDbEntity
  8
0
100
AcDbSpline
 62
7
  6
CONTINUOUS
 70
0
 71
3
 72
15
 73
11
 74
0
 42
0.0000001
 43
0.0000001
 44
0.0000000001
 40
0.0
 40
0.0
 40
0.0
 40
0.0
 40
0.1592695856
 40
0.3073044517
 40
0.4442241228
 40
0.5705214721
 40
0.6873319775
 40
0.7963078621
 40
0.8996355388
 40
1.0
 40
1.0
 40
1.0
 40
1.0
 10
48.3778755895
 20
209.1783270798
 30
0.0
 10
48.3643537527
 20
209.1861369244
 30
0.0
 10
48.3387572988
 20
209.2020906372
 30
0.0
 10
48.3037051728
 20
209.2280262141
 30
0.0
 10
48.2736005904
 20
209.2549511423
 30
0.0
 10
48.2486605845
 20
209.2827494466
 30
0.0
 10
48.2290296986
 20
209.3112760469
 30
0.0
 10
48.2148407721
 20
209.3404126035
 30
0.0
 10
48.206258997
 20
209.3700043113
 30
0.0
 10
48.2043287625
 20
209.3900228474
 30
0.0
 10
48.2043265178
 20
209.3998628225
 30
0.0
  0
SPLINE
  5
4DF
100
AcDbEntity
  8
0
100
AcDbSpline
 62
7
  6
CONTINUOUS
 70
0
 71
3
 72
15
 73
11
 74
0
 42
0.0000001
 43
0.0000001
 44
0.0000000001
 40
0.0
 40
0.0
 40
0.0
 40
0.0
 40
0.1196380774
 40
0.239852265
 40
0.3611811076
 40
0.484126488
 40
0.6091581082
 40
0.7366854232
 40
0.8669535094
 40
1.0
 40
1.0
 40
1.0
 40
1.0
 10
15.8738035441
 20
250.6072082151
 30
0.0
 10
15.8470680047
 20
250.6226523679
 30
0.0
 10
15.7917623044
 20
250.6507643093
 30
0.0
 10
15.7044817853
 20
250.6839538723
 30
0.0
 10
15.6133784117
 20
250.7080547218
 30
0.0
 10
15.5190617569
 20
250.7228606058
 30
0.0
 10
15.4221519677
 20
250.7283133363
 30
0.0
 10
15.3232844868
 20
250.724357367
 30
0.0
 10
15.2231685205
 20
250.7110452929
 30
0.0
 10
15.1567550344
 20
250.696192607
 30
0.0
 10
15.1235897993
 20
250.6873023505
 30
0.0
  0
SPLINE
  5
4E0
100
AcDbEntity
  8
0
100
AcDbSpline
 62
7
  6
CONTINUOUS
 70
0
 71
3
 72
22
 73
18
 74
0
 42
0.0000001
 43
0.0000001
 44
0.0000000001
 40
0.0
 40
0.0
 40
0.0
 40
0.0
 40
0.1146403218
 40
0.174289969
 40
0.23531334
 40
0.2975893322
 40
0.3609331851
 40
0.4251290441
 40
0.4899396101
 40
0.5551138024
 40
0.6203898537
 40
0.6855025922
 40
0.7501860302
 40
0.8141880837
 40
0.8773005874
 40
0.9393225732
 40
1.0
 40
1.0
 40
1.0
 40
1.0
 10
12.8095511386
 20
250.0670022918
 30
0.0
 10
12.7263174706
 20
250.0446907159
 30
0.0
 10
12.6029952981
 20
249.9974048527
 30
0.0
 10
12.4477858335
 20
249.9123093628
 30
0.0
 10
12.3332419498
 20
249.8358701878
 30
0.0
 10
12.2233390581
 20
249.7484275813
 30
0.0
 10
12.1190460611
 20
249.6508397143
 30
0.0
 10
12.0214130158
 20
249.5440042036
 30
0.0
 10
11.9313284754
 20
249.4289830554
 30
0.0
 10
11.8496912968
 20
249.3068451676
 30
0.0
 10
11.7772385227
 20
249.1787844878
 30
0.0
 10
11.7147129414
 20
249.0460014595
 30
0.0
 10
11.6626598056
 20
248.909796215
 30
0.0
 10
11.6216221034
 20
248.7714408415
 30
0.0
 10
11.5919600908
 20
248.632243497
 30
0.0
 10
11.5740212544
 20
248.4935794013
 30
0.0
 10
11.5698875713
 20
248.4013064456
 30
0.0
 10
11.5698875712
 20
248.355696769
 30
0.0
  0
SPLINE
  5
4E1
100
AcDbEntity
  8
0
100
AcDbSpline
 62
7
  6
CONTINUOUS
 70
0
 71
3
 72
13
 73
9
 74
0
 42
0.0000001
 43
0.0000001
 44
0.0000000001
 40
0.0
 40
0.0
 40
0.0
 40
0.0
 40
0.2482132923
 40
0.4998384066
 40
0.6259380624
 40
0.7516098896
 40
0.8764323879
 40
1.0
 40
1.0
 40
1.0
 40
1.0
 10
15.7486201541
 20
247.0464300183
 30
0.0
 10
15.7163994208
 20
246.9175184016
 30
0.0
 10
15.6324955377
 20
246.662349073
 30
0.0
 10
15.4845454231
 20
246.3604894863
 30
0.0
 10
15.3417976845
 20
246.1317058773
 30
0.0
 10
15.2234896553
 20
245.9682582983
 30
0.0
 10
15.0950539009
 20
245.8144245965
 30
0.0
 10
15.0027490672
 20
245.7185229662
 30
0.0
 10
14.9551797605
 20
245.6725556313
 30
0.0
  0
SPLINE
  5
4E2
100
AcDbEntity
  8
0
100
AcDbSpline
 62
7
  6
CONTINUOUS
 70
0
 71
3
 72
33
 73
29
 74
0
 42
0.0000001
 43
0.0000001
 44
0.0000000001
 40
0.0
 40
0.0
 40
0.0
 40
0.0
 40
0.0261145487
 40
0.0523206314
 40
0.0787067326
 40
0.1053570499
 40
0.1323470103
 40
0.1597439086
 40
0.1876042548
 40
0.2159721387
 40
0.2743144265
 40
0.334935983
 40
0.3661063061
 40
0.3978121459
 40
0.4626690454
 40
0.4957631924
 40
0.5292236684
 40
0.5969840209
 40
0.6654670754
 40
0.6998214645
 40
0.7341508215
 40
0.8024335265
 40
0.8362729772
 40
0.869818832
 40
0.9030193296
 40
0.9358253446
 40
0.9681751537
 40
1.0
 40
1.0
 40
1.0
 40
1.0
 10
17.8506988274
 20
247.5144382901
 30
0.0
 10
17.8164458625
 20
247.5342223858
 30
0.0
 10
17.7459591378
 20
247.5707323876
 30
0.0
 10
17.6354097093
 20
247.6157738186
 30
0.0
 10
17.5204700297
 20
247.6509179326
 30
0.0
 10
17.4017117848
 20
247.6759683199
 30
0.0
 10
17.2797193157
 20
247.6908563427
 30
0.0
 10
17.1550817364
 20
247.6954752665
 30
0.0
 10
17.0284004267
 20
247.68982444
 30
0.0
 10
16.8560239051
 20
247.6684778546
 30
0.0
 10
16.6383150945
 20
247.6156215443
 30
0.0
 10
16.4263466513
 20
247.5313006823
 30
0.0
 10
16.2599168912
 20
247.4456635796
 30
0.0
 10
16.0936997215
 20
247.3464322765
 30
0.0
 10
15.9345688936
 20
247.2304064307
 30
0.0
 10
15.7842952387
 20
247.099754734
 30
0.0
 10
15.6384066967
 20
246.9578129467
 30
0.0
 10
15.4692755803
 20
246.7635293723
 30
0.0
 10
15.3210021721
 20
246.5512743792
 30
0.0
 10
15.21578092
 20
246.3720208469
 30
0.0
 10
15.1202771491
 20
246.1877616446
 30
0.0
 10
15.0398028644
 20
245.9968780816
 30
0.0
 10
14.9755009408
 20
245.8016181136
 30
0.0
 10
14.9358269671
 20
245.6544307349
 30
0.0
 10
14.9047349888
 20
245.506797657
 30
0.0
 10
14.882414846
 20
245.3594117377
 30
0.0
 10
14.8689497639
 20
245.2130509863
 30
0.0
 10
14.8658795323
 20
245.1158209183
 30
0.0
 10
14.8658795323
 20
245.0676154833
 30
0.0
  0
SPLINE
  5
4E3
100
AcDbEntity
  8
0
100
AcDbSpline
 62
7
  6
CONTINUOUS
 70
0
 71
3
 72
16
 73
12
 74
0
 42
0.0000001
 43
0.0000001
 44
0.0000000001
 40
0.0
 40
0.0
 40
0.0
 40
0.0
 40
0.1196320846
 40
0.2398392208
 40
0.3611704041
 40
0.4841192739
 40
0.5463625279
 40
0.60917675
 40
0.7366734561
 40
0.8669299352
 40
1.0
 40
1.0
 40
1.0
 40
1.0
 10
17.9337971962
 20
250.3039051305
 30
0.0
 10
17.8981478853
 20
250.3244930986
 30
0.0
 10
17.8244086307
 20
250.3619734216
 30
0.0
 10
17.7080382842
 20
250.4062453179
 30
0.0
 10
17.5865602415
 20
250.4383539984
 30
0.0
 10
17.4821677739
 20
250.4547548908
 30
0.0
 10
17.3970781673
 20
250.4616899693
 30
0.0
 10
17.3101862714
 20
250.4645154967
 30
0.0
 10
17.1997811585
 20
250.4601112974
 30
0.0
 10
17.066299207
 20
250.4423605646
 30
0.0
 10
16.9777403885
 20
250.422550662
 30
0.0
 10
16.9335105091
 20
250.4106944224
 30
0.0
  0
SPLINE
  5
4E4
100
AcDbEntity
  8
0
100
AcDbSpline
 62
7
  6
CONTINUOUS
 70
0
 71
3
 72
19
 73
15
 74
0
 42
0.0000001
 43
0.0000001
 44
0.0000000001
 40
0.0
 40
0.0
 40
0.0
 40
0.0
 40
0.0578097109
 40
0.115759576
 40
0.1739858563
 40
0.2326189328
 40
0.3515148503
 40
0.4120675991
 40
0.4734546875
 40
0.5989316076
 40
0.7284223329
 40
0.7947818306
 40
0.8622091999
 40
1.0
 40
1.0
 40
1.0
 40
1.0
 10
19.7917675168
 20
249.2307920813
 30
0.0
 10
19.8170145207
 20
249.2162115889
 30
0.0
 10
19.8664834717
 20
249.1850852945
 30
0.0
 10
19.9370615361
 20
249.1328201396
 30
0.0
 10
20.0038471633
 20
249.0751374391
 30
0.0
 10
20.0878872897
 20
248.990911718
 30
0.0
 10
20.1631274278
 20
248.8967114297
 30
0.0
 10
20.2286767454
 20
248.7943745549
 30
0.0
 10
20.2887053001
 20
248.684883504
 30
0.0
 10
20.3512657974
 20
248.5376009673
 30
0.0
 10
20.3956982733
 20
248.3813339075
 30
0.0
 10
20.4208226141
 20
248.2508917883
 30
0.0
 10
20.4390697351
 20
248.1150940666
 30
0.0
 10
20.4443655879
 20
248.0114747492
 30
0.0
 10
20.4443655879
 20
247.9419836167
 30
0.0
  0
SPLINE
  5
4E5
100
AcDbEntity
  8
0
100
AcDbSpline
 62
7
  6
CONTINUOUS
 70
0
 71
3
 72
13
 73
9
 74
0
 42
0.0000001
 43
0.0000001
 44
0.0000000001
 40
0.0
 40
0.0
 40
0.0
 40
0.0
 40
0.2335091348
 40
0.2940377301
 40
0.3553375052
 40
0.480100489
 40
0.7367913741
 40
1.0
 40
1.0
 40
1.0
 40
1.0
 10
12.8012986164
 20
249.3030157465
 30
0.0
 10
12.6819794951
 20
249.2710311218
 30
0.0
 10
12.5357420711
 20
249.2136516492
 30
0.0
 10
12.370171527
 20
249.1246779655
 30
0.0
 10
12.2582618139
 20
249.0575233696
 30
0.0
 10
12.0660926098
 20
248.9230814219
 30
0.0
 10
11.8138476432
 20
248.6909748707
 30
0.0
 10
11.6439014888
 20
248.4729853788
 30
0.0
 10
11.5672430889
 20
248.3567433783
 30
0.0
  0
SPLINE
  5
4E6
100
AcDbEntity
  8
0
100
AcDbSpline
 62
7
  6
CONTINUOUS
 70
0
 71
3
 72
14
 73
10
 74
0
 42
0.0000001
 43
0.0000001
 44
0.0000000001
 40
0.0
 40
0.0
 40
0.0
 40
0.0
 40
0.2561650912
 40
0.3837844798
 40
0.5104562435
 40
0.6357593953
 40
0.7593472606
 40
0.8808982869
 40
1.0
 40
1.0
 40
1.0
 40
1.0
 10
11.5672430889
 20
248.3567433783
 30
0.0
 10
11.5005537903
 20
248.2556181592
 30
0.0
 10
11.4109647255
 20
248.0969065791
 30
0.0
 10
11.3147205671
 20
247.8753963283
 30
0.0
 10
11.2548268314
 20
247.7060083603
 30
0.0
 10
11.2076956973
 20
247.5346242225
 30
0.0
 10
11.1736849386
 20
247.3626145256
 30
0.0
 10
11.1531316811
 20
247.1914421789
 30
0.0
 10
11.14841386
 20
247.0775958673
 30
0.0
 10
11.14841386
 20
247.0212750495
 30
0.0
  0
SPLINE
  5
4E7
100
AcDbEntity
  8
0
100
AcDbSpline
 62
7
  6
CONTINUOUS
 70
0
 71
3
 72
17
 73
13
 74
0
 42
0.0000001
 43
0.0000001
 44
0.0000000001
 40
0.0
 40
0.0
 40
0.0
 40
0.0
 40
0.1377977187
 40
0.2715571906
 40
0.4010663566
 40
0.5265551582
 40
0.6484406155
 40
0.7673498884
 40
0.8259900327
 40
0.8842233364
 40
0.9421815245
 40
1.0
 40
1.0
 40
1.0
 40
1.0
 10
14.8658795323
 20
245.0676154833
 30
0.0
 10
14.8658795322
 20
244.9894437736
 30
0.0
 10
14.873755112
 20
244.8352520823
 30
0.0
 10
14.9101433477
 20
244.6101883988
 30
0.0
 10
14.9706213575
 20
244.3975425104
 30
0.0
 10
15.0544331722
 20
244.2002098252
 30
0.0
 10
15.1604836356
 20
244.0207920003
 30
0.0
 10
15.2669196332
 20
243.8875852792
 30
0.0
 10
15.3614546123
 20
243.792813709
 30
0.0
 10
15.4365938786
 20
243.7279274976
 30
0.0
 10
15.5159999128
 20
243.6691349408
 30
0.0
 10
15.5716482062
 20
243.6341085597
 30
0.0
 10
15.6000509418
 20
243.6177034852
 30
0.0
  0
SPLINE
  5
4E8
100
AcDbEntity
  8
0
100
AcDbSpline
 62
7
  6
CONTINUOUS
 70
0
 71
3
 72
18
 73
14
 74
0
 42
0.0000001
 43
0.0000001
 44
0.0000000001
 40
0.0
 40
0.0
 40
0.0
 40
0.0
 40
0.0607110889
 40
0.1227493917
 40
0.185877876
 40
0.2499070161
 40
0.3796620411
 40
0.5100705144
 40
0.6390316031
 40
0.7645990589
 40
0.8256483575
 40
0.885313127
 40
1.0
 40
1.0
 40
1.0
 40
1.0
 10
13.00638418
 20
245.9481619993
 30
0.0
 10
13.00638418
 20
246.008985606
 30
0.0
 10
13.0118874023
 20
246.1320207904
 30
0.0
 10
13.0358171089
 20
246.3168983238
 30
0.0
 10
13.0753619044
 20
246.5024913357
 30
0.0
 10
13.1486288783
 20
246.7494563246
 30
0.0
 10
13.2766487248
 20
247.0494167832
 30
0.0
 10
13.4817761169
 20
247.3825819572
 30
0.0
 10
13.7314757195
 20
247.6783763026
 30
0.0
 10
13.9714378911
 20
247.886509381
 30
0.0
 10
14.176910926
 20
248.0236451457
 30
0.0
 10
14.3838651895
 20
248.1371096157
 30
0.0
 10
14.5482876748
 20
248.2001531141
 30
0.0
 10
14.6592689364
 20
248.2299026962
 30
0.0
  0
SPLINE
  5
4E9
100
AcDbEntity
  8
0
100
AcDbSpline
 62
7
  6
CONTINUOUS
 70
0
 71
3
 72
16
 73
12
 74
0
 42
0.0000001
 43
0.0000001
 44
0.0000000001
 40
0.0
 40
0.0
 40
0.0
 40
0.0
 40
0.133070067
 40
0.2633265415
 40
0.3908232417
 40
0.453637463
 40
0.5158807171
 40
0.6388295891
 40
0.7601607744
 40
0.8803679124
 40
1.0
 40
1.0
 40
1.0
 40
1.0
 10
18.7914808292
 20
249.3375813722
 30
0.0
 10
18.8357107093
 20
249.3494376119
 30
0.0
 10
18.9242695268
 20
249.3692475155
 30
0.0
 10
19.0577514756
 20
249.3869982482
 30
0.0
 10
19.1681565846
 20
249.391402446
 30
0.0
 10
19.2550484783
 20
249.3885769201
 30
0.0
 10
19.3401380855
 20
249.3816418423
 30
0.0
 10
19.4445305545
 20
249.365240949
 30
0.0
 10
19.5660086006
 20
249.3331322726
 30
0.0
 10
19.6823789476
 20
249.2888603709
 30
0.0
 10
19.7561182049
 20
249.2513800497
 30
0.0
 10
19.7917675168
 20
249.2307920813
 30
0.0
  0
SPLINE
  5
4EA
100
AcDbEntity
  8
0
100
AcDbSpline
 62
7
  6
CONTINUOUS
 70
0
 71
3
 72
17
 73
13
 74
0
 42
0.0000001
 43
0.0000001
 44
0.0000000001
 40
0.0
 40
0.0
 40
0.0
 40
0.0
 40
0.1377977187
 40
0.2715571906
 40
0.4010663566
 40
0.5265551582
 40
0.6484406155
 40
0.7673498884
 40
0.8259900327
 40
0.8842233364
 40
0.9421815245
 40
1.0
 40
1.0
 40
1.0
 40
1.0
 10
18.584870237
 20
246.064526292
 30
0.0
 10
18.5848702369
 20
246.1426980017
 30
0.0
 10
18.5769946572
 20
246.296889693
 30
0.0
 10
18.5406064216
 20
246.5219533766
 30
0.0
 10
18.4801284118
 20
246.734599265
 30
0.0
 10
18.396316597
 20
246.9319319502
 30
0.0
 10
18.2902661337
 20
247.111349775
 30
0.0
 10
18.183830136
 20
247.2445564961
 30
0.0
 10
18.089295157
 20
247.3393280664
 30
0.0
 10
18.0141558907
 20
247.4042142777
 30
0.0
 10
17.9347498564
 20
247.4630068346
 30
0.0
 10
17.8791015631
 20
247.4980332156
 30
0.0
 10
17.8506988274
 20
247.5144382901
 30
0.0
  0
SPLINE
  5
4EB
100
AcDbEntity
  8
0
100
AcDbSpline
 62
7
  6
CONTINUOUS
 70
0
 71
3
 72
33
 73
29
 74
0
 42
0.0000001
 43
0.0000001
 44
0.0000000001
 40
0.0
 40
0.0
 40
0.0
 40
0.0
 40
0.0261145487
 40
0.0523206314
 40
0.0787067326
 40
0.1053570499
 40
0.1323470103
 40
0.1597439086
 40
0.1876042548
 40
0.2159721387
 40
0.2743144265
 40
0.334935983
 40
0.3661063061
 40
0.3978121459
 40
0.4626690454
 40
0.4957631924
 40
0.5292236684
 40
0.5969840209
 40
0.6654670754
 40
0.6998214645
 40
0.7341508215
 40
0.8024335265
 40
0.8362729772
 40
0.869818832
 40
0.9030193296
 40
0.9358253446
 40
0.9681751537
 40
1.0
 40
1.0
 40
1.0
 40
1.0
 10
15.6000509418
 20
243.6177034852
 30
0.0
 10
15.6343039067
 20
243.5979193895
 30
0.0
 10
15.7047906314
 20
243.5614093877
 30
0.0
 10
15.81534006
 20
243.5163679567
 30
0.0
 10
15.9302797395
 20
243.4812238427
 30
0.0
 10
16.0490379845
 20
243.4561734554
 30
0.0
 10
16.1710304535
 20
243.4412854327
 30
0.0
 10
16.2956680328
 20
243.4366665088
 30
0.0
 10
16.4223493426
 20
243.4423173353
 30
0.0
 10
16.5947258642
 20
243.4636639207
 30
0.0
 10
16.8124346748
 20
243.516520231
 30
0.0
 10
17.024403118
 20
243.600841093
 30
0.0
 10
17.1908328781
 20
243.6864781957
 30
0.0
 10
17.3570500478
 20
243.7857094988
 30
0.0
 10
17.5161808756
 20
243.9017353446
 30
0.0
 10
17.6664545305
 20
244.0323870414
 30
0.0
 10
17.8123430726
 20
244.1743288286
 30
0.0
 10
17.981474189
 20
244.368612403
 30
0.0
 10
18.1297475971
 20
244.5808673961
 30
0.0
 10
18.2349688493
 20
244.7601209284
 30
0.0
 10
18.3304726202
 20
244.9443801307
 30
0.0
 10
18.4109469049
 20
245.1352636938
 30
0.0
 10
18.4752488285
 20
245.3305236617
 30
0.0
 10
18.5149228021
 20
245.4777110405
 30
0.0
 10
18.5460147804
 20
245.6253441183
 30
0.0
 10
18.5683349233
 20
245.7727300376
 30
0.0
 10
18.5818000054
 20
245.919090789
 30
0.0
 10
18.584870237
 20
246.016320857
 30
0.0
 10
18.584870237
 20
246.064526292
 30
0.0
  0
SPLINE
  5
4EC
100
AcDbEntity
  8
0
100
AcDbSpline
 62
7
  6
CONTINUOUS
 70
0
 71
3
 72
11
 73
7
 74
0
 42
0.0000001
 43
0.0000001
 44
0.0000000001
 40
0.0
 40
0.0
 40
0.0
 40
0.0
 40
0.228761197
 40
0.4660933151
 40
0.720787574
 40
1.0
 40
1.0
 40
1.0
 40
1.0
 10
119.4889125776
 20
158.797506705
 30
0.0
 10
119.6842529552
 20
158.8498695497
 30
0.0
 10
120.072047019
 20
158.9993682471
 30
0.0
 10
120.6105110653
 20
159.3472669357
 30
0.0
 10
121.108928787
 20
159.8171240766
 30
0.0
 10
121.3999371372
 20
160.190946983
 30
0.0
 10
121.5397346676
 20
160.3943820179
 30
0.0
  0
SPLINE
  5
4ED
100
AcDbEntity
  8
0
100
AcDbSpline
 62
7
  6
CONTINUOUS
 70
0
 71
3
 72
9
 73
5
 74
0
 42
0.0000001
 43
0.0000001
 44
0.0000000001
 40
0.0
 40
0.0
 40
0.0
 40
0.0
 40
0.2492635128
 40
1.0
 40
1.0
 40
1.0
 40
1.0
 10
110.0013540857
 20
156.2542764827
 30
0.0
 10
109.9745084666
 20
156.2470802593
 30
0.0
 10
109.866398434
 20
156.2197608146
 30
0.0
 10
109.7567159049
 20
156.1986838774
 30
0.0
 10
109.6739173834
 20
156.1863734696
 30
0.0
  0
SPLINE
  5
4EE
100
AcDbEntity
  8
0
100
AcDbSpline
 62
7
  6
CONTINUOUS
 70
0
 71
3
 72
9
 73
5
 74
0
 42
0.0000001
 43
0.0000001
 44
0.0000000001
 40
0.0
 40
0.0
 40
0.0
 40
0.0
 40
0.5063325742
 40
1.0
 40
1.0
 40
1.0
 40
1.0
 10
121.5397346676
 20
160.3943820179
 30
0.0
 10
121.0720853718
 20
161.7429901759
 30
0.0
 10
120.2428465148
 20
164.4403428256
 30
0.0
 10
119.6217348752
 20
167.193502174
 30
0.0
 10
119.3704669424
 20
168.5623162733
 30
0.0
  0
SPLINE
  5
4EF
100
AcDbEntity
  8
0
100
AcDbSpline
 62
7
  6
CONTINUOUS
 70
0
 71
3
 72
9
 73
5
 74
0
 42
0.0000001
 43
0.0000001
 44
0.0000000001
 40
0.0
 40
0.0
 40
0.0
 40
0.0
 40
0.5033130289
 40
1.0
 40
1.0
 40
1.0
 40
1.0
 10
119.3704669424
 20
168.5623162733
 30
0.0
 10
119.1312914174
 20
169.8652554393
 30
0.0
 10
118.7553873722
 20
172.4733299432
 30
0.0
 10
118.589619884
 20
175.1033561521
 30
0.0
 10
118.5609807912
 20
176.4103123141
 30
0.0
  0
SPLINE
  5
4F0
100
AcDbEntity
  8
0
100
AcDbSpline
 62
7
  6
CONTINUOUS
 70
0
 71
3
 72
11
 73
7
 74
0
 42
0.0000001
 43
0.0000001
 44
0.0000000001
 40
0.0
 40
0.0
 40
0.0
 40
0.0
 40
0.2434861731
 40
0.490313369
 40
0.7420054275
 40
1.0
 40
1.0
 40
1.0
 40
1.0
 10
109.0792753943
 20
173.6273805273
 30
0.0
 10
109.1144727277
 20
172.3200433761
 30
0.0
 10
109.2934423339
 20
169.6891595935
 30
0.0
 10
109.8815609357
 20
165.7433429066
 30
0.0
 10
110.7901993758
 20
161.7789778558
 30
0.0
 10
111.5981727834
 20
159.1604078662
 30
0.0
 10
112.0521761762
 20
157.8511517957
 30
0.0
  0
SPLINE
  5
4F1
100
AcDbEntity
  8
0
100
AcDbSpline
 62
7
  6
CONTINUOUS
 70
0
 71
3
 72
11
 73
7
 74
0
 42
0.0000001
 43
0.0000001
 44
0.0000000001
 40
0.0
 40
0.0
 40
0.0
 40
0.0
 40
0.279212426
 40
0.5339066849
 40
0.771238803
 40
1.0
 40
1.0
 40
1.0
 40
1.0
 10
112.0521761757
 20
157.8511517955
 30
0.0
 10
111.9123786454
 20
157.6477167607
 30
0.0
 10
111.6213702951
 20
157.2738938543
 30
0.0
 10
111.1229525735
 20
156.8040367133
 30
0.0
 10
110.5844885272
 20
156.4561380248
 30
0.0
 10
110.1966944634
 20
156.3066393274
 30
0.0
 10
110.0013540857
 20
156.2542764827
 30
0.0
  0
SPLINE
  5
4F2
100
AcDbEntity
  8
0
100
AcDbSpline
 62
7
  6
CONTINUOUS
 70
0
 71
3
 72
11
 73
7
 74
0
 42
0.0000001
 43
0.0000001
 44
0.0000000001
 40
0.0
 40
0.0
 40
0.0
 40
0.0
 40
0.228761197
 40
0.4660933151
 40
0.720787574
 40
1.0
 40
1.0
 40
1.0
 40
1.0
 10
106.5964114681
 20
155.3415492552
 30
0.0
 10
106.7917518457
 20
155.3939120999
 30
0.0
 10
107.1795459095
 20
155.5434107973
 30
0.0
 10
107.7180099558
 20
155.8913094859
 30
0.0
 10
108.2164276774
 20
156.3611666268
 30
0.0
 10
108.5074360277
 20
156.7349895332
 30
0.0
 10
108.6472335581
 20
156.938424568
 30
0.0
  0
SPLINE
  5
4F3
100
AcDbEntity
  8
0
100
AcDbSpline
 62
7
  6
CONTINUOUS
 70
0
 71
3
 72
9
 73
5
 74
0
 42
0.0000001
 43
0.0000001
 44
0.0000000001
 40
0.0
 40
0.0
 40
0.0
 40
0.0
 40
0.2492635128
 40
1.0
 40
1.0
 40
1.0
 40
1.0
 10
97.1088529762
 20
152.7983190329
 30
0.0
 10
97.0820073571
 20
152.7911228095
 30
0.0
 10
96.9738973245
 20
152.7638033648
 30
0.0
 10
96.8642147953
 20
152.7427264276
 30
0.0
 10
96.7814162738
 20
152.7304160198
 30
0.0
  0
SPLINE
  5
4F4
100
AcDbEntity
  8
0
100
AcDbSpline
 62
7
  6
CONTINUOUS
 70
0
 71
3
 72
9
 73
5
 74
0
 42
0.0000001
 43
0.0000001
 44
0.0000000001
 40
0.0
 40
0.0
 40
0.0
 40
0.0
 40
0.5063325742
 40
1.0
 40
1.0
 40
1.0
 40
1.0
 10
108.6472335581
 20
156.938424568
 30
0.0
 10
108.1795842623
 20
158.2870327261
 30
0.0
 10
107.3503454053
 20
160.9843853758
 30
0.0
 10
106.7292337657
 20
163.7375447243
 30
0.0
 10
106.4779658329
 20
165.1063588236
 30
0.0
  0
SPLINE
  5
4F5
100
AcDbEntity
  8
0
100
AcDbSpline
 62
7
  6
CONTINUOUS
 70
0
 71
3
 72
9
 73
5
 74
0
 42
0.0000001
 43
0.0000001
 44
0.0000000001
 40
0.0
 40
0.0
 40
0.0
 40
0.0
 40
0.2522383237
 40
1.0
 40
1.0
 40
1.0
 40
1.0
 10
106.4779658329
 20
165.1063588236
 30
0.0
 10
106.3882183201
 20
165.5952698415
 30
0.0
 10
106.0603022435
 20
167.5385559869
 30
0.0
 10
105.8458757106
 20
169.5011480591
 30
0.0
 10
105.7529132881
 20
170.9718090249
 30
0.0
  0
SPLINE
  5
4F6
100
AcDbEntity
  8
0
100
AcDbSpline
 62
7
  6
CONTINUOUS
 70
0
 71
3
 72
10
 73
6
 74
0
 42
0.0000001
 43
0.0000001
 44
0.0000000001
 40
0.0
 40
0.0
 40
0.0
 40
0.0
 40
0.2439437571
 40
0.4912947885
 40
1.0
 40
1.0
 40
1.0
 40
1.0
 10
96.333976684
 20
167.4880177245
 30
0.0
 10
96.4239381077
 20
166.4001320586
 30
0.0
 10
96.6787666242
 20
164.214474045
 30
0.0
 10
97.4856754747
 20
159.8108608498
 30
0.0
 10
98.4138834816
 20
156.5459099034
 30
0.0
 10
99.1596750667
 20
154.3951943459
 30
0.0
  0
SPLINE
  5
4F7
100
AcDbEntity
  8
0
100
AcDbSpline
 62
7
  6
CONTINUOUS
 70
0
 71
3
 72
11
 73
7
 74
0
 42
0.0000001
 43
0.0000001
 44
0.0000000001
 40
0.0
 40
0.0
 40
0.0
 40
0.0
 40
0.279212426
 40
0.5339066849
 40
0.771238803
 40
1.0
 40
1.0
 40
1.0
 40
1.0
 10
99.1596750662
 20
154.3951943457
 30
0.0
 10
99.0198775358
 20
154.1917593109
 30
0.0
 10
98.7288691855
 20
153.8179364045
 30
0.0
 10
98.2304514639
 20
153.3480792635
 30
0.0
 10
97.6919874176
 20
153.000180575
 30
0.0
 10
97.3041933538
 20
152.8506818776
 30
0.0
 10
97.1088529762
 20
152.7983190329
 30
0.0
  0
SPLINE
  5
4F8
100
AcDbEntity
  8
0
100
AcDbSpline
 62
7
  6
CONTINUOUS
 70
0
 71
3
 72
14
 73
10
 74
0
 42
0.0000001
 43
0.0000001
 44
0.0000000001
 40
0.0
 40
0.0
 40
0.0
 40
0.0
 40
0.1196685974
 40
0.239913452
 40
0.3612732459
 40
0.48424999
 40
0.6093135061
 40
0.7368733537
 40
1.0
 40
1.0
 40
1.0
 40
1.0
 10
44.9517338164
 20
250.2655580592
 30
0.0
 10
44.9160864307
 20
250.2861502629
 30
0.0
 10
44.8423454433
 20
250.3236328437
 30
0.0
 10
44.7259716615
 20
250.3678856287
 30
0.0
 10
44.6044995917
 20
250.4000199669
 30
0.0
 10
44.4787474961
 20
250.4197616319
 30
0.0
 10
44.3495212592
 20
250.4270300772
 30
0.0
 10
44.1720405887
 20
250.4199354815
 30
0.0
 10
44.0388812353
 20
250.3957873287
 30
0.0
 10
43.9514488256
 20
250.3723502403
 30
0.0
  0
SPLINE
  5
4F9
100
AcDbEntity
  8
0
100
AcDbSpline
 62
7
  6
CONTINUOUS
 70
0
 71
3
 72
15
 73
11
 74
0
 42
0.0000001
 43
0.0000001
 44
0.0000000001
 40
0.0
 40
0.0
 40
0.0
 40
0.0
 40
0.1138984503
 40
0.2325552875
 40
0.3554546617
 40
0.4818728479
 40
0.6107653727
 40
0.7409375241
 40
0.871113874
 40
1.0
 40
1.0
 40
1.0
 40
1.0
 10
33.2903421333
 20
247.5145392707
 30
0.0
 10
33.2040728955
 20
247.4914139816
 30
0.0
 10
33.0315455316
 20
247.4297797744
 30
0.0
 10
32.7847282529
 20
247.2984303102
 30
0.0
 10
32.5499196322
 20
247.1292833906
 30
0.0
 10
32.332539396
 20
246.9264293382
 30
0.0
 10
32.1375492538
 20
246.6945176609
 30
0.0
 10
31.9694182177
 20
246.4389315858
 30
0.0
 10
31.8320544003
 20
246.1656339206
 30
0.0
 10
31.7624785185
 20
245.974166161
 30
0.0
 10
31.7338187351
 20
245.8772471067
 30
0.0
  0
SPLINE
  5
4FA
100
AcDbEntity
  8
0
100
AcDbSpline
 62
7
  6
CONTINUOUS
 70
0
 71
3
 72
9
 73
5
 74
0
 42
0.0000001
 43
0.0000001
 44
0.0000000001
 40
0.0
 40
0.0
 40
0.0
 40
0.0
 40
0.2548587422
 40
1.0
 40
1.0
 40
1.0
 40
1.0
 10
35.8102174073
 20
245.779898963
 30
0.0
 10
35.8344249588
 20
245.7912729905
 30
0.0
 10
35.9303316054
 20
245.8338970479
 30
0.0
 10
36.0299155514
 20
245.868363034
 30
0.0
 10
36.1054486787
 20
245.8886104067
 30
0.0
  0
SPLINE
  5
4FB
100
AcDbEntity
  8
0
100
AcDbSpline
 62
7
  6
CONTINUOUS
 70
0
 71
3
 72
9
 73
5
 74
0
 42
0.0000001
 43
0.0000001
 44
0.0000000001
 40
0.0
 40
0.0
 40
0.0
 40
0.0
 40
0.2545292061
 40
1.0
 40
1.0
 40
1.0
 40
1.0
 10
46.7665553711
 20
248.7464213763
 30
0.0
 10
46.7911090472
 20
248.7530032225
 30
0.0
 10
46.8881578355
 20
248.7766153623
 30
0.0
 10
46.9874869524
 20
248.791065046
 30
0.0
 10
47.0617762273
 20
248.795988336
 30
0.0
  0
SPLINE
  5
4FC
100
AcDbEntity
  8
0
100
AcDbSpline
 62
7
  6
CONTINUOUS
 70
0
 71
3
 72
11
 73
7
 74
0
 42
0.0000001
 43
0.0000001
 44
0.0000000001
 40
0.0
 40
0.0
 40
0.0
 40
0.0
 40
0.228761197
 40
0.4660933151
 40
0.720787574
 40
1.0
 40
1.0
 40
1.0
 40
1.0
 10
93.7039103585
 20
151.8855918054
 30
0.0
 10
93.8992507362
 20
151.9379546501
 30
0.0
 10
94.2870447999
 20
152.0874533475
 30
0.0
 10
94.8255088463
 20
152.435352036
 30
0.0
 10
95.3239265679
 20
152.905209177
 30
0.0
 10
95.6149349182
 20
153.2790320834
 30
0.0
 10
95.7547324485
 20
153.4824671182
 30
0.0
  0
SPLINE
  5
4FD
100
AcDbEntity
  8
0
100
AcDbSpline
 62
7
  6
CONTINUOUS
 70
0
 71
3
 72
9
 73
5
 74
0
 42
0.0000001
 43
0.0000001
 44
0.0000000001
 40
0.0
 40
0.0
 40
0.0
 40
0.0
 40
0.2492635128
 40
1.0
 40
1.0
 40
1.0
 40
1.0
 10
84.2163518667
 20
149.342361583
 30
0.0
 10
84.1895062476
 20
149.3351653597
 30
0.0
 10
84.0813962149
 20
149.307845915
 30
0.0
 10
83.9717136858
 20
149.2867689778
 30
0.0
 10
83.8889151643
 20
149.27445857
 30
0.0
  0
SPLINE
  5
4FE
100
AcDbEntity
  8
0
100
AcDbSpline
 62
7
  6
CONTINUOUS
 70
0
 71
3
 72
9
 73
5
 74
0
 42
0.0000001
 43
0.0000001
 44
0.0000000001
 40
0.0
 40
0.0
 40
0.0
 40
0.0
 40
0.5063325742
 40
1.0
 40
1.0
 40
1.0
 40
1.0
 10
95.7547324485
 20
153.4824671182
 30
0.0
 10
95.2870831527
 20
154.8310752763
 30
0.0
 10
94.4578442958
 20
157.5284279259
 30
0.0
 10
93.8367326562
 20
160.2815872744
 30
0.0
 10
93.5854647233
 20
161.6504013736
 30
0.0
  0
SPLINE
  5
4FF
100
AcDbEntity
  8
0
100
AcDbSpline
 62
7
  6
CONTINUOUS
 70
0
 71
3
 72
9
 73
5
 74
0
 42
0.0000001
 43
0.0000001
 44
0.0000000001
 40
0.0
 40
0.0
 40
0.0
 40
0.0
 40
0.5029941434
 40
1.0
 40
1.0
 40
1.0
 40
1.0
 10
93.5854647233
 20
161.6504013736
 30
0.0
 10
93.38402839
 20
162.7477514815
 30
0.0
 10
93.0540174885
 20
164.9429789318
 30
0.0
 10
92.8719374666
 20
167.1555118249
 30
0.0
 10
92.8192844264
 20
168.2566565244
 30
0.0
  0
SPLINE
  5
500
100
AcDbEntity
  8
0
100
AcDbSpline
 62
7
  6
CONTINUOUS
 70
0
 71
3
 72
11
 73
7
 74
0
 42
0.0000001
 43
0.0000001
 44
0.0000000001
 40
0.0
 40
0.0
 40
0.0
 40
0.0
 40
0.2434739855
 40
0.4902770497
 40
0.7419636498
 40
1.0
 40
1.0
 40
1.0
 40
1.0
 10
83.2905897109
 20
166.8604365853
 30
0.0
 10
83.3221081587
 20
165.5413076186
 30
0.0
 10
83.4957059641
 20
162.8864282877
 30
0.0
 10
84.0818543992
 20
158.9042002726
 30
0.0
 10
84.9945359893
 20
154.9030951192
 30
0.0
 10
85.8090137102
 20
152.2604805125
 30
0.0
 10
86.2671739572
 20
150.939236896
 30
0.0
  0
SPLINE
  5
501
100
AcDbEntity
  8
0
100
AcDbSpline
 62
7
  6
CONTINUOUS
 70
0
 71
3
 72
11
 73
7
 74
0
 42
0.0000001
 43
0.0000001
 44
0.0000000001
 40
0.0
 40
0.0
 40
0.0
 40
0.0
 40
0.279212426
 40
0.5339066849
 40
0.771238803
 40
1.0
 40
1.0
 40
1.0
 40
1.0
 10
86.2671739566
 20
150.9392368959
 30
0.0
 10
86.1273764263
 20
150.7358018611
 30
0.0
 10
85.836368076
 20
150.3619789547
 30
0.0
 10
85.3379503544
 20
149.8921218137
 30
0.0
 10
84.7994863081
 20
149.5442231252
 30
0.0
 10
84.4116922443
 20
149.3947244278
 30
0.0
 10
84.2163518667
 20
149.342361583
 30
0.0
  0
SPLINE
  5
502
100
AcDbEntity
  8
0
100
AcDbSpline
 62
7
  6
CONTINUOUS
 70
0
 71
3
 72
11
 73
7
 74
0
 42
0.0000001
 43
0.0000001
 44
0.0000000001
 40
0.0
 40
0.0
 40
0.0
 40
0.0
 40
0.228761197
 40
0.4660933151
 40
0.720787574
 40
1.0
 40
1.0
 40
1.0
 40
1.0
 10
80.811409249
 20
148.4296343556
 30
0.0
 10
81.0067496266
 20
148.4819972003
 30
0.0
 10
81.3945436904
 20
148.6314958977
 30
0.0
 10
81.9330077367
 20
148.9793945862
 30
0.0
 10
82.4314254583
 20
149.4492517272
 30
0.0
 10
82.7224338086
 20
149.8230746336
 30
0.0
 10
82.862231339
 20
150.0265096684
 30
0.0
  0
SPLINE
  5
503
100
AcDbEntity
  8
0
100
AcDbSpline
 62
7
  6
CONTINUOUS
 70
0
 71
3
 72
9
 73
5
 74
0
 42
0.0000001
 43
0.0000001
 44
0.0000000001
 40
0.0
 40
0.0
 40
0.0
 40
0.0
 40
0.2492635128
 40
1.0
 40
1.0
 40
1.0
 40
1.0
 10
71.3238507571
 20
145.8864041332
 30
0.0
 10
71.297005138
 20
145.8792079099
 30
0.0
 10
71.1888951054
 20
145.8518884652
 30
0.0
 10
71.0792125763
 20
145.830811528
 30
0.0
 10
70.9964140548
 20
145.8185011201
 30
0.0
  0
SPLINE
  5
504
100
AcDbEntity
  8
0
100
AcDbSpline
 62
7
  6
CONTINUOUS
 70
0
 71
3
 72
9
 73
5
 74
0
 42
0.0000001
 43
0.0000001
 44
0.0000000001
 40
0.0
 40
0.0
 40
0.0
 40
0.0
 40
0.5063325742
 40
1.0
 40
1.0
 40
1.0
 40
1.0
 10
82.862231339
 20
150.0265096684
 30
0.0
 10
82.3945820432
 20
151.3751178265
 30
0.0
 10
81.5653431862
 20
154.0724704761
 30
0.0
 10
80.9442315466
 20
156.8256298246
 30
0.0
 10
80.6929636138
 20
158.1944439239
 30
0.0
  0
SPLINE
  5
505
100
AcDbEntity
  8
0
100
AcDbSpline
 62
7
  6
CONTINUOUS
 70
0
 71
3
 72
9
 73
5
 74
0
 42
0.0000001
 43
0.0000001
 44
0.0000000001
 40
0.0
 40
0.0
 40
0.0
 40
0.0
 40
0.5033193485
 40
1.0
 40
1.0
 40
1.0
 40
1.0
 10
80.6929636138
 20
158.1944439239
 30
0.0
 10
80.4529284189
 20
159.5020662514
 30
0.0
 10
80.0760367932
 20
162.119556605
 30
0.0
 10
79.910831249
 20
164.7591000508
 30
0.0
 10
79.882865758
 20
166.0707374256
 30
0.0
  0
SPLINE
  5
506
100
AcDbEntity
  8
0
100
AcDbSpline
 62
7
  6
CONTINUOUS
 70
0
 71
3
 72
11
 73
7
 74
0
 42
0.0000001
 43
0.0000001
 44
0.0000000001
 40
0.0
 40
0.0
 40
0.0
 40
0.0
 40
0.2434739855
 40
0.4902770497
 40
0.7419636498
 40
1.0
 40
1.0
 40
1.0
 40
1.0
 10
70.3980886014
 20
163.4044791354
 30
0.0
 10
70.4296070492
 20
162.0853501688
 30
0.0
 10
70.6032048545
 20
159.4304708379
 30
0.0
 10
71.1893532897
 20
155.4482428228
 30
0.0
 10
72.1020348797
 20
151.4471376693
 30
0.0
 10
72.9165126006
 20
148.8045230626
 30
0.0
 10
73.3746728476
 20
147.4832794462
 30
0.0
  0
SPLINE
  5
507
100
AcDbEntity
  8
0
100
AcDbSpline
 62
7
  6
CONTINUOUS
 70
0
 71
3
 72
11
 73
7
 74
0
 42
0.0000001
 43
0.0000001
 44
0.0000000001
 40
0.0
 40
0.0
 40
0.0
 40
0.0
 40
0.279212426
 40
0.5339066849
 40
0.771238803
 40
1.0
 40
1.0
 40
1.0
 40
1.0
 10
73.3746728471
 20
147.4832794461
 30
0.0
 10
73.2348753168
 20
147.2798444113
 30
0.0
 10
72.9438669665
 20
146.9060215049
 30
0.0
 10
72.4454492449
 20
146.4361643639
 30
0.0
 10
71.9069851985
 20
146.0882656754
 30
0.0
 10
71.5191911348
 20
145.938766978
 30
0.0
 10
71.3238507571
 20
145.8864041332
 30
0.0
  0
LINE
  5
508
100
AcDbEntity
  8
0
100
AcDbLine
 62
7
  6
CONTINUOUS
 10
107.2483828638
 20
172.2345195388
 11
107.1553541052
 21
172.1486085207
  0
SPLINE
  5
509
100
AcDbEntity
  8
0
100
AcDbSpline
 62
7
  6
CONTINUOUS
 70
0
 71
3
 72
9
 73
5
 74
0
 42
0.0000001
 43
0.0000001
 44
0.0000000001
 40
0.0
 40
0.0
 40
0.0
 40
0.0
 40
0.4997583765
 40
1.0
 40
1.0
 40
1.0
 40
1.0
 10
105.9633954058
 20
171.1212168458
 30
0.0
 10
105.9476474814
 20
171.1085000947
 30
0.0
 10
105.9158546508
 20
171.083404962
 30
0.0
 10
105.8844851875
 20
171.0577826697
 30
0.0
 10
105.8686560465
 20
171.0451357764
 30
0.0
  0
SPLINE
  5
50A
100
AcDbEntity
  8
0
100
AcDbSpline
 62
7
  6
CONTINUOUS
 70
0
 71
3
 72
11
 73
7
 74
0
 42
0.0000001
 43
0.0000001
 44
0.0000000001
 40
0.0
 40
0.0
 40
0.0
 40
0.0
 40
0.2499086722
 40
0.4998107094
 40
0.7499137246
 40
1.0
 40
1.0
 40
1.0
 40
1.0
 10
94.0472183294
 20
167.8760782163
 30
0.0
 10
94.0391250187
 20
167.8781181949
 30
0.0
 10
94.022981364
 20
167.88236548
 30
0.0
 10
93.9987476352
 20
167.8886911082
 30
0.0
 10
93.9744519654
 20
167.8947988462
 30
0.0
 10
93.9582446696
 20
167.8988488414
 30
0.0
 10
93.9501622761
 20
167.9009552973
 30
0.0
  0
LINE
  5
50B
100
AcDbEntity
  8
0
100
AcDbLine
 62
7
  6
CONTINUOUS
 10
92.7314418172
 20
168.2821403616
 11
92.6360327128
 21
168.3175926703
  0
SPLINE
  5
50C
100
AcDbEntity
  8
0
100
AcDbSpline
 62
7
  6
CONTINUOUS
 70
0
 71
3
 72
9
 73
5
 74
0
 42
0.0000001
 43
0.0000001
 44
0.0000000001
 40
0.0
 40
0.0
 40
0.0
 40
0.0
 40
0.5008233918
 40
1.0
 40
1.0
 40
1.0
 40
1.0
 10
93.0630475442
 20
171.5337127381
 30
0.0
 10
93.0630475442
 20
171.5222780023
 30
0.0
 10
93.0632778492
 20
171.4994464034
 30
0.0
 10
93.0637233859
 20
171.4766184219
 30
0.0
 10
93.064031973
 20
171.4652254637
 30
0.0
  0
SPLINE
  5
50D
100
AcDbEntity
  8
0
100
AcDbSpline
 62
7
  6
CONTINUOUS
 70
0
 71
3
 72
15
 73
11
 74
0
 42
0.0000001
 43
0.0000001
 44
0.0000000001
 40
0.0
 40
0.0
 40
0.0
 40
0.0
 40
0.1380502246
 40
0.2712435956
 40
0.3998074849
 40
0.5243494059
 40
0.6457320302
 40
0.7648976997
 40
0.8827357635
 40
1.0
 40
1.0
 40
1.0
 40
1.0
 10
93.0631005664
 20
171.3961143911
 30
0.0
 10
93.0631005663
 20
171.290459702
 30
0.0
 10
93.0761554665
 20
171.0825719691
 30
0.0
 10
93.1365169166
 20
170.7816428574
 30
0.0
 10
93.2349600457
 20
170.5018036421
 30
0.0
 10
93.3678359051
 20
170.2467789582
 30
0.0
 10
93.5307399974
 20
170.0186830709
 30
0.0
 10
93.7190950665
 20
169.8182250721
 30
0.0
 10
93.9285132905
 20
169.6450185688
 30
0.0
 10
94.0797815014
 20
169.54681111
 30
0.0
 10
94.157496733
 20
169.5019249587
 30
0.0
  0
SPLINE
  5
50E
100
AcDbEntity
  8
0
100
AcDbSpline
 62
7
  6
CONTINUOUS
 70
0
 71
3
 72
11
 73
7
 74
0
 42
0.0000001
 43
0.0000001
 44
0.0000000001
 40
0.0
 40
0.0
 40
0.0
 40
0.0
 40
0.236043681
 40
0.4780274358
 40
0.7319665456
 40
1.0
 40
1.0
 40
1.0
 40
1.0
 10
77.6472450267
 20
182.7881633658
 30
0.0
 10
77.6263467008
 20
182.8002464267
 30
0.0
 10
77.5874133811
 20
182.8311585005
 30
0.0
 10
77.5440141449
 20
182.8933080161
 30
0.0
 10
77.5175105236
 20
182.9676717606
 30
0.0
 10
77.5118902864
 20
183.021285438
 30
0.0
 10
77.5118883397
 20
183.0486970253
 30
0.0
  0
SPLINE
  5
50F
100
AcDbEntity
  8
0
100
AcDbSpline
 62
7
  6
CONTINUOUS
 70
0
 71
3
 72
9
 73
5
 74
0
 42
0.0000001
 43
0.0000001
 44
0.0000000001
 40
0.0
 40
0.0
 40
0.0
 40
0.0
 40
0.2459230478
 40
1.0
 40
1.0
 40
1.0
 40
1.0
 10
117.710825103
 20
198.3707415358
 30
0.0
 10
117.7154863172
 20
198.3440800646
 30
0.0
 10
117.7319672787
 20
198.2352435636
 30
0.0
 10
117.7387374491
 20
198.1249754176
 30
0.0
 10
117.7387374491
 20
198.0419830183
 30
0.0
  0
SPLINE
  5
510
100
AcDbEntity
  8
0
100
AcDbSpline
 62
7
  6
CONTINUOUS
 70
0
 71
3
 72
15
 73
11
 74
0
 42
0.0000001
 43
0.0000001
 44
0.0000000001
 40
0.0
 40
0.0
 40
0.0
 40
0.0
 40
0.1139576762
 40
0.2294633411
 40
0.3476008463
 40
0.4692474039
 40
0.5950757126
 40
0.7255172722
 40
0.8606448233
 40
1.0
 40
1.0
 40
1.0
 40
1.0
 10
116.8660543994
 20
194.838692448
 30
0.0
 10
116.8169267379
 20
194.8670676702
 30
0.0
 10
116.7223056183
 20
194.9320461568
 30
0.0
 10
116.5960112945
 20
195.0512760806
 30
0.0
 10
116.4862927378
 20
195.1908069616
 30
0.0
 10
116.3946853721
 20
195.3487448663
 30
0.0
 10
116.3223094878
 20
195.5229607337
 30
0.0
 10
116.2700707802
 20
195.7111653809
 30
0.0
 10
116.2387064037
 20
195.9106971413
 30
0.0
 10
116.231876764
 20
196.047461872
 30
0.0
 10
116.231876764
 20
196.11683934
 30
0.0
  0
SPLINE
  5
511
100
AcDbEntity
  8
0
100
AcDbSpline
 62
7
  6
CONTINUOUS
 70
0
 71
3
 72
29
 73
25
 74
0
 42
0.0000001
 43
0.0000001
 44
0.0000000001
 40
0.0
 40
0.0
 40
0.0
 40
0.0
 40
0.0663035933
 40
0.1319786956
 40
0.1970378846
 40
0.2615474245
 40
0.3254999536
 40
0.3572445986
 40
0.3888558228
 40
0.4204101782
 40
0.451982214
 40
0.4836320465
 40
0.5152751284
 40
0.5467503964
 40
0.5779347257
 40
0.6394709609
 40
0.6700050618
 40
0.700428573
 40
0.7307466569
 40
0.7609625709
 40
0.8211191877
 40
0.8809813775
 40
0.9405942752
 40
1.0
 40
1.0
 40
1.0
 40
1.0
 10
90.2688798118
 20
168.6290423383
 30
0.0
 10
90.3096831425
 20
168.6394238092
 30
0.0
 10
90.3912905333
 20
168.6586004043
 30
0.0
 10
90.5141120695
 20
168.6826276588
 30
0.0
 10
90.6366338828
 20
168.7017821608
 30
0.0
 10
90.7586618044
 20
168.7164826756
 30
0.0
 10
90.8600616321
 20
168.7250498511
 30
0.0
 10
90.9407992791
 20
168.72926814
 30
0.0
 10
91.0010398829
 20
168.7311894343
 30
0.0
 10
91.0611825905
 20
168.7325762561
 30
0.0
 10
91.1213508356
 20
168.7339829816
 30
0.0
 10
91.1815503625
 20
168.7362138635
 30
0.0
 10
91.2416854454
 20
168.7385069418
 30
0.0
 10
91.3015669577
 20
168.7395751479
 30
0.0
 10
91.3804479873
 20
168.7377280772
 30
0.0
 10
91.4583728317
 20
168.7289738263
 30
0.0
 10
91.5351056227
 20
168.7162487614
 30
0.0
 10
91.5920728642
 20
168.7055338941
 30
0.0
 10
91.6486503876
 20
168.6938984038
 30
0.0
 10
91.723386644
 20
168.67690219
 30
0.0
 10
91.8156357763
 20
168.6524123781
 30
0.0
 10
91.9242639615
 20
168.6174548633
 30
0.0
 10
92.0306691207
 20
168.5775844003
 30
0.0
 10
92.1001277934
 20
168.5477044909
 30
0.0
 10
92.1344038284
 20
168.5319506105
 30
0.0
  0
SPLINE
  5
512
100
AcDbEntity
  8
0
100
AcDbSpline
 62
7
  6
CONTINUOUS
 70
0
 71
3
 72
11
 73
7
 74
0
 42
0.0000001
 43
0.0000001
 44
0.0000000001
 40
0.0
 40
0.0
 40
0.0
 40
0.0
 40
0.2284753658
 40
0.4678723533
 40
0.7246374828
 40
1.0
 40
1.0
 40
1.0
 40
1.0
 10
120.9734146878
 20
194.3847450048
 30
0.0
 10
120.953829244
 20
194.3960681183
 30
0.0
 10
120.9172358678
 20
194.4258923494
 30
0.0
 10
120.8770727919
 20
194.4864593152
 30
0.0
 10
120.8526613399
 20
194.5596358787
 30
0.0
 10
120.8475652482
 20
194.6125341733
 30
0.0
 10
120.8475639873
 20
194.639799873
 30
0.0
  0
SPLINE
  5
513
100
AcDbEntity
  8
0
100
AcDbSpline
 62
7
  6
CONTINUOUS
 70
0
 71
3
 72
9
 73
5
 74
0
 42
0.0000001
 43
0.0000001
 44
0.0000000001
 40
0.0
 40
0.0
 40
0.0
 40
0.0
 40
0.252103593
 40
1.0
 40
1.0
 40
1.0
 40
1.0
 10
71.0735915333
 20
163.9877498128
 30
0.0
 10
72.6911061699
 20
164.3589980391
 30
0.0
 10
79.1029375819
 20
165.849999396
 30
0.0
 10
85.4975574431
 20
167.4151197601
 30
0.0
 10
90.2688799192
 20
168.6290423648
 30
0.0
  0
SPLINE
  5
514
100
AcDbEntity
  8
0
100
AcDbSpline
 62
7
  6
CONTINUOUS
 70
0
 71
3
 72
10
 73
6
 74
0
 42
0.0000001
 43
0.0000001
 44
0.0000000001
 40
0.0
 40
0.0
 40
0.0
 40
0.0
 40
0.499687567
 40
0.7497346744
 40
1.0
 40
1.0
 40
1.0
 40
1.0
 10
92.1344038284
 20
168.5319506105
 30
0.0
 10
92.2169731627
 20
168.4940002513
 30
0.0
 10
92.3415210716
 20
168.4384697872
 30
0.0
 10
92.5091334382
 20
168.3678958955
 30
0.0
 10
92.5935853749
 20
168.3340145167
 30
0.0
 10
92.6360327128
 20
168.3175926703
 30
0.0
  0
SPLINE
  5
515
100
AcDbEntity
  8
0
100
AcDbSpline
 62
7
  6
CONTINUOUS
 70
0
 71
3
 72
21
 73
17
 74
0
 42
0.0000001
 43
0.0000001
 44
0.0000000001
 40
0.0
 40
0.0
 40
0.0
 40
0.0
 40
0.0583987839
 40
0.1171151101
 40
0.1763624973
 40
0.2362559133
 40
0.2968461602
 40
0.3581389279
 40
0.4201041201
 40
0.4827047799
 40
0.6095704777
 40
0.6737438679
 40
0.7383320476
 40
0.8032927295
 40
0.8685773102
 40
1.0
 40
1.0
 40
1.0
 40
1.0
 10
105.760131588
 20
177.1053296825
 30
0.0
 10
105.6703701064
 20
177.1571734762
 30
0.0
 10
105.4836998298
 20
177.2499466087
 30
0.0
 10
105.1893232778
 20
177.3578999594
 30
0.0
 10
104.8835430235
 20
177.43806866
 30
0.0
 10
104.5690657305
 20
177.4934929061
 30
0.0
 10
104.2479332998
 20
177.5270490396
 30
0.0
 10
103.9217477858
 20
177.541315701
 30
0.0
 10
103.5917325137
 20
177.5387431432
 30
0.0
 10
103.1459358482
 20
177.5154946726
 30
0.0
 10
102.6979975363
 20
177.4666989441
 30
0.0
 10
102.2492830651
 20
177.3992554971
 30
0.0
 10
101.9104940592
 20
177.3402501595
 30
0.0
 10
101.5710358768
 20
177.2740820525
 30
0.0
 10
101.1166936222
 20
177.1775895926
 30
0.0
 10
100.7768113486
 20
177.0974204068
 30
0.0
 10
100.5503969865
 20
177.0412629551
 30
0.0
  0
SPLINE
  5
516
100
AcDbEntity
  8
0
100
AcDbSpline
 62
7
  6
CONTINUOUS
 70
0
 71
3
 72
9
 73
5
 74
0
 42
0.0000001
 43
0.0000001
 44
0.0000000001
 40
0.0
 40
0.0
 40
0.0
 40
0.0
 40
0.4971632434
 40
1.0
 40
1.0
 40
1.0
 40
1.0
 10
100.5328586611
 20
177.036907418
 30
0.0
 10
100.187473193
 20
176.9510246899
 30
0.0
 10
99.4957481941
 20
176.7661536055
 30
0.0
 10
98.8105401314
 20
176.5581665451
 30
0.0
 10
98.4685674434
 20
176.4457871443
 30
0.0
  0
SPLINE
  5
517
100
AcDbEntity
  8
0
100
AcDbSpline
 62
7
  6
CONTINUOUS
 70
0
 71
3
 72
9
 73
5
 74
0
 42
0.0000001
 43
0.0000001
 44
0.0000000001
 40
0.0
 40
0.0
 40
0.0
 40
0.0
 40
0.4952131225
 40
1.0
 40
1.0
 40
1.0
 40
1.0
 10
98.4532143062
 20
176.4407359719
 30
0.0
 10
98.1285228963
 20
176.3337896681
 30
0.0
 10
97.4774455239
 20
176.1035147061
 30
0.0
 10
96.8419231146
 20
175.8318431004
 30
0.0
 10
96.528067295
 20
175.6804538088
 30
0.0
  0
SPLINE
  5
518
100
AcDbEntity
  8
0
100
AcDbSpline
 62
7
  6
CONTINUOUS
 70
0
 71
3
 72
17
 73
13
 74
0
 42
0.0000001
 43
0.0000001
 44
0.0000000001
 40
0.0
 40
0.0
 40
0.0
 40
0.0
 40
0.1190159684
 40
0.2403556406
 40
0.3642827688
 40
0.4908327285
 40
0.6195534229
 40
0.7491083863
 40
0.8135213217
 40
0.8771051182
 40
0.9393999496
 40
1.0
 40
1.0
 40
1.0
 40
1.0
 10
96.3756838292
 20
175.6055255288
 30
0.0
 10
96.1803335321
 20
175.5075972751
 30
0.0
 10
95.7916202346
 20
175.2978850943
 30
0.0
 10
95.2270421865
 20
174.9379785093
 30
0.0
 10
94.6849086916
 20
174.5213671928
 30
0.0
 10
94.1792376552
 20
174.0405393375
 30
0.0
 10
93.7307992076
 20
173.4918188776
 30
0.0
 10
93.4273868351
 20
172.9793400069
 30
0.0
 10
93.2440666127
 20
172.5427330007
 30
0.0
 10
93.1416391413
 20
172.2079867636
 30
0.0
 10
93.0780710436
 20
171.8708327191
 30
0.0
 10
93.0630443105
 20
171.6449805055
 30
0.0
 10
93.0630443108
 20
171.5337146056
 30
0.0
  0
SPLINE
  5
519
100
AcDbEntity
  8
0
100
AcDbSpline
 62
7
  6
CONTINUOUS
 70
0
 71
3
 72
19
 73
15
 74
0
 42
0.0000001
 43
0.0000001
 44
0.0000000001
 40
0.0
 40
0.0
 40
0.0
 40
0.0
 40
0.1249882938
 40
0.1876151053
 40
0.2502438815
 40
0.312803912
 40
0.375258917
 40
0.4376420281
 40
0.4999883295
 40
0.5623265191
 40
0.624685081
 40
0.7495637753
 40
0.874680257
 40
1.0
 40
1.0
 40
1.0
 40
1.0
 10
92.7314418172
 20
168.2821403616
 30
0.0
 10
92.7816710228
 20
168.2645777634
 30
0.0
 10
92.8578826091
 20
168.2405638407
 30
0.0
 10
92.9600085542
 20
168.2102459351
 30
0.0
 10
93.0366920025
 20
168.1875934451
 30
0.0
 10
93.1131070947
 20
168.1642948157
 30
0.0
 10
93.1889954859
 20
168.1396678319
 30
0.0
 10
93.2645053445
 20
168.1141957569
 30
0.0
 10
93.3398134806
 20
168.0882875619
 30
0.0
 10
93.4151079454
 20
168.0623722434
 30
0.0
 10
93.515760101
 20
168.0283317327
 30
0.0
 10
93.6424885852
 20
167.9879997905
 30
0.0
 10
93.7957849698
 20
167.9429022859
 30
0.0
 10
93.8986071114
 20
167.9146855488
 30
0.0
 10
93.9501622761
 20
167.9009552973
 30
0.0
  0
SPLINE
  5
51A
100
AcDbEntity
  8
0
100
AcDbSpline
 62
7
  6
CONTINUOUS
 70
0
 71
3
 72
20
 73
16
 74
0
 42
0.0000001
 43
0.0000001
 44
0.0000000001
 40
0.0
 40
0.0
 40
0.0
 40
0.0
 40
0.1248591148
 40
0.1874871563
 40
0.2501463064
 40
0.3127507862
 40
0.3752384598
 40
0.4376328402
 40
0.4999752261
 40
0.5623021963
 40
0.6246496387
 40
0.6870550203
 40
0.749533249
 40
0.8746767639
 40
1.0
 40
1.0
 40
1.0
 40
1.0
 10
94.0472183294
 20
167.8760782163
 30
0.0
 10
94.0983213663
 20
167.8636252124
 30
0.0
 10
94.1756254697
 20
167.8472743053
 30
0.0
 10
94.2791123792
 20
167.8274258181
 30
0.0
 10
94.3569048959
 20
167.8128166243
 30
0.0
 10
94.4345695458
 20
167.7978488393
 30
0.0
 10
94.5119072901
 20
167.7818091032
 30
0.0
 10
94.5889672693
 20
167.7650033181
 30
0.0
 10
94.6658684949
 20
167.7477951342
 30
0.0
 10
94.7427369619
 20
167.7305320234
 30
0.0
 10
94.8196958256
 20
167.71355
 30
0.0
 10
94.8968675914
 20
167.6972480961
 30
0.0
 10
95.0001355149
 20
167.6765158712
 30
0.0
 10
95.1297098229
 20
167.6521944067
 30
0.0
 10
95.2336420464
 20
167.6339935414
 30
0.0
 10
95.2856779522
 20
167.6250790481
 30
0.0
  0
SPLINE
  5
51B
100
AcDbEntity
  8
0
100
AcDbSpline
 62
7
  6
CONTINUOUS
 70
0
 71
3
 72
9
 73
5
 74
0
 42
0.0000001
 43
0.0000001
 44
0.0000000001
 40
0.0
 40
0.0
 40
0.0
 40
0.0
 40
0.2556348699
 40
1.0
 40
1.0
 40
1.0
 40
1.0
 10
96.1953898839
 20
167.502786365
 30
0.0
 10
96.2150932526
 20
167.5015813129
 30
0.0
 10
96.2921959218
 20
167.4973185835
 30
0.0
 10
96.3694066755
 20
167.4949427561
 30
0.0
 10
96.4268839808
 20
167.4943810291
 30
0.0
  0
SPLINE
  5
51C
100
AcDbEntity
  8
0
100
AcDbSpline
 62
7
  6
CONTINUOUS
 70
0
 71
3
 72
9
 73
5
 74
0
 42
0.0000001
 43
0.0000001
 44
0.0000000001
 40
0.0
 40
0.0
 40
0.0
 40
0.0
 40
0.2491273404
 40
1.0
 40
1.0
 40
1.0
 40
1.0
 10
95.2856625938
 20
167.6251058621
 30
0.0
 10
95.3608041626
 20
167.6122406157
 30
0.0
 10
95.662883651
 20
167.563321901
 30
0.0
 10
95.966721109
 20
167.5252863671
 30
0.0
 10
96.1953898839
 20
167.502786365
 30
0.0
  0
SPLINE
  5
51D
100
AcDbEntity
  8
0
100
AcDbSpline
 62
7
  6
CONTINUOUS
 70
0
 71
3
 72
11
 73
7
 74
0
 42
0.0000001
 43
0.0000001
 44
0.0000000001
 40
0.0
 40
0.0
 40
0.0
 40
0.0
 40
0.2482552893
 40
0.4975234029
 40
0.747987889
 40
1.0
 40
1.0
 40
1.0
 40
1.0
 10
103.4770271279
 20
169.3842231055
 30
0.0
 10
103.3738312692
 20
169.3425859148
 30
0.0
 10
103.1658007966
 20
169.2621284167
 30
0.0
 10
102.8497520027
 20
169.1500671234
 30
0.0
 10
102.5289292308
 20
169.046876574
 30
0.0
 10
102.3124850092
 20
168.9843878754
 30
0.0
 10
102.2033725207
 20
168.9551453703
 30
0.0
  0
SPLINE
  5
51E
100
AcDbEntity
  8
0
100
AcDbSpline
 62
7
  6
CONTINUOUS
 70
0
 71
3
 72
9
 73
5
 74
0
 42
0.0000001
 43
0.0000001
 44
0.0000000001
 40
0.0
 40
0.0
 40
0.0
 40
0.0
 40
0.2488296608
 40
1.0
 40
1.0
 40
1.0
 40
1.0
 10
103.7547712172
 20
169.5291326592
 30
0.0
 10
103.8304447574
 20
169.5775006299
 30
0.0
 10
104.1332877164
 20
169.7738707339
 30
0.0
 10
104.4310167605
 20
169.9781210389
 30
0.0
 10
104.6516333229
 20
170.1357128749
 30
0.0
  0
SPLINE
  5
51F
100
AcDbEntity
  8
0
100
AcDbSpline
 62
7
  6
CONTINUOUS
 70
0
 71
3
 72
18
 73
14
 74
0
 42
0.0000001
 43
0.0000001
 44
0.0000000001
 40
0.0
 40
0.0
 40
0.0
 40
0.0
 40
0.1245449549
 40
0.2493371056
 40
0.3743355927
 40
0.4995381864
 40
0.562221697
 40
0.6249533104
 40
0.7503520347
 40
0.812893256
 40
0.8752382175
 40
0.9374644879
 40
1.0
 40
1.0
 40
1.0
 40
1.0
 10
104.6515254676
 20
170.1356316948
 30
0.0
 10
104.7028546914
 20
170.1723011591
 30
0.0
 10
104.8052344008
 20
170.2462465035
 30
0.0
 10
104.9580174116
 20
170.358524983
 30
0.0
 10
105.1102777252
 20
170.4720692019
 30
0.0
 10
105.2366536524
 20
170.5676947486
 30
0.0
 10
105.3374309632
 20
170.6448779991
 30
0.0
 10
105.4379725279
 20
170.7225298025
 30
0.0
 10
105.538428229
 20
170.8001777423
 30
0.0
 10
105.6395915087
 20
170.8765779119
 30
0.0
 10
105.716002241
 20
170.9326504156
 30
0.0
 10
105.7931731553
 20
170.9876538719
 30
0.0
 10
105.8438045584
 20
171.0254975427
 30
0.0
 10
105.8686560465
 20
171.0451357764
 30
0.0
  0
SPLINE
  5
520
100
AcDbEntity
  8
0
100
AcDbSpline
 62
7
  6
CONTINUOUS
 70
0
 71
3
 72
18
 73
14
 74
0
 42
0.0000001
 43
0.0000001
 44
0.0000000001
 40
0.0
 40
0.0
 40
0.0
 40
0.0
 40
0.1243931445
 40
0.2491282146
 40
0.3742468217
 40
0.4997028864
 40
0.5624495247
 40
0.6251376095
 40
0.6877165261
 40
0.7501577096
 40
0.8125216921
 40
0.8748924178
 40
1.0
 40
1.0
 40
1.0
 40
1.0
 10
105.9633954058
 20
171.1212168458
 30
0.0
 10
106.0140198622
 20
171.1623914281
 30
0.0
 10
106.1149919296
 20
171.2453675062
 30
0.0
 10
106.2651581345
 20
171.371840336
 30
0.0
 10
106.4139060256
 20
171.5008363672
 30
0.0
 10
106.5364170351
 20
171.610413954
 30
0.0
 10
106.6345331014
 20
171.6981366967
 30
0.0
 10
106.7083011197
 20
171.7636046524
 30
0.0
 10
106.7824235049
 20
171.8284300973
 30
0.0
 10
106.8571551134
 20
171.8922902696
 30
0.0
 10
106.9321664269
 20
171.9556510369
 30
0.0
 10
107.0322129031
 20
172.0403133078
 30
0.0
 10
107.1065943597
 20
172.1046799167
 30
0.0
 10
107.1553541052
 20
172.1486085207
 30
0.0
  0
SPLINE
  5
521
100
AcDbEntity
  8
0
100
AcDbSpline
 62
7
  6
CONTINUOUS
 70
0
 71
3
 72
17
 73
13
 74
0
 42
0.0000001
 43
0.0000001
 44
0.0000000001
 40
0.0
 40
0.0
 40
0.0
 40
0.0
 40
0.0647100848
 40
0.1313615899
 40
0.2682179013
 40
0.4066350986
 40
0.5428634091
 40
0.6731352263
 40
0.7941605931
 40
0.9035181889
 40
0.9534173541
 40
1.0
 40
1.0
 40
1.0
 40
1.0
 10
77.5118720638
 20
189.3284195951
 30
0.0
 10
77.5118720567
 20
189.3672335699
 30
0.0
 10
77.5094175561
 20
189.4460436194
 30
0.0
 10
77.4953582258
 20
189.6063732182
 30
0.0
 10
77.4609298555
 20
189.8089694573
 30
0.0
 10
77.3951553965
 20
190.047284829
 30
0.0
 10
77.3070501054
 20
190.2740842377
 30
0.0
 10
77.1998349009
 20
190.4808975821
 30
0.0
 10
77.0776166845
 20
190.6600656634
 30
0.0
 10
76.9634076367
 20
190.7845972717
 30
0.0
 10
76.8679257729
 20
190.8631356679
 30
0.0
 10
76.8195680486
 20
190.8951871203
 30
0.0
 10
76.7953728556
 20
190.9091616047
 30
0.0
  0
SPLINE
  5
522
100
AcDbEntity
  8
0
100
AcDbSpline
 62
7
  6
CONTINUOUS
 70
0
 71
3
 72
11
 73
7
 74
0
 42
0.0000001
 43
0.0000001
 44
0.0000000001
 40
0.0
 40
0.0
 40
0.0
 40
0.0
 40
0.2756782795
 40
0.5307640093
 40
0.7697680765
 40
1.0
 40
1.0
 40
1.0
 40
1.0
 10
76.6092276438
 20
191.0166740089
 30
0.0
 10
76.5819757296
 20
191.0324139723
 30
0.0
 10
76.5272481005
 20
191.0590847982
 30
0.0
 10
76.4423723596
 20
191.0837092687
 30
0.0
 10
76.3593476533
 20
191.0904240436
 30
0.0
 10
76.3057889828
 20
191.0826113401
 30
0.0
 10
76.2804021682
 20
191.0758073774
 30
0.0
  0
SPLINE
  5
523
100
AcDbEntity
  8
0
100
AcDbSpline
 62
7
  6
CONTINUOUS
 70
0
 71
3
 72
25
 73
21
 74
0
 42
0.0000001
 43
0.0000001
 44
0.0000000001
 40
0.0
 40
0.0
 40
0.0
 40
0.0
 40
0.0649684693
 40
0.131947364
 40
0.2003208232
 40
0.2695568966
 40
0.339093773
 40
0.4083105641
 40
0.4766097257
 40
0.5434444783
 40
0.6083488024
 40
0.6709582894
 40
0.7310637117
 40
0.7886231674
 40
0.8438076698
 40
0.8969919579
 40
0.923040077
 40
0.9488244645
 40
0.9744429941
 40
1.0
 40
1.0
 40
1.0
 40
1.0
 10
116.231876764
 20
196.11683934
 30
0.0
 10
116.2318767641
 20
196.2032765031
 30
0.0
 10
116.2427696481
 20
196.3789649844
 30
0.0
 10
116.2891291748
 20
196.641933995
 30
0.0
 10
116.3652502099
 20
196.903808986
 30
0.0
 10
116.4693752629
 20
197.1595014864
 30
0.0
 10
116.5996107786
 20
197.4042023962
 30
0.0
 10
116.7533636622
 20
197.633359673
 30
0.0
 10
116.9278166561
 20
197.8425463806
 30
0.0
 10
117.1195690816
 20
198.027875638
 30
0.0
 10
117.3250302534
 20
198.1858251883
 30
0.0
 10
117.5403594266
 20
198.3133704484
 30
0.0
 10
117.7615185443
 20
198.4080758668
 30
0.0
 10
117.9844328109
 20
198.4679521119
 30
0.0
 10
118.2048367457
 20
198.4918211178
 30
0.0
 10
118.3843390932
 20
198.4808448251
 30
0.0
 10
118.5215272321
 20
198.4535193172
 30
0.0
 10
118.6204697787
 20
198.424182387
 30
0.0
 10
118.7156028001
 20
198.3859317734
 30
0.0
 10
118.7762039654
 20
198.3546341548
 30
0.0
 10
118.8056478398
 20
198.3376279129
 30
0.0
  0
SPLINE
  5
524
100
AcDbEntity
  8
0
100
AcDbSpline
 62
7
  6
CONTINUOUS
 70
0
 71
3
 72
11
 73
7
 74
0
 42
0.0000001
 43
0.0000001
 44
0.0000000001
 40
0.0
 40
0.0
 40
0.0
 40
0.0
 40
0.2492885186
 40
0.49911239
 40
0.7493715728
 40
1.0
 40
1.0
 40
1.0
 40
1.0
 10
107.2483828638
 20
172.2345195388
 30
0.0
 10
107.2901159525
 20
172.2738220668
 30
0.0
 10
107.3732030491
 20
172.3530107939
 30
0.0
 10
107.4966109629
 20
172.4732927874
 30
0.0
 10
107.6191445562
 20
172.594901651
 30
0.0
 10
107.7002807749
 20
172.6766618062
 30
0.0
 10
107.740702121
 20
172.7177455842
 30
0.0
  0
SPLINE
  5
525
100
AcDbEntity
  8
0
100
AcDbSpline
 62
7
  6
CONTINUOUS
 70
0
 71
3
 72
24
 73
20
 74
0
 42
0.0000001
 43
0.0000001
 44
0.0000000001
 40
0.0
 40
0.0
 40
0.0
 40
0.0
 40
0.066575245
 40
0.1327635377
 40
0.1985504613
 40
0.263864322
 40
0.3285704177
 40
0.3925710095
 40
0.4558410941
 40
0.518370184
 40
0.5801853494
 40
0.6414862306
 40
0.6720068805
 40
0.7024640649
 40
0.7631198738
 40
0.82328391
 40
0.8828288875
 40
0.9417322539
 40
1.0
 40
1.0
 40
1.0
 40
1.0
 10
107.740702121
 20
172.7177455842
 30
0.0
 10
107.7738994004
 20
172.7513935957
 30
0.0
 10
107.8411166753
 20
172.8175004518
 30
0.0
 10
107.9445034123
 20
172.9133576625
 30
0.0
 10
108.0498616679
 20
173.0056905003
 30
0.0
 10
108.1570581306
 20
173.0942465515
 30
0.0
 10
108.2663375759
 20
173.1781740624
 30
0.0
 10
108.3779184981
 20
173.2565315928
 30
0.0
 10
108.4914793392
 20
173.3291521884
 30
0.0
 10
108.6065540992
 20
173.3963153658
 30
0.0
 10
108.7229030239
 20
173.4583052214
 30
0.0
 10
108.8206109902
 20
173.5068216522
 30
0.0
 10
108.8988914785
 20
173.5443634002
 30
0.0
 10
108.9769844321
 20
173.5812334053
 30
0.0
 10
109.0746590893
 20
173.6259221899
 30
0.0
 10
109.1924537936
 20
173.6762083526
 30
0.0
 10
109.3108762323
 20
173.7216609243
 30
0.0
 10
109.4296674315
 20
173.7621270176
 30
0.0
 10
109.5093525359
 20
173.7860926826
 30
0.0
 10
109.5491728288
 20
173.7973081464
 30
0.0
  0
SPLINE
  5
526
100
AcDbEntity
  8
0
100
AcDbSpline
 62
7
  6
CONTINUOUS
 70
0
 71
3
 72
9
 73
5
 74
0
 42
0.0000001
 43
0.0000001
 44
0.0000000001
 40
0.0
 40
0.0
 40
0.0
 40
0.0
 40
0.503355411
 40
1.0
 40
1.0
 40
1.0
 40
1.0
 10
109.5491724594
 20
173.7973080279
 30
0.0
 10
112.5822673084
 20
174.6515851533
 30
0.0
 10
118.5974116165
 20
176.3866614295
 30
0.0
 10
124.5895133123
 20
178.1997653996
 30
0.0
 10
127.5592380177
 20
179.1201954401
 30
0.0
  0
SPLINE
  5
527
100
AcDbEntity
  8
0
100
AcDbSpline
 62
7
  6
CONTINUOUS
 70
0
 71
3
 72
11
 73
7
 74
0
 42
0.0000001
 43
0.0000001
 44
0.0000000001
 40
0.0
 40
0.0
 40
0.0
 40
0.0
 40
0.2756782647
 40
0.5307639892
 40
0.7697680615
 40
1.0
 40
1.0
 40
1.0
 40
1.0
 10
122.3114911923
 20
203.2676000802
 30
0.0
 10
122.2842392777
 20
203.2833400438
 30
0.0
 10
122.2295116468
 20
203.3100108698
 30
0.0
 10
122.1446359011
 20
203.3346353389
 30
0.0
 10
122.0616111874
 20
203.3413501115
 30
0.0
 10
122.0080525115
 20
203.333537406
 30
0.0
 10
121.9826656935
 20
203.3267334424
 30
0.0
  0
SPLINE
  5
528
100
AcDbEntity
  8
0
100
AcDbSpline
 62
7
  6
CONTINUOUS
 70
0
 71
3
 72
10
 73
6
 74
0
 42
0.0000001
 43
0.0000001
 44
0.0000000001
 40
0.0
 40
0.0
 40
0.0
 40
0.0
 40
0.2407665391
 40
0.4896266208
 40
1.0
 40
1.0
 40
1.0
 40
1.0
 10
123.1537743989
 20
201.6143028594
 30
0.0
 10
123.1537743989
 20
201.6605217864
 30
0.0
 10
123.1502872284
 20
201.7545444485
 30
0.0
 10
123.1305264068
 20
201.9455759343
 30
0.0
 10
123.101823194
 20
202.0889658306
 30
0.0
 10
123.0769542513
 20
202.1837312265
 30
0.0
  0
SPLINE
  5
529
100
AcDbEntity
  8
0
100
AcDbSpline
 62
7
  6
CONTINUOUS
 70
0
 71
3
 72
13
 73
9
 74
0
 42
0.0000001
 43
0.0000001
 44
0.0000000001
 40
0.0
 40
0.0
 40
0.0
 40
0.0
 40
0.2698078714
 40
0.531439994
 40
0.6566992253
 40
0.7770075198
 40
0.8916281905
 40
1.0
 40
1.0
 40
1.0
 40
1.0
 10
123.0769542513
 20
202.1837312265
 30
0.0
 10
123.0544495781
 20
202.2694873561
 30
0.0
 10
123.0009711175
 20
202.4361398256
 30
0.0
 10
122.9125869417
 20
202.6335708892
 30
0.0
 10
122.830640561
 20
202.7788166618
 30
0.0
 10
122.7657673318
 20
202.8779301783
 30
0.0
 10
122.6972892109
 20
202.9677026462
 30
0.0
 10
122.6482720996
 20
203.0223142547
 30
0.0
 10
122.6232684546
 20
203.0476714696
 30
0.0
  0
SPLINE
  5
52A
100
AcDbEntity
  8
0
100
AcDbSpline
 62
7
  6
CONTINUOUS
 70
0
 71
3
 72
9
 73
5
 74
0
 42
0.0000001
 43
0.0000001
 44
0.0000000001
 40
0.0
 40
0.0
 40
0.0
 40
0.0
 40
0.2581830641
 40
1.0
 40
1.0
 40
1.0
 40
1.0
 10
122.6232684546
 20
203.0476714696
 30
0.0
 10
122.6155772371
 20
203.0554714466
 30
0.0
 10
122.5853513635
 20
203.0852465615
 30
0.0
 10
122.5533505519
 20
203.1132415562
 30
0.0
 10
122.5286045197
 20
203.1326898447
 30
0.0
  0
SPLINE
  5
52B
100
AcDbEntity
  8
0
100
AcDbSpline
 62
7
  6
CONTINUOUS
 70
0
 71
3
 72
9
 73
5
 74
0
 42
0.0000001
 43
0.0000001
 44
0.0000000001
 40
0.0
 40
0.0
 40
0.0
 40
0.0
 40
0.258704464
 40
1.0
 40
1.0
 40
1.0
 40
1.0
 10
122.5286045197
 20
203.1326898447
 30
0.0
 10
122.5210898984
 20
203.1385957015
 30
0.0
 10
122.4916792829
 20
203.1609538272
 30
0.0
 10
122.4607741988
 20
203.1813782817
 30
0.0
 10
122.4370589665
 20
203.195075554
 30
0.0
  0
SPLINE
  5
52C
100
AcDbEntity
  8
0
100
AcDbSpline
 62
7
  6
CONTINUOUS
 70
0
 71
3
 72
9
 73
5
 74
0
 42
0.0000001
 43
0.0000001
 44
0.0000000001
 40
0.0
 40
0.0
 40
0.0
 40
0.0
 40
0.2568114279
 40
1.0
 40
1.0
 40
1.0
 40
1.0
 10
120.0873978889
 20
202.5293185552
 30
0.0
 10
120.0899677143
 20
202.5373148228
 30
0.0
 10
120.1003603041
 20
202.5683251087
 30
0.0
 10
120.1123329502
 20
202.5988143753
 30
0.0
 10
120.1222183799
 20
202.6210194591
 30
0.0
  0
SPLINE
  5
52D
100
AcDbEntity
  8
0
100
AcDbSpline
 62
7
  6
CONTINUOUS
 70
0
 71
3
 72
12
 73
8
 74
0
 42
0.0000001
 43
0.0000001
 44
0.0000000001
 40
0.0
 40
0.0
 40
0.0
 40
0.0
 40
0.2832931317
 40
0.5399251378
 40
0.7755664078
 40
0.8885521464
 40
1.0
 40
1.0
 40
1.0
 40
1.0
 10
120.1222183799
 20
202.6210194591
 30
0.0
 10
120.138344955
 20
202.6572436757
 30
0.0
 10
120.1741814328
 20
202.7242465811
 30
0.0
 10
120.2425499778
 20
202.8094832879
 30
0.0
 10
120.3099031081
 20
202.8624351274
 30
0.0
 10
120.3675375841
 20
202.8915251866
 30
0.0
 10
120.3973578812
 20
202.9017773338
 30
0.0
 10
120.4124251621
 20
202.9058155403
 30
0.0
  0
SPLINE
  5
52E
100
AcDbEntity
  8
0
100
AcDbSpline
 62
7
  6
CONTINUOUS
 70
0
 71
3
 72
11
 73
7
 74
0
 42
0.0000001
 43
0.0000001
 44
0.0000000001
 40
0.0
 40
0.0
 40
0.0
 40
0.0
 40
0.2756782478
 40
0.5307639801
 40
0.7697680671
 40
1.0
 40
1.0
 40
1.0
 40
1.0
 10
94.5430272641
 20
195.8239772025
 30
0.0
 10
94.5157753838
 20
195.8397171462
 30
0.0
 10
94.4610478222
 20
195.8663879444
 30
0.0
 10
94.3761721876
 20
195.8910124131
 30
0.0
 10
94.293147578
 20
195.8977272351
 30
0.0
 10
94.2395889584
 20
195.8899145959
 30
0.0
 10
94.2142021631
 20
195.8831106713
 30
0.0
  0
SPLINE
  5
52F
100
AcDbEntity
  8
0
100
AcDbSpline
 62
7
  6
CONTINUOUS
 70
0
 71
3
 72
9
 73
5
 74
0
 42
0.0000001
 43
0.0000001
 44
0.0000000001
 40
0.0
 40
0.0
 40
0.0
 40
0.0
 40
0.2568082669
 40
1.0
 40
1.0
 40
1.0
 40
1.0
 10
76.7818322176
 20
190.9208924917
 30
0.0
 10
76.7844011186
 20
190.9288845681
 30
0.0
 10
76.7947898771
 20
190.9598790143
 30
0.0
 10
76.8067572241
 20
190.9903528422
 30
0.0
 10
76.8166377863
 20
191.0125469976
 30
0.0
  0
SPLINE
  5
530
100
AcDbEntity
  8
0
100
AcDbSpline
 62
7
  6
CONTINUOUS
 70
0
 71
3
 72
12
 73
8
 74
0
 42
0.0000001
 43
0.0000001
 44
0.0000000001
 40
0.0
 40
0.0
 40
0.0
 40
0.0
 40
0.2832931544
 40
0.5399251514
 40
0.7755664024
 40
0.8885521385
 40
1.0
 40
1.0
 40
1.0
 40
1.0
 10
76.8166377863
 20
191.0125469976
 30
0.0
 10
76.8327643737
 20
191.0487712506
 30
0.0
 10
76.8686008837
 20
191.1157742183
 30
0.0
 10
76.9369695115
 20
191.2010109848
 30
0.0
 10
77.0043227332
 20
191.2539628285
 30
0.0
 10
77.0619572862
 20
191.2830528589
 30
0.0
 10
77.0917776224
 20
191.2933049816
 30
0.0
 10
77.1068449226
 20
191.2973431737
 30
0.0
  0
SPLINE
  5
531
100
AcDbEntity
  8
0
100
AcDbSpline
 62
7
  6
CONTINUOUS
 70
0
 71
3
 72
17
 73
13
 74
0
 42
0.0000001
 43
0.0000001
 44
0.0000000001
 40
0.0
 40
0.0
 40
0.0
 40
0.0
 40
0.064710567
 40
0.1313634444
 40
0.2682213557
 40
0.4066375897
 40
0.5428639002
 40
0.6731333423
 40
0.7941543688
 40
0.9035137214
 40
0.9534160518
 40
1.0
 40
1.0
 40
1.0
 40
1.0
 10
120.8475503229
 20
200.9195407694
 30
0.0
 10
120.8475503289
 20
200.958352165
 30
0.0
 10
120.8450936697
 20
201.0371575161
 30
0.0
 10
120.8310257534
 20
201.1974765329
 30
0.0
 10
120.7965880923
 20
201.4000569177
 30
0.0
 10
120.730808487
 20
201.638351019
 30
0.0
 10
120.642701738
 20
201.865126979
 30
0.0
 10
120.5354921488
 20
202.0719180147
 30
0.0
 10
120.4132755099
 20
202.2510643968
 30
0.0
 10
120.2990748715
 20
202.3755856354
 30
0.0
 10
120.2036060947
 20
202.4541311277
 30
0.0
 10
120.1552519572
 20
202.4861855719
 30
0.0
 10
120.131057876
 20
202.5001594143
 30
0.0
  0
SPLINE
  5
532
100
AcDbEntity
  8
0
100
AcDbSpline
 62
7
  6
CONTINUOUS
 70
0
 71
3
 72
11
 73
7
 74
0
 42
0.0000001
 43
0.0000001
 44
0.0000000001
 40
0.0
 40
0.0
 40
0.0
 40
0.0
 40
0.2756782345
 40
0.530763962
 40
0.7697680536
 40
1.0
 40
1.0
 40
1.0
 40
1.0
 10
119.9148082938
 20
202.6250913111
 30
0.0
 10
119.8875564132
 20
202.640831255
 30
0.0
 10
119.8328288499
 20
202.6675020533
 30
0.0
 10
119.747953211
 20
202.6921265207
 30
0.0
 10
119.6649285947
 20
202.6988413407
 30
0.0
 10
119.6113699701
 20
202.6910286997
 30
0.0
 10
119.5859831719
 20
202.6842247743
 30
0.0
  0
SPLINE
  5
533
100
AcDbEntity
  8
0
100
AcDbSpline
 62
7
  6
CONTINUOUS
 70
0
 71
3
 72
13
 73
9
 74
0
 42
0.0000001
 43
0.0000001
 44
0.0000000001
 40
0.0
 40
0.0
 40
0.0
 40
0.0
 40
0.2833707696
 40
0.5399451328
 40
0.6600092983
 40
0.7758380089
 40
0.8886937382
 40
1.0
 40
1.0
 40
1.0
 40
1.0
 10
102.1875110791
 20
197.811614534
 30
0.0
 10
102.2036348371
 20
197.8481018422
 30
0.0
 10
102.2394665767
 20
197.9155719425
 30
0.0
 10
102.2979222453
 20
197.9887314839
 30
0.0
 10
102.3500629913
 20
198.0346528071
 30
0.0
 10
102.3907138245
 20
198.0624206469
 30
0.0
 10
102.4335390958
 20
198.0840958325
 30
0.0
 10
102.4634911397
 20
198.0944009277
 30
0.0
 10
102.4786259961
 20
198.0984571288
 30
0.0
  0
SPLINE
  5
534
100
AcDbEntity
  8
0
100
AcDbSpline
 62
7
  6
CONTINUOUS
 70
0
 71
3
 72
12
 73
8
 74
0
 42
0.0000001
 43
0.0000001
 44
0.0000000001
 40
0.0
 40
0.0
 40
0.0
 40
0.0
 40
0.2551492028
 40
0.5072292962
 40
0.755826248
 40
0.8786108832
 40
1.0
 40
1.0
 40
1.0
 40
1.0
 10
96.4268804015
 20
167.4943646926
 30
0.0
 10
96.5161629331
 20
167.5044338981
 30
0.0
 10
96.6933386291
 20
167.5273806556
 30
0.0
 10
96.9560421644
 20
167.5704212123
 30
0.0
 10
97.1713450363
 20
167.6136682963
 30
0.0
 10
97.3404190252
 20
167.6527568771
 30
0.0
 10
97.423767048
 20
167.6739235758
 30
0.0
 10
97.4650546984
 20
167.6849942278
 30
0.0
  0
SPLINE
  5
535
100
AcDbEntity
  8
0
100
AcDbSpline
 62
7
  6
CONTINUOUS
 70
0
 71
3
 72
19
 73
15
 74
0
 42
0.0000001
 43
0.0000001
 44
0.0000000001
 40
0.0
 40
0.0
 40
0.0
 40
0.0
 40
0.0601743922
 40
0.1216595144
 40
0.1842171645
 40
0.2476183797
 40
0.3761291575
 40
0.4409249119
 40
0.5057530823
 40
0.6344952988
 40
0.7606950557
 40
0.8224077627
 40
0.882957484
 40
1.0
 40
1.0
 40
1.0
 40
1.0
 10
117.7387374491
 20
198.0419830183
 30
0.0
 10
117.738737449
 20
197.9855083325
 30
0.0
 10
117.7339601696
 20
197.8712818363
 30
0.0
 10
117.7132460848
 20
197.6994783931
 30
0.0
 10
117.6790437809
 20
197.5267364629
 30
0.0
 10
117.6154272781
 20
197.2963720757
 30
0.0
 10
117.5263844623
 20
197.071476606
 30
0.0
 10
117.4141903233
 20
196.8565906907
 30
0.0
 10
117.2873480862
 20
196.6497283425
 30
0.0
 10
117.1041368956
 20
196.4107314023
 30
0.0
 10
116.8909995892
 20
196.2020088461
 30
0.0
 10
116.7067914631
 20
196.0586657107
 30
0.0
 10
116.5192868793
 20
195.9347845694
 30
0.0
 10
116.3692297671
 20
195.8598512541
 30
0.0
 10
116.2669161213
 20
195.8198744403
 30
0.0
  0
SPLINE
  5
536
100
AcDbEntity
  8
0
100
AcDbSpline
 62
7
  6
CONTINUOUS
 70
0
 71
3
 72
10
 73
6
 74
0
 42
0.0000001
 43
0.0000001
 44
0.0000000001
 40
0.0
 40
0.0
 40
0.0
 40
0.0
 40
0.2507088058
 40
0.626181949
 40
1.0
 40
1.0
 40
1.0
 40
1.0
 10
103.9300244378
 20
175.6154505378
 30
0.0
 10
103.9303102009
 20
175.6217812163
 30
0.0
 10
103.9309834044
 20
175.6375947478
 30
0.0
 10
103.9319833777
 20
175.6628523646
 30
0.0
 10
103.932368481
 20
175.6817898163
 30
0.0
 10
103.9324657559
 20
175.6912382523
 30
0.0
  0
SPLINE
  5
537
100
AcDbEntity
  8
0
100
AcDbSpline
 62
7
  6
CONTINUOUS
 70
0
 71
3
 72
9
 73
5
 74
0
 42
0.0000001
 43
0.0000001
 44
0.0000000001
 40
0.0
 40
0.0
 40
0.0
 40
0.0
 40
0.2505023788
 40
1.0
 40
1.0
 40
1.0
 40
1.0
 10
100.5652705357
 20
176.9757312549
 30
0.0
 10
100.5122802479
 20
176.9621407058
 30
0.0
 10
100.3007890522
 20
176.90771255
 30
0.0
 10
100.0894591587
 20
176.8526590578
 30
0.0
 10
99.9311269456
 20
176.811172636
 30
0.0
  0
SPLINE
  5
538
100
AcDbEntity
  8
0
100
AcDbSpline
 62
7
  6
CONTINUOUS
 70
0
 71
3
 72
9
 73
5
 74
0
 42
0.0000001
 43
0.0000001
 44
0.0000000001
 40
0.0
 40
0.0
 40
0.0
 40
0.0
 40
0.5006818658
 40
1.0
 40
1.0
 40
1.0
 40
1.0
 10
99.9311269456
 20
176.811172636
 30
0.0
 10
99.6878950845
 20
176.7474406928
 30
0.0
 10
99.202362846
 20
176.6191237926
 30
0.0
 10
98.7171575606
 20
176.4895791487
 30
0.0
 10
98.4749535381
 20
176.4246424911
 30
0.0
  0
SPLINE
  5
539
100
AcDbEntity
  8
0
100
AcDbSpline
 62
7
  6
CONTINUOUS
 70
0
 71
3
 72
11
 73
7
 74
0
 42
0.0000001
 43
0.0000001
 44
0.0000000001
 40
0.0
 40
0.0
 40
0.0
 40
0.0
 40
0.2618699247
 40
0.5147897024
 40
0.7597805703
 40
1.0
 40
1.0
 40
1.0
 40
1.0
 10
77.8546850643
 20
182.7625650217
 30
0.0
 10
77.8365281277
 20
182.7582379143
 30
0.0
 10
77.8000542587
 20
182.7526425381
 30
0.0
 10
77.7456125846
 20
182.7539692813
 30
0.0
 10
77.6939156127
 20
182.765388331
 30
0.0
 10
77.6620679685
 20
182.7795929899
 30
0.0
 10
77.6472450267
 20
182.7881633658
 30
0.0
  0
SPLINE
  5
53A
100
AcDbEntity
  8
0
100
AcDbSpline
 62
7
  6
CONTINUOUS
 70
0
 71
3
 72
36
 73
32
 74
0
 42
0.0000001
 43
0.0000001
 44
0.0000000001
 40
0.0
 40
0.0
 40
0.0
 40
0.0
 40
0.0273063553
 40
0.0548359977
 40
0.0826999327
 40
0.1109378
 40
0.139546609
 40
0.168498172
 40
0.197753816
 40
0.2272732918
 40
0.286933106
 40
0.3472174217
 40
0.4079664483
 40
0.4385046669
 40
0.4691618456
 40
0.4999602679
 40
0.5309286104
 40
0.5621063335
 40
0.5935411179
 40
0.6252879058
 40
0.6574076454
 40
0.7229986421
 40
0.7566148212
 40
0.7908182031
 40
0.8255943011
 40
0.8608492879
 40
0.8963665745
 40
0.9317663691
 40
0.9492697625
 40
0.966531773
 40
1.0
 40
1.0
 40
1.0
 40
1.0
 10
94.157496733
 20
169.5019249587
 30
0.0
 10
94.277950602
 20
169.4323541619
 30
0.0
 10
94.5314353491
 20
169.3120650397
 30
0.0
 10
94.9338788484
 20
169.1842458464
 30
0.0
 10
95.3525193322
 20
169.1013029422
 30
0.0
 10
95.7822286721
 20
169.0567152511
 30
0.0
 10
96.2194673644
 20
169.044598175
 30
0.0
 10
96.6616851918
 20
169.0597948003
 30
0.0
 10
97.1071163872
 20
169.0977620781
 30
0.0
 10
97.705733504
 20
169.1740172666
 30
0.0
 10
98.4556376706
 20
169.3083305548
 30
0.0
 10
99.3536288174
 20
169.511322433
 30
0.0
 10
100.1008203794
 20
169.7065124255
 30
0.0
 10
100.6980076229
 20
169.8776266944
 30
0.0
 10
101.146306399
 20
170.0142413867
 30
0.0
 10
101.5939655112
 20
170.1601903135
 30
0.0
 10
102.0408221755
 20
170.3168275427
 30
0.0
 10
102.4864040573
 20
170.4864569849
 30
0.0
 10
102.9301601248
 20
170.6714234732
 30
0.0
 10
103.3711650639
 20
170.8747735061
 30
0.0
 10
103.9575980533
 20
171.1766772551
 30
0.0
 10
104.5289034023
 20
171.5282660521
 30
0.0
 10
105.0699547634
 20
171.940360839
 30
0.0
 10
105.4608885797
 20
172.2881099694
 30
0.0
 10
105.8261228885
 20
172.6745528466
 30
0.0
 10
106.1558031482
 20
173.1005655308
 30
0.0
 10
106.4373597605
 20
173.5638183747
 30
0.0
 10
106.6205010147
 20
173.977076615
 30
0.0
 10
106.7280180446
 20
174.3183296313
 30
0.0
 10
106.8057934829
 20
174.6573299885
 30
0.0
 10
106.8314496929
 20
174.9163613312
 30
0.0
 10
106.831449693
 20
175.0868520793
 30
0.0
  0
LINE
  5
53B
100
AcDbEntity
  8
0
100
AcDbLine
 62
7
  6
CONTINUOUS
 10
121.3255282634
 20
194.4179942736
 11
121.1662853818
 21
194.3702081343
  0
SPLINE
  5
53C
100
AcDbEntity
  8
0
100
AcDbSpline
 62
7
  6
CONTINUOUS
 70
0
 71
3
 72
26
 73
22
 74
0
 42
0.0000001
 43
0.0000001
 44
0.0000000001
 40
0.0
 40
0.0
 40
0.0
 40
0.0
 40
0.0649562571
 40
0.1319354309
 40
0.200309656
 40
0.2695366867
 40
0.339047487
 40
0.4082182527
 40
0.4764528766
 40
0.5432106846
 40
0.6080351935
 40
0.6705740701
 40
0.7306314088
 40
0.7881787051
 40
0.8433958803
 40
0.8702644284
 40
0.8967113103
 40
0.9228166297
 40
0.9486680028
 40
0.9743617582
 40
1.0
 40
1.0
 40
1.0
 40
1.0
 10
119.4369078276
 20
197.0611660617
 30
0.0
 10
119.4369078275
 20
196.9747113007
 30
0.0
 10
119.4260742192
 20
196.7989717738
 30
0.0
 10
119.3799767854
 20
196.5358720431
 30
0.0
 10
119.3042751689
 20
196.2737813689
 30
0.0
 10
119.2006920897
 20
196.0178059988
 30
0.0
 10
119.0710842833
 20
195.772774357
 30
0.0
 10
118.9179938408
 20
195.543263633
 30
0.0
 10
118.744187142
 20
195.3337237895
 30
0.0
 10
118.553010866
 20
195.1480688987
 30
0.0
 10
118.3480084421
 20
194.9898447106
 30
0.0
 10
118.132988622
 20
194.8620963385
 30
0.0
 10
117.9119451585
 20
194.767282294
 30
0.0
 10
117.6890060499
 20
194.7073982747
 30
0.0
 10
117.5033266889
 20
194.6874456046
 30
0.0
 10
117.3587485809
 20
194.6904224967
 30
0.0
 10
117.2535150161
 20
194.701818439
 30
0.0
 10
117.1510489539
 20
194.722301754
 30
0.0
 10
117.0518380238
 20
194.7517922504
 30
0.0
 10
116.9564076229
 20
194.7902103222
 30
0.0
 10
116.8956034362
 20
194.8216254748
 30
0.0
 10
116.8660543994
 20
194.838692448
 30
0.0
  0
LINE
  5
53D
100
AcDbEntity
  8
0
100
AcDbLine
 62
7
  6
CONTINUOUS
 10
78.0259684231
 20
182.8034165437
 11
77.8546909432
 21
182.7625834111
  0
SPLINE
  5
53E
100
AcDbEntity
  8
0
100
AcDbSpline
 62
7
  6
CONTINUOUS
 70
0
 71
3
 72
13
 73
9
 74
0
 42
0.0000001
 43
0.0000001
 44
0.0000000001
 40
0.0
 40
0.0
 40
0.0
 40
0.0
 40
0.2474268532
 40
0.3764374503
 40
0.5064276552
 40
0.6354891217
 40
0.7618157132
 40
1.0
 40
1.0
 40
1.0
 40
1.0
 10
78.3683980755
 20
183.252869449
 30
0.0
 10
78.3683894215
 20
183.2030902721
 30
0.0
 10
78.3539824454
 20
183.1268075348
 30
0.0
 10
78.3123077153
 20
183.0335883595
 30
0.0
 10
78.2697217946
 20
182.967755286
 30
0.0
 10
78.2179079578
 20
182.9096093835
 30
0.0
 10
78.1408523048
 20
182.8466394339
 30
0.0
 10
78.0725769369
 20
182.8145214268
 30
0.0
 10
78.0259684292
 20
182.8033884289
 30
0.0
  0
SPLINE
  5
53F
100
AcDbEntity
  8
0
100
AcDbSpline
 62
7
  6
CONTINUOUS
 70
0
 71
3
 72
9
 73
5
 74
0
 42
0.0000001
 43
0.0000001
 44
0.0000000001
 40
0.0
 40
0.0
 40
0.0
 40
0.0
 40
0.2493571263
 40
1.0
 40
1.0
 40
1.0
 40
1.0
 10
127.5592380596
 20
195.3984308529
 30
0.0
 10
127.1934324235
 20
195.2849297077
 30
0.0
 10
125.7260605055
 20
194.830970538
 30
0.0
 10
124.2571877459
 20
194.3818631017
 30
0.0
 10
123.1537743942
 20
194.0474414124
 30
0.0
  0
SPLINE
  5
540
100
AcDbEntity
  8
0
100
AcDbSpline
 62
9
  6
CONTINUOUS
 70
0
 71
3
 72
9
 73
5
 74
0
 42
0.0000001
 43
0.0000001
 44
0.0000000001
 40
0.0
 40
0.0
 40
0.0
 40
0.0
 40
0.2494295246
 40
1.0
 40
1.0
 40
1.0
 40
1.0
 10
93.8683510573
 20
169.6826030636
 30
0.0
 10
93.8938690908
 20
169.6708896273
 30
0.0
 10
93.9968741045
 20
169.6254605514
 30
0.0
 10
94.1024810227
 20
169.5859889948
 30
0.0
 10
94.1827043274
 20
169.5594761008
 30
0.0
  0
SPLINE
  5
541
100
AcDbEntity
  8
0
100
AcDbSpline
 62
9
  6
CONTINUOUS
 70
0
 71
3
 72
34
 73
30
 74
0
 42
0.0000001
 43
0.0000001
 44
0.0000000001
 40
0.0
 40
0.0
 40
0.0
 40
0.0
 40
0.0272726114
 40
0.0549034368
 40
0.0829128653
 40
0.1112901266
 40
0.1400072231
 40
0.1690270234
 40
0.1983099967
 40
0.2278194491
 40
0.2575210399
 40
0.2873860997
 40
0.3173930206
 40
0.3475259857
 40
0.3777779742
 40
0.4081490815
 40
0.4692876674
 40
0.5311037244
 40
0.5938766811
 40
0.6579855625
 40
0.7238564566
 40
0.7575862551
 40
0.7918591512
 40
0.8266386088
 40
0.8618116823
 40
0.8971543313
 40
0.9323011998
 40
0.9667588122
 40
1.0
 40
1.0
 40
1.0
 40
1.0
 10
94.2015757366
 20
169.5533022293
 30
0.0
 10
94.3283824117
 20
169.5122374277
 30
0.0
 10
94.588788409
 20
169.4448745163
 30
0.0
 10
94.9897199044
 20
169.3827208202
 30
0.0
 10
95.3996747609
 20
169.3532679034
 30
0.0
 10
95.8158583762
 20
169.3516330525
 30
0.0
 10
96.2363377329
 20
169.3735022281
 30
0.0
 10
96.6597140752
 20
169.4151101947
 30
0.0
 10
97.085018745
 20
169.4731728566
 30
0.0
 10
97.5115778301
 20
169.5449474431
 30
0.0
 10
97.9389425882
 20
169.6281164276
 30
0.0
 10
98.3668236088
 20
169.72079178
 30
0.0
 10
98.795013494
 20
169.8216319897
 30
0.0
 10
99.2234019431
 20
169.9296233323
 30
0.0
 10
99.6518871375
 20
170.0443216482
 30
0.0
 10
100.2244617806
 20
170.2065140653
 30
0.0
 10
100.940756178
 20
170.4271418717
 30
0.0
 10
101.7974345192
 20
170.7281266414
 30
0.0
 10
102.6500975158
 20
171.0812090805
 30
0.0
 10
103.4916868631
 20
171.5069639506
 30
0.0
 10
104.1670055698
 20
171.9398693936
 30
0.0
 10
104.6807168784
 20
172.3458754564
 30
0.0
 10
105.0506284115
 20
172.6865396468
 30
0.0
 10
105.3949163499
 20
173.0629072976
 30
0.0
 10
105.7042937774
 20
173.4752950776
 30
0.0
 10
105.967211996
 20
173.9211522719
 30
0.0
 10
106.1704334122
 20
174.393838581
 30
0.0
 10
106.3006307078
 20
174.8812734186
 30
0.0
 10
106.3322836248
 20
175.2126960966
 30
0.0
 10
106.3322836249
 20
175.3751565658
 30
0.0
  0
SPLINE
  5
542
100
AcDbEntity
  8
0
100
AcDbSpline
 62
9
  6
CONTINUOUS
 70
0
 71
3
 72
9
 73
5
 74
0
 42
0.0000001
 43
0.0000001
 44
0.0000000001
 40
0.0
 40
0.0
 40
0.0
 40
0.0
 40
0.4967695544
 40
1.0
 40
1.0
 40
1.0
 40
1.0
 10
120.1315285992
 20
202.4999195656
 30
0.0
 10
117.1575753543
 20
201.6093100844
 30
0.0
 10
111.1592252485
 20
199.8555834048
 30
0.0
 10
105.1392144815
 20
198.1777663449
 30
0.0
 10
102.1047380097
 20
197.3520211797
 30
0.0
  0
SPLINE
  5
543
100
AcDbEntity
  8
0
100
AcDbSpline
 62
9
  6
CONTINUOUS
 70
0
 71
3
 72
9
 73
5
 74
0
 42
0.0000001
 43
0.0000001
 44
0.0000000001
 40
0.0
 40
0.0
 40
0.0
 40
0.0
 40
0.4961712848
 40
1.0
 40
1.0
 40
1.0
 40
1.0
 10
102.1047380097
 20
197.3520211797
 30
0.0
 10
98.0773143747
 20
196.2560741107
 30
0.0
 10
89.9422511995
 20
194.1131657425
 30
0.0
 10
81.7747526776
 20
192.097540358
 30
0.0
 10
77.6523903942
 20
191.1130379254
 30
0.0
  0
SPLINE
  5
544
100
AcDbEntity
  8
0
100
AcDbSpline
 62
7
  6
CONTINUOUS
 70
0
 71
3
 72
9
 73
5
 74
0
 42
0.0000001
 43
0.0000001
 44
0.0000000001
 40
0.0
 40
0.0
 40
0.0
 40
0.0
 40
0.5007907858
 40
1.0
 40
1.0
 40
1.0
 40
1.0
 10
106.8305264572
 20
175.1553315906
 30
0.0
 10
106.8308350494
 20
175.1668720713
 30
0.0
 10
106.8312797896
 20
175.1899209536
 30
0.0
 10
106.8315158107
 20
175.2129733934
 30
0.0
 10
106.8315158107
 20
175.2244815397
 30
0.0
  0
SPLINE
  5
545
100
AcDbEntity
  8
0
100
AcDbSpline
 62
7
  6
CONTINUOUS
 70
0
 71
3
 72
15
 73
11
 74
0
 42
0.0000001
 43
0.0000001
 44
0.0000000001
 40
0.0
 40
0.0
 40
0.0
 40
0.0
 40
0.1137714218
 40
0.229100995
 40
0.3471041398
 40
0.4686836645
 40
0.5945272418
 40
0.7250716054
 40
0.8603862128
 40
1.0
 40
1.0
 40
1.0
 40
1.0
 10
118.8056478398
 20
198.3376279129
 30
0.0
 10
118.8545984366
 20
198.3093549457
 30
0.0
 10
118.9488694594
 20
198.2445793504
 30
0.0
 10
119.074639417
 20
198.1256479086
 30
0.0
 10
119.183852497
 20
197.9864010795
 30
0.0
 10
119.2750016672
 20
197.8287204186
 30
0.0
 10
119.3469920291
 20
197.6547212148
 30
0.0
 10
119.3989388414
 20
197.4666806008
 30
0.0
 10
119.4301217582
 20
197.2672506662
 30
0.0
 10
119.4369078276
 20
197.1305351523
 30
0.0
 10
119.4369078276
 20
197.0611660617
 30
0.0
  0
SPLINE
  5
546
100
AcDbEntity
  8
0
100
AcDbSpline
 62
7
  6
CONTINUOUS
 70
0
 71
3
 72
15
 73
11
 74
0
 42
0.0000001
 43
0.0000001
 44
0.0000000001
 40
0.0
 40
0.0
 40
0.0
 40
0.0
 40
0.1393734106
 40
0.2735172769
 40
0.402594905
 40
0.5272087857
 40
0.6482644166
 40
0.7667815293
 40
0.8837438983
 40
1.0
 40
1.0
 40
1.0
 40
1.0
 10
106.8315125794
 20
175.224483406
 30
0.0
 10
106.8315125794
 20
175.3300317732
 30
0.0
 10
106.8187049963
 20
175.5374458575
 30
0.0
 10
106.7598444525
 20
175.8375141145
 30
0.0
 10
106.6636743866
 20
176.1160694909
 30
0.0
 10
106.5337903647
 20
176.369461502
 30
0.0
 10
106.3744100536
 20
176.595624036
 30
0.0
 10
106.1899789113
 20
176.7939017739
 30
0.0
 10
105.9847641515
 20
176.9647323888
 30
0.0
 10
105.8363703999
 20
177.0612962154
 30
0.0
 10
105.760131588
 20
177.1053296825
 30
0.0
  0
SPLINE
  5
547
100
AcDbEntity
  8
0
100
AcDbSpline
 62
7
  6
CONTINUOUS
 70
0
 71
3
 72
17
 73
13
 74
0
 42
0.0000001
 43
0.0000001
 44
0.0000000001
 40
0.0
 40
0.0
 40
0.0
 40
0.0
 40
0.046582635
 40
0.0964817722
 40
0.2058393059
 40
0.3268646396
 40
0.4571364384
 40
0.5933647512
 40
0.7317819717
 40
0.8686383611
 40
0.9352898994
 40
1.0
 40
1.0
 40
1.0
 40
1.0
 10
120.927395854
 20
202.739169799
 30
0.0
 10
120.9515910421
 20
202.7251953174
 30
0.0
 10
120.9999487545
 20
202.6931438864
 30
0.0
 10
121.0954305865
 20
202.6146055387
 30
0.0
 10
121.2096395739
 20
202.4900739665
 30
0.0
 10
121.3318577593
 20
202.310905939
 30
0.0
 10
121.4390729434
 20
202.1040926068
 30
0.0
 10
121.5271782162
 20
201.877293177
 30
0.0
 10
121.592952657
 20
201.638977726
 30
0.0
 10
121.6273809929
 20
201.4363813912
 30
0.0
 10
121.6414402899
 20
201.2760517074
 30
0.0
 10
121.6438947727
 20
201.197241625
 30
0.0
 10
121.6438947691
 20
201.1584276395
 30
0.0
  0
SPLINE
  5
548
100
AcDbEntity
  8
0
100
AcDbSpline
 62
9
  6
CONTINUOUS
 70
0
 71
3
 72
9
 73
5
 74
0
 42
0.0000001
 43
0.0000001
 44
0.0000000001
 40
0.0
 40
0.0
 40
0.0
 40
0.0
 40
0.2498484377
 40
1.0
 40
1.0
 40
1.0
 40
1.0
 10
77.5118726424
 20
189.3277765308
 30
0.0
 10
77.3944394152
 20
189.2998513291
 30
0.0
 10
76.9243977327
 20
189.1881829798
 30
0.0
 10
76.4542608721
 20
189.0769152633
 30
0.0
 10
76.101534001
 20
188.9936723346
 30
0.0
  0
SPLINE
  5
549
100
AcDbEntity
  8
0
100
AcDbSpline
 62
7
  6
CONTINUOUS
 70
0
 71
3
 72
13
 73
9
 74
0
 42
0.0000001
 43
0.0000001
 44
0.0000000001
 40
0.0
 40
0.0
 40
0.0
 40
0.0
 40
0.1237810103
 40
0.2524055084
 40
0.5142428584
 40
0.6436263924
 40
0.7688488289
 40
1.0
 40
1.0
 40
1.0
 40
1.0
 10
121.6438779839
 20
194.8787157625
 30
0.0
 10
121.6438736556
 20
194.8541123065
 30
0.0
 10
121.6394785188
 20
194.8038609855
 30
0.0
 10
121.6150619174
 20
194.7043267341
 30
0.0
 10
121.5685355195
 20
194.6101594555
 30
0.0
 10
121.5042736406
 20
194.529677264
 30
0.0
 10
121.4332548936
 20
194.4640118274
 30
0.0
 10
121.3695286836
 20
194.4285646127
 30
0.0
 10
121.3255284393
 20
194.4153388443
 30
0.0
  0
SPLINE
  5
54A
100
AcDbEntity
  8
0
100
AcDbSpline
 62
7
  6
CONTINUOUS
 70
0
 71
3
 72
11
 73
7
 74
0
 42
0.0000001
 43
0.0000001
 44
0.0000000001
 40
0.0
 40
0.0
 40
0.0
 40
0.0
 40
0.230231925
 40
0.4692360483
 40
0.7243218053
 40
1.0
 40
1.0
 40
1.0
 40
1.0
 10
120.4124251621
 20
202.9058155403
 30
0.0
 10
120.4378119795
 20
202.9126195026
 30
0.0
 10
120.4913706595
 20
202.9204322224
 30
0.0
 10
120.5743953829
 20
202.913717427
 30
0.0
 10
120.6592711308
 20
202.8890929615
 30
0.0
 10
120.7139987643
 20
202.8624221456
 30
0.0
 10
120.7412506726
 20
202.8466821857
 30
0.0
  0
SPLINE
  5
54B
100
AcDbEntity
  8
0
100
AcDbSpline
 62
7
  6
CONTINUOUS
 70
0
 71
3
 72
17
 73
13
 74
0
 42
0.0000001
 43
0.0000001
 44
0.0000000001
 40
0.0
 40
0.0
 40
0.0
 40
0.0
 40
0.046584551
 40
0.0964883001
 40
0.2058480374
 40
0.3268662871
 40
0.4571339513
 40
0.5933589286
 40
0.7317744932
 40
0.8686343183
 40
0.935288783
 40
1.0
 40
1.0
 40
1.0
 40
1.0
 10
77.6518930274
 20
191.1132702615
 30
0.0
 10
77.6760869396
 20
191.0992965166
 30
0.0
 10
77.7244400728
 20
191.0672402273
 30
0.0
 10
77.8199039878
 20
190.9886905915
 30
0.0
 10
77.9341026218
 20
190.8641737108
 30
0.0
 10
78.0563214136
 20
190.6850369567
 30
0.0
 10
78.1635315276
 20
190.4782554053
 30
0.0
 10
78.2516431525
 20
190.2514890402
 30
0.0
 10
78.3174287268
 20
190.0132017853
 30
0.0
 10
78.3518757343
 20
189.8106255853
 30
0.0
 10
78.3659531456
 20
189.6503081042
 30
0.0
 10
78.3684122359
 20
189.5715029692
 30
0.0
 10
78.3684122359
 20
189.5326919571
 30
0.0
  0
SPLINE
  5
54C
100
AcDbEntity
  8
0
100
AcDbSpline
 62
7
  6
CONTINUOUS
 70
0
 71
3
 72
11
 73
7
 74
0
 42
0.0000001
 43
0.0000001
 44
0.0000000001
 40
0.0
 40
0.0
 40
0.0
 40
0.0
 40
0.2302319111
 40
0.4692360465
 40
0.7243218142
 40
1.0
 40
1.0
 40
1.0
 40
1.0
 10
77.1068449226
 20
191.2973431737
 30
0.0
 10
77.1322317154
 20
191.3041470964
 30
0.0
 10
77.185790336
 20
191.311959749
 30
0.0
 10
77.2688149514
 20
191.3052449029
 30
0.0
 10
77.3536905857
 20
191.2806204369
 30
0.0
 10
77.4084181487
 20
191.2539496491
 30
0.0
 10
77.4356700225
 20
191.238209709
 30
0.0
  0
SPLINE
  5
54D
100
AcDbEntity
  8
0
100
AcDbSpline
 62
9
  6
CONTINUOUS
 70
0
 71
3
 72
11
 73
7
 74
0
 42
0.0000001
 43
0.0000001
 44
0.0000000001
 40
0.0
 40
0.0
 40
0.0
 40
0.0
 40
0.2446622129
 40
0.4929650998
 40
0.7447867056
 40
1.0
 40
1.0
 40
1.0
 40
1.0
 10
120.8475499115
 20
200.9187326271
 30
0.0
 10
117.4111519233
 20
199.8899230154
 30
0.0
 10
110.4715285106
 20
197.8690473118
 30
0.0
 10
99.9439249046
 20
194.9680311342
 30
0.0
 10
89.2268493302
 20
192.1764638773
 30
0.0
 10
82.0077961798
 20
190.4012225216
 30
0.0
 10
78.3684124748
 20
189.5317961369
 30
0.0
  0
SPLINE
  5
54E
100
AcDbEntity
  8
0
100
AcDbSpline
 62
7
  6
CONTINUOUS
 70
0
 71
3
 72
16
 73
12
 74
0
 42
0.0000001
 43
0.0000001
 44
0.0000000001
 40
0.0
 40
0.0
 40
0.0
 40
0.0
 40
0.1230806953
 40
0.2466734781
 40
0.308647052
 40
0.3707303304
 40
0.4952480876
 40
0.620330039
 40
0.7461092113
 40
0.8726893011
 40
1.0
 40
1.0
 40
1.0
 40
1.0
 10
103.4601917752
 20
169.4682451606
 30
0.0
 10
103.2088296707
 20
169.4156576868
 30
0.0
 10
102.7056981049
 20
169.3071949368
 30
0.0
 10
102.0776188011
 20
169.1649190522
 30
0.0
 10
101.5744390083
 20
169.0474279698
 30
0.0
 10
101.0698404699
 20
168.9275449812
 30
0.0
 10
100.4380846587
 20
168.7732314157
 30
0.0
 10
99.6796066591
 20
168.5778332395
 30
0.0
 10
98.9202849273
 20
168.3688047168
 30
0.0
 10
98.1608325745
 20
168.1433330625
 30
0.0
 10
97.6554964857
 20
167.9843473777
 30
0.0
 10
97.4026302139
 20
167.9029970092
 30
0.0
  0
SPLINE
  5
54F
100
AcDbEntity
  8
0
100
AcDbSpline
 62
7
  6
CONTINUOUS
 70
0
 71
3
 72
9
 73
5
 74
0
 42
0.0000001
 43
0.0000001
 44
0.0000000001
 40
0.0
 40
0.0
 40
0.0
 40
0.0
 40
0.2494927174
 40
1.0
 40
1.0
 40
1.0
 40
1.0
 10
97.4026302139
 20
167.9029970092
 30
0.0
 10
97.3193373231
 20
167.8762006029
 30
0.0
 10
96.9857161569
 20
167.7680889307
 30
0.0
 10
96.6529375797
 20
167.657387124
 30
0.0
 10
96.4035439885
 20
167.573252072
 30
0.0
  0
SPLINE
  5
550
100
AcDbEntity
  8
0
100
AcDbSpline
 62
7
  6
CONTINUOUS
 70
0
 71
3
 72
11
 73
7
 74
0
 42
0.0000001
 43
0.0000001
 44
0.0000000001
 40
0.0
 40
0.0
 40
0.0
 40
0.0
 40
0.2302339537
 40
0.4692389873
 40
0.724322689
 40
1.0
 40
1.0
 40
1.0
 40
1.0
 10
102.4786259961
 20
198.0984571288
 30
0.0
 10
102.504010944
 20
198.1052603947
 30
0.0
 10
102.5575653216
 20
198.1130725085
 30
0.0
 10
102.6405831524
 20
198.1063610713
 30
0.0
 10
102.7254529836
 20
198.0817438365
 30
0.0
 10
102.7801765959
 20
198.0550768028
 30
0.0
 10
102.8074261173
 20
198.0393382214
 30
0.0
  0
SPLINE
  5
551
100
AcDbEntity
  8
0
100
AcDbSpline
 62
9
  6
CONTINUOUS
 70
0
 71
3
 72
9
 73
5
 74
0
 42
0.0000001
 43
0.0000001
 44
0.0000000001
 40
0.0
 40
0.0
 40
0.0
 40
0.0
 40
0.2500521421
 40
1.0
 40
1.0
 40
1.0
 40
1.0
 10
95.818823492
 20
175.2987980587
 30
0.0
 10
95.8675774743
 20
175.3195109517
 30
0.0
 10
96.0631007437
 20
175.4010542757
 30
0.0
 10
96.2606204936
 20
175.4777709022
 30
0.0
 10
96.4095296
 20
175.5331406567
 30
0.0
  0
SPLINE
  5
552
100
AcDbEntity
  8
0
100
AcDbSpline
 62
9
  6
CONTINUOUS
 70
0
 71
3
 72
24
 73
20
 74
0
 42
0.0000001
 43
0.0000001
 44
0.0000000001
 40
0.0
 40
0.0
 40
0.0
 40
0.0
 40
0.1513832394
 40
0.2984186769
 40
0.369971902
 40
0.439955179
 40
0.5081665102
 40
0.5743477032
 40
0.6382792346
 40
0.6996622359
 40
0.7582630645
 40
0.8135524247
 40
0.8652640722
 40
0.8897317655
 40
0.9132173022
 40
0.9357665479
 40
0.9576011577
 40
0.9789504677
 40
1.0
 40
1.0
 40
1.0
 40
1.0
 10
100.5417569249
 20
176.6408313778
 30
0.0
 10
100.73617195
 20
176.6727551825
 30
0.0
 10
101.1208062992
 20
176.7277415558
 30
0.0
 10
101.6011630689
 20
176.7670508549
 30
0.0
 10
101.9767776454
 20
176.7742903711
 30
0.0
 10
102.2497627166
 20
176.7660021723
 30
0.0
 10
102.5148720378
 20
176.7422780537
 30
0.0
 10
102.7699432207
 20
176.7011579292
 30
0.0
 10
103.0121148211
 20
176.6408193434
 30
0.0
 10
103.2377454817
 20
176.5594170495
 30
0.0
 10
103.4416958424
 20
176.4557282586
 30
0.0
 10
103.6182144517
 20
176.330420188
 30
0.0
 10
103.7381955127
 20
176.2067744483
 30
0.0
 10
103.8134809956
 20
176.1009064115
 30
0.0
 10
103.8584775071
 20
176.0207128084
 30
0.0
 10
103.89252137
 20
175.9389875692
 30
0.0
 10
103.9160058633
 20
175.8565228397
 30
0.0
 10
103.9295740274
 20
175.7738621461
 30
0.0
 10
103.9324674167
 20
175.7186332896
 30
0.0
 10
103.9324657553
 20
175.6912382522
 30
0.0
  0
SPLINE
  5
553
100
AcDbEntity
  8
0
100
AcDbSpline
 62
9
  6
CONTINUOUS
 70
0
 71
3
 72
9
 73
5
 74
0
 42
0.0000001
 43
0.0000001
 44
0.0000000001
 40
0.0
 40
0.0
 40
0.0
 40
0.0
 40
0.2564957546
 40
1.0
 40
1.0
 40
1.0
 40
1.0
 10
103.9300280028
 20
175.6154518246
 30
0.0
 10
103.9304285454
 20
175.610223314
 30
0.0
 10
103.9317915288
 20
175.5898243248
 30
0.0
 10
103.932403425
 20
175.5693741101
 30
0.0
 10
103.9324034258
 20
175.5541738189
 30
0.0
  0
SPLINE
  5
554
100
AcDbEntity
  8
0
100
AcDbSpline
 62
9
  6
CONTINUOUS
 70
0
 71
3
 72
24
 73
20
 74
0
 42
0.0000001
 43
0.0000001
 44
0.0000000001
 40
0.0
 40
0.0
 40
0.0
 40
0.0
 40
0.0389497657
 40
0.0821496236
 40
0.1057997399
 40
0.1308374341
 40
0.1572318006
 40
0.1849455105
 40
0.2138817026
 40
0.2438923614
 40
0.2748215984
 40
0.3065181075
 40
0.3717710164
 40
0.4388373131
 40
0.5072030293
 40
0.5765723458
 40
0.7169304943
 40
0.8582469005
 40
1.0
 40
1.0
 40
1.0
 40
1.0
 10
103.9324019401
 20
175.5541734204
 30
0.0
 10
103.9323837553
 20
175.5095456083
 30
0.0
 10
103.9244631273
 20
175.4153008765
 30
0.0
 10
103.8961521585
 20
175.2970217557
 30
0.0
 10
103.8621543037
 20
175.1973299134
 30
0.0
 10
103.8296092513
 20
175.1176411814
 30
0.0
 10
103.7907332833
 20
175.0356664389
 30
0.0
 10
103.7454999693
 20
174.9519090841
 30
0.0
 10
103.6941494396
 20
174.8668837545
 30
0.0
 10
103.6370690015
 20
174.7811362621
 30
0.0
 10
103.5746386721
 20
174.6952603943
 30
0.0
 10
103.4838385687
 20
174.5802260417
 30
0.0
 10
103.3593363501
 20
174.4392408101
 30
0.0
 10
103.1963403173
 20
174.2768647873
 30
0.0
 10
103.020817232
 20
174.1209457174
 30
0.0
 10
102.7720936775
 20
173.9216149088
 30
0.0
 10
102.4413983403
 20
173.6917479742
 30
0.0
 10
102.023170828
 20
173.4452056811
 30
0.0
 10
101.7341639017
 20
173.2975910627
 30
0.0
 10
101.5877503395
 20
173.2272875998
 30
0.0
  0
SPLINE
  5
555
100
AcDbEntity
  8
0
100
AcDbSpline
 62
9
  6
CONTINUOUS
 70
0
 71
3
 72
24
 73
20
 74
0
 42
0.0000001
 43
0.0000001
 44
0.0000000001
 40
0.0
 40
0.0
 40
0.0
 40
0.0
 40
0.1425988623
 40
0.2130399556
 40
0.2827609474
 40
0.3516352439
 40
0.4195403171
 40
0.4862990479
 40
0.5517498111
 40
0.6157110974
 40
0.6779370156
 40
0.7382680649
 40
0.7963664338
 40
0.85184997
 40
0.878588175
 40
0.9045909486
 40
0.9297996756
 40
0.9541690601
 40
1.0
 40
1.0
 40
1.0
 40
1.0
 10
97.5339689964
 20
171.904529347
 30
0.0
 10
97.3208399498
 20
171.8554998912
 30
0.0
 10
97.001389482
 20
171.7865743868
 30
0.0
 10
96.5751306744
 20
171.7067017525
 30
0.0
 10
96.2588078647
 20
171.6543998781
 30
0.0
 10
95.9450925753
 20
171.6107482971
 30
0.0
 10
95.6347144834
 20
171.5769735026
 30
0.0
 10
95.3285340632
 20
171.5547815262
 30
0.0
 10
95.0277008407
 20
171.5459180984
 30
0.0
 10
94.7337097762
 20
171.5522469877
 30
0.0
 10
94.4484430164
 20
171.5762443386
 30
0.0
 10
94.1745769839
 20
171.6202651151
 30
0.0
 10
93.9157455922
 20
171.6863402187
 30
0.0
 10
93.7138206437
 20
171.7625510888
 30
0.0
 10
93.565386127
 20
171.8371235262
 30
0.0
 10
93.4628296396
 20
171.8987890634
 30
0.0
 10
93.3687248451
 20
171.9667749204
 30
0.0
 10
93.2585390319
 20
172.0632104022
 30
0.0
 10
93.1879554043
 20
172.1459670351
 30
0.0
 10
93.1492299485
 20
172.2046252758
 30
0.0
  0
SPLINE
  5
556
100
AcDbEntity
  8
0
100
AcDbSpline
 62
7
  6
CONTINUOUS
 70
0
 71
3
 72
11
 73
7
 74
0
 42
0.0000001
 43
0.0000001
 44
0.0000000001
 40
0.0
 40
0.0
 40
0.0
 40
0.0
 40
0.2642887842
 40
0.5170442819
 40
0.7606776986
 40
1.0
 40
1.0
 40
1.0
 40
1.0
 10
121.166279376
 20
194.3675634753
 30
0.0
 10
121.1494996752
 20
194.3625299659
 30
0.0
 10
121.115747405
 20
194.3554467252
 30
0.0
 10
121.0650058658
 20
194.3545218264
 30
0.0
 10
121.016771151
 20
194.3638671276
 30
0.0
 10
120.9871481885
 20
194.3768051292
 30
0.0
 10
120.9734146878
 20
194.3847450048
 30
0.0
  0
SPLINE
  5
557
100
AcDbEntity
  8
0
100
AcDbSpline
 62
9
  6
CONTINUOUS
 70
0
 71
3
 72
9
 73
5
 74
0
 42
0.0000001
 43
0.0000001
 44
0.0000000001
 40
0.0
 40
0.0
 40
0.0
 40
0.0
 40
0.2498833308
 40
1.0
 40
1.0
 40
1.0
 40
1.0
 10
76.7957716297
 20
190.9089312837
 30
0.0
 10
76.7056435403
 20
190.887505989
 30
0.0
 10
76.3449488002
 20
190.8018239588
 30
0.0
 10
75.9841978702
 20
190.7163784712
 30
0.0
 10
75.7135612353
 20
190.6524171538
 30
0.0
  0
SPLINE
  5
558
100
AcDbEntity
  8
0
100
AcDbSpline
 62
9
  6
CONTINUOUS
 70
0
 71
3
 72
22
 73
18
 74
0
 42
0.0000001
 43
0.0000001
 44
0.0000000001
 40
0.0
 40
0.0
 40
0.0
 40
0.0
 40
0.0428316621
 40
0.0905509231
 40
0.1430646002
 40
0.2002751137
 40
0.2619853649
 40
0.3275125693
 40
0.396018922
 40
0.4666618865
 40
0.5385862973
 40
0.6108354847
 40
0.6824027747
 40
0.7522725209
 40
0.8834588217
 40
0.9437882633
 40
1.0
 40
1.0
 40
1.0
 40
1.0
 10
106.3322836254
 20
175.3751093751
 30
0.0
 10
106.3022440704
 20
175.3924594039
 30
0.0
 10
106.2371214591
 20
175.4263749773
 30
0.0
 10
106.130760503
 20
175.4725405407
 30
0.0
 10
106.0107482716
 20
175.5158707287
 30
0.0
 10
105.8775755478
 20
175.555414954
 30
0.0
 10
105.7322152936
 20
175.5901480825
 30
0.0
 10
105.5763871595
 20
175.6196183828
 30
0.0
 10
105.4122502692
 20
175.6431999978
 30
0.0
 10
105.2420987242
 20
175.6602646506
 30
0.0
 10
105.0683437199
 20
175.6701332124
 30
0.0
 10
104.8935920933
 20
175.6730152841
 30
0.0
 10
104.7205201153
 20
175.6691766497
 30
0.0
 10
104.5000891588
 20
175.6557265746
 30
0.0
 10
104.2896440106
 20
175.6301459629
 30
0.0
 10
104.0923849608
 20
175.5932360519
 30
0.0
 10
104.0004096015
 20
175.5718515476
 30
0.0
 10
103.9563300864
 20
175.5604637206
 30
0.0
  0
SPLINE
  5
559
100
AcDbEntity
  8
0
100
AcDbSpline
 62
7
  6
CONTINUOUS
 70
0
 71
3
 72
22
 73
18
 74
0
 42
0.0000001
 43
0.0000001
 44
0.0000000001
 40
0.0
 40
0.0
 40
0.0
 40
0.0
 40
0.0607874722
 40
0.1241520257
 40
0.1896728765
 40
0.2568447367
 40
0.3251464682
 40
0.3940583351
 40
0.4630359773
 40
0.5315123769
 40
0.5989244973
 40
0.6647351949
 40
0.7894715002
 40
0.8475418923
 40
0.9022131303
 40
0.9531345291
 40
1.0
 40
1.0
 40
1.0
 40
1.0
 10
103.9300227261
 20
175.6154769556
 30
0.0
 10
103.9776772009
 20
175.6298902062
 30
0.0
 10
104.0761882058
 20
175.6554892404
 30
0.0
 10
104.228716778
 20
175.6852945647
 30
0.0
 10
104.3876513394
 20
175.7085439607
 30
0.0
 10
104.551399208
 20
175.7258618809
 30
0.0
 10
104.7184843503
 20
175.7367972502
 30
0.0
 10
104.8873521542
 20
175.7410314984
 30
0.0
 10
105.0563968502
 20
175.7385580002
 30
0.0
 10
105.2239867649
 20
175.7295488689
 30
0.0
 10
105.388513538
 20
175.7141304878
 30
0.0
 10
105.5979116503
 20
175.6857799238
 30
0.0
 10
105.7979004296
 20
175.6455577687
 30
0.0
 10
105.9850704007
 20
175.5923612583
 30
0.0
 10
106.1117540471
 20
175.5482810274
 30
0.0
 10
106.2268336725
 20
175.499585251
 30
0.0
 10
106.2981198876
 20
175.4628328428
 30
0.0
 10
106.3313581921
 20
175.4436353034
 30
0.0
  0
SPLINE
  5
55A
100
AcDbEntity
  8
0
100
AcDbSpline
 62
9
  6
CONTINUOUS
 70
0
 71
3
 72
9
 73
5
 74
0
 42
0.0000001
 43
0.0000001
 44
0.0000000001
 40
0.0
 40
0.0
 40
0.0
 40
0.0
 40
0.5007908087
 40
1.0
 40
1.0
 40
1.0
 40
1.0
 10
106.3313578604
 20
175.4436360344
 30
0.0
 10
106.331666467
 20
175.4551768018
 30
0.0
 10
106.3321112308
 20
175.4782262559
 30
0.0
 10
106.3323472598
 20
175.5012792678
 30
0.0
 10
106.3323472598
 20
175.5127876992
 30
0.0
  0
SPLINE
  5
55B
100
AcDbEntity
  8
0
100
AcDbSpline
 62
7
  6
CONTINUOUS
 70
0
 71
3
 72
9
 73
5
 74
0
 42
0.0000001
 43
0.0000001
 44
0.0000000001
 40
0.0
 40
0.0
 40
0.0
 40
0.0
 40
0.2494935107
 40
1.0
 40
1.0
 40
1.0
 40
1.0
 10
75.8812703259
 20
181.3755974296
 30
0.0
 10
75.4817108737
 20
181.2814139108
 30
0.0
 10
73.879956528
 20
180.905069856
 30
0.0
 10
72.2771190493
 20
180.5333360708
 30
0.0
 10
71.0735915527
 20
180.2569164799
 30
0.0
  0
SPLINE
  5
55C
100
AcDbEntity
  8
0
100
AcDbSpline
 62
9
  6
CONTINUOUS
 70
0
 71
3
 72
29
 73
25
 74
0
 42
0.0000001
 43
0.0000001
 44
0.0000000001
 40
0.0
 40
0.0
 40
0.0
 40
0.0
 40
0.0452212567
 40
0.0700611277
 40
0.0962739616
 40
0.1236601341
 40
0.1519644592
 40
0.1809667553
 40
0.2105245339
 40
0.2406671061
 40
0.2714466985
 40
0.3028781308
 40
0.3349494879
 40
0.3676078404
 40
0.4007666763
 40
0.4682492591
 40
0.5367872608
 40
0.6058361363
 40
0.6748357785
 40
0.7432239576
 40
0.8104716736
 40
0.8760604213
 40
0.939431097
 40
1.0
 40
1.0
 40
1.0
 40
1.0
 10
106.3323472598
 20
175.5127876999
 30
0.0
 10
106.2983685031
 20
175.52742411
 30
0.0
 10
106.2457071748
 20
175.550057936
 30
0.0
 10
106.1734477932
 20
175.581403864
 30
0.0
 10
106.1147138165
 20
175.607259548
 30
0.0
 10
106.0531757677
 20
175.6337836105
 30
0.0
 10
105.9888459515
 20
175.6595585195
 30
0.0
 10
105.9218276108
 20
175.6832980039
 30
0.0
 10
105.8520790061
 20
175.7034854986
 30
0.0
 10
105.7799986153
 20
175.7204408559
 30
0.0
 10
105.7058388852
 20
175.7349737578
 30
0.0
 10
105.6297671782
 20
175.7477729354
 30
0.0
 10
105.5519959604
 20
175.7596569552
 30
0.0
 10
105.4727061984
 20
175.7709381825
 30
0.0
 10
105.3645242531
 20
175.7847438014
 30
0.0
 10
105.2267927321
 20
175.7988418308
 30
0.0
 10
105.059228789
 20
175.8083369688
 30
0.0
 10
104.890183356
 20
175.8106552881
 30
0.0
 10
104.7213037401
 20
175.8064413279
 30
0.0
 10
104.5541680038
 20
175.7960401449
 30
0.0
 10
104.390337029
 20
175.7794043561
 30
0.0
 10
104.2314036548
 20
175.7565053533
 30
0.0
 10
104.079007832
 20
175.727619677
 30
0.0
 10
103.9803352496
 20
175.7040467191
 30
0.0
 10
103.9324657559
 20
175.6912382523
 30
0.0
  0
SPLINE
  5
55D
100
AcDbEntity
  8
0
100
AcDbSpline
 62
7
  6
CONTINUOUS
 70
0
 71
3
 72
9
 73
5
 74
0
 42
0.0000001
 43
0.0000001
 44
0.0000000001
 40
0.0
 40
0.0
 40
0.0
 40
0.0
 40
0.5119483473
 40
1.0
 40
1.0
 40
1.0
 40
1.0
 10
100.5417670828
 20
176.640832626
 30
0.0
 10
100.5417670502
 20
176.6981619907
 30
0.0
 10
100.5454359802
 20
176.8101831014
 30
0.0
 10
100.5572545884
 20
176.9216689479
 30
0.0
 10
100.5652705357
 20
176.9757312549
 30
0.0
  0
SPLINE
  5
55E
100
AcDbEntity
  8
0
100
AcDbSpline
 62
9
  6
CONTINUOUS
 70
0
 71
3
 72
14
 73
10
 74
0
 42
0.0000001
 43
0.0000001
 44
0.0000000001
 40
0.0
 40
0.0
 40
0.0
 40
0.0
 40
0.268554288
 40
0.397632501
 40
0.5233238186
 40
0.6459452802
 40
0.7659312313
 40
0.8837793143
 40
1.0
 40
1.0
 40
1.0
 40
1.0
 10
106.3323472598
 20
175.5127876992
 30
0.0
 10
106.3323472598
 20
175.6648023554
 30
0.0
 10
106.3119880295
 20
175.890802542
 30
0.0
 10
106.2413836867
 20
176.178875353
 30
0.0
 10
106.169607386
 20
176.3804999777
 30
0.0
 10
106.0797704046
 20
176.5690236016
 30
0.0
 10
105.9734586215
 20
176.7435906688
 30
0.0
 10
105.8523983768
 20
176.9036998098
 30
0.0
 10
105.7624460199
 20
177.0012987141
 30
0.0
 10
105.715652215
 20
177.0475394304
 30
0.0
  0
SPLINE
  5
55F
100
AcDbEntity
  8
0
100
AcDbSpline
 62
9
  6
CONTINUOUS
 70
0
 71
3
 72
9
 73
5
 74
0
 42
0.0000001
 43
0.0000001
 44
0.0000000001
 40
0.0
 40
0.0
 40
0.0
 40
0.0
 40
0.2512789341
 40
1.0
 40
1.0
 40
1.0
 40
1.0
 10
105.715652215
 20
177.0475394304
 30
0.0
 10
105.6947433248
 20
177.0682011838
 30
0.0
 10
105.6098272252
 20
177.1486891344
 30
0.0
 10
105.518370081
 20
177.2222253101
 30
0.0
 10
105.4471175107
 20
177.2731633716
 30
0.0
  0
SPLINE
  5
560
100
AcDbEntity
  8
0
100
AcDbSpline
 62
7
  6
CONTINUOUS
 70
0
 71
3
 72
11
 73
7
 74
0
 42
0.0000001
 43
0.0000001
 44
0.0000000001
 40
0.0
 40
0.0
 40
0.0
 40
0.0
 40
0.2752058335
 40
0.5302853951
 40
0.7696291183
 40
1.0
 40
1.0
 40
1.0
 40
1.0
 10
69.4310252521
 20
188.7552575984
 30
0.0
 10
69.4053212801
 20
188.7701037225
 30
0.0
 10
69.3536430083
 20
188.7952558032
 30
0.0
 10
69.2734630431
 20
188.8184647231
 30
0.0
 10
69.1949822241
 20
188.8249826773
 30
0.0
 10
69.1443207124
 20
188.8175739434
 30
0.0
 10
69.1203225845
 20
188.8111327634
 30
0.0
  0
SPLINE
  5
561
100
AcDbEntity
  8
0
100
AcDbSpline
 62
7
  6
CONTINUOUS
 70
0
 71
3
 72
24
 73
20
 74
0
 42
0.0000001
 43
0.0000001
 44
0.0000000001
 40
0.0
 40
0.0
 40
0.0
 40
0.0
 40
0.0198705041
 40
0.0401035213
 40
0.0828902195
 40
0.130531968
 40
0.184081186
 40
0.243734607
 40
0.3090462806
 40
0.3791423233
 40
0.4528128611
 40
0.5286784726
 40
0.6052121967
 40
0.6808779905
 40
0.7541592951
 40
0.8236847566
 40
0.8883559615
 40
0.9473095781
 40
1.0
 40
1.0
 40
1.0
 40
1.0
 10
69.7417266807
 20
186.4929889699
 30
0.0
 10
69.758404526
 20
186.4974653609
 30
0.0
 10
69.7913907756
 20
186.5092539163
 30
0.0
 10
69.8547901255
 20
186.5439952099
 30
0.0
 10
69.9272740349
 20
186.6092828496
 30
0.0
 10
69.9973297033
 20
186.7140956133
 30
0.0
 10
70.0512409049
 20
186.8438291414
 30
0.0
 10
70.0880878946
 20
186.9950334391
 30
0.0
 10
70.1070637241
 20
187.1638708466
 30
0.0
 10
70.1077163859
 20
187.345876228
 30
0.0
 10
70.0900663538
 20
187.5361981241
 30
0.0
 10
70.0545121202
 20
187.7296680288
 30
0.0
 10
70.0021115332
 20
187.9210639008
 30
0.0
 10
69.9341590519
 20
188.1051191017
 30
0.0
 10
69.8527024391
 20
188.2769229014
 30
0.0
 10
69.759728577
 20
188.4317728241
 30
0.0
 10
69.6578035759
 20
188.5656674627
 30
0.0
 10
69.5495022721
 20
188.6747013532
 30
0.0
 10
69.4706766106
 20
188.7323562591
 30
0.0
 10
69.4310252521
 20
188.7552575984
 30
0.0
  0
SPLINE
  5
562
100
AcDbEntity
  8
0
100
AcDbSpline
 62
7
  6
CONTINUOUS
 70
0
 71
3
 72
15
 73
11
 74
0
 42
0.0000001
 43
0.0000001
 44
0.0000000001
 40
0.0
 40
0.0
 40
0.0
 40
0.0
 40
0.1318782712
 40
0.261101619
 40
0.3878853495
 40
0.512542426
 40
0.635531246
 40
0.7573746835
 40
0.8786584976
 40
1.0
 40
1.0
 40
1.0
 40
1.0
 10
36.0554368076
 20
153.9168071522
 30
0.0
 10
36.061822966
 20
153.8208615667
 30
0.0
 10
36.0847267726
 20
153.6313967507
 30
0.0
 10
36.1504329738
 20
153.3556974496
 30
0.0
 10
36.2460345115
 20
153.0944132157
 30
0.0
 10
36.3707001355
 20
152.8507411025
 30
0.0
 10
36.5227483966
 20
152.627479414
 30
0.0
 10
36.7002595653
 20
152.42710112
 30
0.0
 10
36.9012629074
 20
152.2521800271
 30
0.0
 10
37.0489714177
 20
152.1537919168
 30
0.0
 10
37.125573471
 20
152.1095204019
 30
0.0
  0
SPLINE
  5
563
100
AcDbEntity
  8
0
100
AcDbSpline
 62
7
  6
CONTINUOUS
 70
0
 71
3
 72
13
 73
9
 74
0
 42
0.0000001
 43
0.0000001
 44
0.0000000001
 40
0.0
 40
0.0
 40
0.0
 40
0.0
 40
0.2627251732
 40
0.3925454382
 40
0.5202796982
 40
0.7669795326
 40
0.8854504554
 40
1.0
 40
1.0
 40
1.0
 40
1.0
 10
80.1752421379
 20
148.2443859262
 30
0.0
 10
80.0468973102
 20
148.0124666344
 30
0.0
 10
79.8235870108
 20
147.6819785787
 30
0.0
 10
79.4725911764
 20
147.2908835358
 30
0.0
 10
79.0985775448
 20
146.9452260096
 30
0.0
 10
78.6852929539
 20
146.661172826
 30
0.0
 10
78.2463719373
 20
146.4553939302
 30
0.0
 10
78.0229138381
 20
146.380188793
 30
0.0
 10
77.911285537
 20
146.350265766
 30
0.0
  0
SPLINE
  5
564
100
AcDbEntity
  8
0
100
AcDbSpline
 62
7
  6
CONTINUOUS
 70
0
 71
3
 72
13
 73
9
 74
0
 42
0.0000001
 43
0.0000001
 44
0.0000000001
 40
0.0
 40
0.0
 40
0.0
 40
0.0
 40
0.2630843535
 40
0.3907733049
 40
0.5159512593
 40
0.7600412589
 40
0.8802970045
 40
1.0
 40
1.0
 40
1.0
 40
1.0
 10
72.3575927644
 20
144.8615456361
 30
0.0
 10
72.2099044504
 20
144.8219563799
 30
0.0
 10
71.9848896534
 20
144.7812583102
 30
0.0
 10
71.6849008113
 20
144.769152413
 30
0.0
 10
71.3961760573
 20
144.7853134286
 30
0.0
 10
71.1152745261
 20
144.843660556
 30
0.0
 10
70.8519910199
 20
144.943917702
 30
0.0
 10
70.7273830048
 20
145.0072775715
 30
0.0
 10
70.6671389837
 20
145.0420726105
 30
0.0
  0
SPLINE
  5
565
100
AcDbEntity
  8
0
100
AcDbSpline
 62
7
  6
CONTINUOUS
 70
0
 71
3
 72
10
 73
6
 74
0
 42
0.0000001
 43
0.0000001
 44
0.0000000001
 40
0.0
 40
0.0
 40
0.0
 40
0.0
 40
0.2562831633
 40
0.6337887844
 40
1.0
 40
1.0
 40
1.0
 40
1.0
 10
70.5374149028
 20
164.2699088821
 30
0.0
 10
70.5134096466
 20
164.1982828498
 30
0.0
 10
70.4606883241
 20
164.0188546185
 30
0.0
 10
70.4053490609
 20
163.7286492155
 30
0.0
 10
70.3906599182
 20
163.5092343582
 30
0.0
 10
70.3906599182
 20
163.4012904769
 30
0.0
  0
SPLINE
  5
566
100
AcDbEntity
  8
0
100
AcDbSpline
 62
7
  6
CONTINUOUS
 70
0
 71
3
 72
15
 73
11
 74
0
 42
0.0000001
 43
0.0000001
 44
0.0000000001
 40
0.0
 40
0.0
 40
0.0
 40
0.0
 40
0.137707842
 40
0.271557265
 40
0.401163762
 40
0.5266626779
 40
0.6485360041
 40
0.7674649235
 40
0.8842846254
 40
1.0
 40
1.0
 40
1.0
 40
1.0
 10
70.390659908
 20
147.4416415861
 30
0.0
 10
70.390659908
 20
147.3590216212
 30
0.0
 10
70.3990475529
 20
147.1959536679
 30
0.0
 10
70.4374771403
 20
146.957862629
 30
0.0
 10
70.5014556764
 20
146.7328479476
 30
0.0
 10
70.5901048405
 20
146.5240958824
 30
0.0
 10
70.7023216366
 20
146.3343459508
 30
0.0
 10
70.8367210309
 20
146.1661444783
 30
0.0
 10
70.991435173
 20
146.0217756073
 30
0.0
 10
71.1071549063
 20
145.9427193509
 30
0.0
 10
71.1672732469
 20
145.90799689
 30
0.0
  0
SPLINE
  5
567
100
AcDbEntity
  8
0
100
AcDbSpline
 62
7
  6
CONTINUOUS
 70
0
 71
3
 72
24
 73
20
 74
0
 42
0.0000001
 43
0.0000001
 44
0.0000000001
 40
0.0
 40
0.0
 40
0.0
 40
0.0
 40
0.0592087064
 40
0.1214166319
 40
0.1862015788
 40
0.2531030188
 40
0.3904356806
 40
0.4596029858
 40
0.5280359212
 40
0.5950796189
 40
0.6601349766
 40
0.7227432965
 40
0.7827337897
 40
0.8117608726
 40
0.8401402272
 40
0.8679025629
 40
0.8951063791
 40
0.9481226648
 40
1.0
 40
1.0
 40
1.0
 40
1.0
 10
60.5852435964
 20
224.7744868823
 30
0.0
 10
60.4427894789
 20
224.7324149382
 30
0.0
 10
60.1575066282
 20
224.6216431315
 30
0.0
 10
59.7498766085
 20
224.390694846
 30
0.0
 10
59.3612666735
 20
224.0957455598
 30
0.0
 10
58.8775664621
 20
223.6232565692
 30
0.0
 10
58.4754177672
 20
223.0584630238
 30
0.0
 10
58.1764710522
 20
222.4356540782
 30
0.0
 10
58.0094736664
 20
221.9488197194
 30
0.0
 10
57.9042323662
 20
221.4556129731
 30
0.0
 10
57.8635002776
 20
220.9673758872
 30
0.0
 10
57.8900578333
 20
220.4957796707
 30
0.0
 10
57.9677081636
 20
220.1216996493
 30
0.0
 10
58.0622201629
 20
219.8424540081
 30
0.0
 10
58.1476693219
 20
219.646324776
 30
0.0
 10
58.2481254121
 20
219.4625943485
 30
0.0
 10
58.4001584251
 20
219.2379702881
 30
0.0
 10
58.6247559539
 20
218.9913018748
 30
0.0
 10
58.8391333278
 20
218.8350121086
 30
0.0
 10
58.9517302351
 20
218.7697466028
 30
0.0
  0
SPLINE
  5
568
100
AcDbEntity
  8
0
100
AcDbSpline
 62
7
  6
CONTINUOUS
 70
0
 71
3
 72
25
 73
21
 74
0
 42
0.0000001
 43
0.0000001
 44
0.0000000001
 40
0.0
 40
0.0
 40
0.0
 40
0.0
 40
0.0572566198
 40
0.1181406255
 40
0.1822610004
 40
0.2491351706
 40
0.388073956
 40
0.4586195437
 40
0.5286188497
 40
0.5972409575
 40
0.6637005976
 40
0.7273447383
 40
0.7878364351
 40
0.8168689909
 40
0.8450723913
 40
0.8724659537
 40
0.8991023798
 40
0.9504137878
 40
0.9753699123
 40
1.0
 40
1.0
 40
1.0
 40
1.0
 10
68.4547873122
 20
227.3297350491
 30
0.0
 10
68.3215806611
 20
227.2822638059
 30
0.0
 10
68.0548283046
 20
227.1605733053
 30
0.0
 10
67.6755409152
 20
226.9157336649
 30
0.0
 10
67.313403145
 20
226.6080054246
 30
0.0
 10
66.8599151086
 20
226.1177043175
 30
0.0
 10
66.4842921605
 20
225.5399473469
 30
0.0
 10
66.2040461004
 20
224.9081040845
 30
0.0
 10
66.0467737351
 20
224.4148429271
 30
0.0
 10
65.9473267676
 20
223.9171034269
 30
0.0
 10
65.908398513
 20
223.4265446909
 30
0.0
 10
65.9326806528
 20
222.9550449223
 30
0.0
 10
66.0052231416
 20
222.5822145533
 30
0.0
 10
66.0939838441
 20
222.305039268
 30
0.0
 10
66.1740258266
 20
222.1116805265
 30
0.0
 10
66.2681383539
 20
221.931348262
 30
0.0
 10
66.40997234
 20
221.7129084192
 30
0.0
 10
66.5793056024
 20
221.520562674
 30
0.0
 10
66.7718597352
 20
221.361806215
 30
0.0
 10
66.8744693585
 20
221.2943932644
 30
0.0
 10
66.9270950119
 20
221.2638807992
 30
0.0
  0
SPLINE
  5
569
100
AcDbEntity
  8
0
100
AcDbSpline
 62
7
  6
CONTINUOUS
 70
0
 71
3
 72
25
 73
21
 74
0
 42
0.0000001
 43
0.0000001
 44
0.0000000001
 40
0.0
 40
0.0
 40
0.0
 40
0.0
 40
0.1261502474
 40
0.1587964573
 40
0.1917488634
 40
0.2583465262
 40
0.3255113812
 40
0.3927140899
 40
0.4594451129
 40
0.5252422106
 40
0.5576814649
 40
0.5897475096
 40
0.6526043408
 40
0.7137198041
 40
0.7731329627
 40
0.8310494382
 40
0.8595817409
 40
0.8878839252
 40
0.9439999469
 40
1.0
 40
1.0
 40
1.0
 40
1.0
 10
43.2648177943
 20
220.5773157663
 30
0.0
 10
42.9434412233
 20
220.5146492113
 30
0.0
 10
42.5484148418
 20
220.3726657952
 30
0.0
 10
42.1137933112
 20
220.1303222205
 30
0.0
 10
41.8254367314
 20
219.9438404497
 30
0.0
 10
41.4857571793
 20
219.6737395838
 30
0.0
 10
41.1208393374
 20
219.2991008899
 30
0.0
 10
40.8063448837
 20
218.8807051435
 30
0.0
 10
40.5501754153
 20
218.4283379869
 30
0.0
 10
40.3903489056
 20
218.0295281526
 30
0.0
 10
40.2980929604
 20
217.7038795602
 30
0.0
 10
40.2311366286
 20
217.3799145978
 30
0.0
 10
40.1927534201
 20
216.9750572862
 30
0.0
 10
40.2223771809
 20
216.4979630056
 30
0.0
 10
40.3268885738
 20
216.0445151726
 30
0.0
 10
40.4754758284
 20
215.6939337611
 30
0.0
 10
40.6279777601
 20
215.437669534
 30
0.0
 10
40.8006305724
 20
215.2002830126
 30
0.0
 10
41.055081226
 20
214.9362844676
 30
0.0
 10
41.2942784919
 20
214.7671457521
 30
0.0
 10
41.4201412597
 20
214.6944444994
 30
0.0
  0
SPLINE
  5
56A
100
AcDbEntity
  8
0
100
AcDbSpline
 62
7
  6
CONTINUOUS
 70
0
 71
3
 72
26
 73
22
 74
0
 42
0.0000001
 43
0.0000001
 44
0.0000000001
 40
0.0
 40
0.0
 40
0.0
 40
0.0
 40
0.1238588512
 40
0.1562831222
 40
0.1891485489
 40
0.2559473215
 40
0.3237416161
 40
0.3918991022
 40
0.4597940956
 40
0.5268356867
 40
0.5924916144
 40
0.6563503173
 40
0.7181394022
 40
0.7777708228
 40
0.8353519325
 40
0.8634914254
 40
0.891250977
 40
0.9187010985
 40
0.9459185233
 40
0.9729881563
 40
1.0
 40
1.0
 40
1.0
 40
1.0
 10
52.1885888733
 20
222.5236721244
 30
0.0
 10
51.8815787825
 20
222.4492455153
 30
0.0
 10
51.5070445054
 20
222.2916669013
 30
0.0
 10
51.0988186552
 20
222.0348224337
 30
0.0
 10
50.8257320282
 20
221.8370578083
 30
0.0
 10
50.5047256967
 20
221.5535230846
 30
0.0
 10
50.1612444473
 20
221.1652703192
 30
0.0
 10
49.8660045236
 20
220.7357427682
 30
0.0
 10
49.6262017324
 20
220.275118808
 30
0.0
 10
49.4480360688
 20
219.7940457952
 30
0.0
 10
49.3361507381
 20
219.3038481324
 30
0.0
 10
49.2934089967
 20
218.8161667141
 30
0.0
 10
49.3214388962
 20
218.3426221132
 30
0.0
 10
49.4194112801
 20
217.8947211807
 30
0.0
 10
49.559074471
 20
217.5490856813
 30
0.0
 10
49.7028596923
 20
217.2974984497
 30
0.0
 10
49.825139233
 20
217.123212094
 30
0.0
 10
49.9617323966
 20
216.9629920389
 30
0.0
 10
50.1118035597
 20
216.8178096391
 30
0.0
 10
50.2744748333
 20
216.6887152109
 30
0.0
 10
50.390621233
 20
216.6138280702
 30
0.0
 10
50.450277948
 20
216.5793688143
 30
0.0
  0
SPLINE
  5
56B
100
AcDbEntity
  8
0
100
AcDbSpline
 62
7
  6
CONTINUOUS
 70
0
 71
3
 72
14
 73
10
 74
0
 42
0.0000001
 43
0.0000001
 44
0.0000000001
 40
0.0
 40
0.0
 40
0.0
 40
0.0
 40
0.1184635051
 40
0.2370994859
 40
0.3568840886
 40
0.4787338196
 40
0.6034734331
 40
0.7317595974
 40
1.0
 40
1.0
 40
1.0
 40
1.0
 10
69.9610644637
 20
227.2485999737
 30
0.0
 10
69.9078315588
 20
227.2793359599
 30
0.0
 10
69.7974896323
 20
227.3345376919
 30
0.0
 10
69.6226801744
 20
227.3969290734
 30
0.0
 10
69.4399630338
 20
227.4384531249
 30
0.0
 10
69.2505714258
 20
227.4590200332
 30
0.0
 10
69.0556537495
 20
227.458488199
 30
0.0
 10
68.7863922852
 20
227.429281881
 30
0.0
 10
68.5858961565
 20
227.3764603955
 30
0.0
 10
68.4547873122
 20
227.3297350491
 30
0.0
  0
SPLINE
  5
56C
100
AcDbEntity
  8
0
100
AcDbSpline
 62
7
  6
CONTINUOUS
 70
0
 71
3
 72
14
 73
10
 74
0
 42
0.0000001
 43
0.0000001
 44
0.0000000001
 40
0.0
 40
0.0
 40
0.0
 40
0.0
 40
0.1188256026
 40
0.2381898724
 40
0.3588134497
 40
0.4813628296
 40
0.6064354121
 40
0.7344937322
 40
1.0
 40
1.0
 40
1.0
 40
1.0
 10
62.1978894023
 20
224.6319237948
 30
0.0
 10
62.1408170017
 20
224.6648717704
 30
0.0
 10
62.0226186707
 20
224.7245834019
 30
0.0
 10
61.8357224467
 20
224.794047587
 30
0.0
 10
61.6403095053
 20
224.8430467277
 30
0.0
 10
61.4376906875
 20
224.8714120418
 30
0.0
 10
61.2290980529
 20
224.8789123326
 30
0.0
 10
60.9416988363
 20
224.8607981822
 30
0.0
 10
60.7264616362
 20
224.816195452
 30
0.0
 10
60.5852435964
 20
224.7744868823
 30
0.0
  0
SPLINE
  5
56D
100
AcDbEntity
  8
0
100
AcDbSpline
 62
7
  6
CONTINUOUS
 70
0
 71
3
 72
13
 73
9
 74
0
 42
0.0000001
 43
0.0000001
 44
0.0000000001
 40
0.0
 40
0.0
 40
0.0
 40
0.0
 40
0.1192027596
 40
0.2392128921
 40
0.4834017771
 40
0.608779511
 40
0.7366844509
 40
1.0
 40
1.0
 40
1.0
 40
1.0
 10
53.9059520991
 20
222.3205551062
 30
0.0
 10
53.8450272577
 20
222.3557469525
 30
0.0
 10
53.7189468864
 20
222.4200100605
 30
0.0
 10
53.4522737506
 20
222.5225640636
 30
0.0
 10
53.1675695735
 20
222.5839627775
 30
0.0
 10
52.8743074361
 20
222.6041456552
 30
0.0
 10
52.5691321553
 20
222.5967784075
 30
0.0
 10
52.3396331413
 20
222.5602902032
 30
0.0
 10
52.1885888734
 20
222.5236717458
 30
0.0
  0
SPLINE
  5
56E
100
AcDbEntity
  8
0
100
AcDbSpline
 62
7
  6
CONTINUOUS
 70
0
 71
3
 72
13
 73
9
 74
0
 42
0.0000001
 43
0.0000001
 44
0.0000000001
 40
0.0
 40
0.0
 40
0.0
 40
0.0
 40
0.1195945456
 40
0.2401801851
 40
0.4854774566
 40
0.6110491175
 40
0.7387345781
 40
1.0
 40
1.0
 40
1.0
 40
1.0
 10
45.0880047462
 20
220.3130793304
 30
0.0
 10
45.0230756577
 20
220.3505839301
 30
0.0
 10
44.8888417047
 20
220.4194943915
 30
0.0
 10
44.6054457999
 20
220.5315433116
 30
0.0
 10
44.3035167391
 20
220.6029209055
 30
0.0
 10
43.992123187
 20
220.6334666296
 30
0.0
 10
43.6692302403
 20
220.6368840407
 30
0.0
 10
43.4255957089
 20
220.6086690027
 30
0.0
 10
43.2648177944
 20
220.5773164791
 30
0.0
  0
SPLINE
  5
56F
100
AcDbEntity
  8
0
100
AcDbSpline
 62
7
  6
CONTINUOUS
 70
0
 71
3
 72
9
 73
5
 74
0
 42
0.0000001
 43
0.0000001
 44
0.0000000001
 40
0.0
 40
0.0
 40
0.0
 40
0.0
 40
0.4879489953
 40
1.0
 40
1.0
 40
1.0
 40
1.0
 10
54.5213519015
 20
239.5285343485
 30
0.0
 10
55.2982977919
 20
239.518240692
 30
0.0
 10
56.8954523415
 20
239.6576525238
 30
0.0
 10
58.4398805727
 20
240.0788112203
 30
0.0
 10
59.2071699971
 20
240.3547366355
 30
0.0
  0
SPLINE
  5
570
100
AcDbEntity
  8
0
100
AcDbSpline
 62
7
  6
CONTINUOUS
 70
0
 71
3
 72
9
 73
5
 74
0
 42
0.0000001
 43
0.0000001
 44
0.0000000001
 40
0.0
 40
0.0
 40
0.0
 40
0.0
 40
0.2459304308
 40
1.0
 40
1.0
 40
1.0
 40
1.0
 10
59.2071699971
 20
240.3547366355
 30
0.0
 10
59.4051229761
 20
240.4259226263
 30
0.0
 10
60.2040540701
 20
240.7318427902
 30
0.0
 10
60.9782680337
 20
241.1016139444
 30
0.0
 10
61.5441989097
 20
241.4110752325
 30
0.0
  0
SPLINE
  5
571
100
AcDbEntity
  8
0
100
AcDbSpline
 62
7
  6
CONTINUOUS
 70
0
 71
3
 72
9
 73
5
 74
0
 42
0.0000001
 43
0.0000001
 44
0.0000000001
 40
0.0
 40
0.0
 40
0.0
 40
0.0
 40
0.4910697864
 40
1.0
 40
1.0
 40
1.0
 40
1.0
 10
46.1246973327
 20
237.2777312915
 30
0.0
 10
46.7043353267
 20
237.270051742
 30
0.0
 10
47.8871426379
 20
237.3429961301
 30
0.0
 10
49.0479684893
 20
237.5774508115
 30
0.0
 10
49.6282540668
 20
237.7330018755
 30
0.0
  0
SPLINE
  5
572
100
AcDbEntity
  8
0
100
AcDbSpline
 62
7
  6
CONTINUOUS
 70
0
 71
3
 72
9
 73
5
 74
0
 42
0.0000001
 43
0.0000001
 44
0.0000000001
 40
0.0
 40
0.0
 40
0.0
 40
0.0
 40
0.2477236325
 40
1.0
 40
1.0
 40
1.0
 40
1.0
 10
49.6282540668
 20
237.7330018755
 30
0.0
 10
49.7270973641
 20
237.7594977607
 30
0.0
 10
50.1249500937
 20
237.8707223633
 30
0.0
 10
50.5180722861
 20
237.9987958427
 30
0.0
 10
50.8105077721
 20
238.1039309657
 30
0.0
  0
SPLINE
  5
573
100
AcDbEntity
  8
0
100
AcDbSpline
 62
7
  6
CONTINUOUS
 70
0
 71
3
 72
9
 73
5
 74
0
 42
0.0000001
 43
0.0000001
 44
0.0000000001
 40
0.0
 40
0.0
 40
0.0
 40
0.0
 40
0.2458391244
 40
1.0
 40
1.0
 40
1.0
 40
1.0
 10
50.8105077721
 20
238.1039309657
 30
0.0
 10
51.0083941827
 20
238.1750742198
 30
0.0
 10
51.8073720474
 20
238.4808875364
 30
0.0
 10
52.5815422495
 20
238.8507719455
 30
0.0
 10
53.1475443409
 20
239.1602721754
 30
0.0
  0
SPLINE
  5
574
100
AcDbEntity
  8
0
100
AcDbSpline
 62
7
  6
CONTINUOUS
 70
0
 71
3
 72
9
 73
5
 74
0
 42
0.0000001
 43
0.0000001
 44
0.0000000001
 40
0.0
 40
0.0
 40
0.0
 40
0.0
 40
0.4910697864
 40
1.0
 40
1.0
 40
1.0
 40
1.0
 10
37.728042764
 20
235.0269282344
 30
0.0
 10
38.3076807579
 20
235.0192486849
 30
0.0
 10
39.4904880691
 20
235.092193073
 30
0.0
 10
40.6513139205
 20
235.3266477544
 30
0.0
 10
41.231599498
 20
235.4821988184
 30
0.0
  0
SPLINE
  5
575
100
AcDbEntity
  8
0
100
AcDbSpline
 62
7
  6
CONTINUOUS
 70
0
 71
3
 72
9
 73
5
 74
0
 42
0.0000001
 43
0.0000001
 44
0.0000000001
 40
0.0
 40
0.0
 40
0.0
 40
0.0
 40
0.2477236325
 40
1.0
 40
1.0
 40
1.0
 40
1.0
 10
41.231599498
 20
235.4821988184
 30
0.0
 10
41.3304427954
 20
235.5086947036
 30
0.0
 10
41.7282955249
 20
235.6199193063
 30
0.0
 10
42.1214177173
 20
235.7479927857
 30
0.0
 10
42.4138532034
 20
235.8531279086
 30
0.0
  0
SPLINE
  5
576
100
AcDbEntity
  8
0
100
AcDbSpline
 62
7
  6
CONTINUOUS
 70
0
 71
3
 72
9
 73
5
 74
0
 42
0.0000001
 43
0.0000001
 44
0.0000000001
 40
0.0
 40
0.0
 40
0.0
 40
0.0
 40
0.2458391244
 40
1.0
 40
1.0
 40
1.0
 40
1.0
 10
42.4138532034
 20
235.8531279086
 30
0.0
 10
42.611739614
 20
235.9242711627
 30
0.0
 10
43.4107174786
 20
236.2300844793
 30
0.0
 10
44.1848876808
 20
236.5999688884
 30
0.0
 10
44.7508897721
 20
236.9094691183
 30
0.0
  0
SPLINE
  5
577
100
AcDbEntity
  8
0
100
AcDbSpline
 62
7
  6
CONTINUOUS
 70
0
 71
3
 72
9
 73
5
 74
0
 42
0.0000001
 43
0.0000001
 44
0.0000000001
 40
0.0
 40
0.0
 40
0.0
 40
0.0
 40
0.4910694159
 40
1.0
 40
1.0
 40
1.0
 40
1.0
 10
29.3312247059
 20
232.7761273919
 30
0.0
 10
29.9108888466
 20
232.7684392628
 30
0.0
 10
31.0937518504
 20
232.8413752628
 30
0.0
 10
32.2546322062
 20
233.0758374208
 30
0.0
 10
32.8349449292
 20
233.2313957613
 30
0.0
  0
SPLINE
  5
578
100
AcDbEntity
  8
0
100
AcDbSpline
 62
7
  6
CONTINUOUS
 70
0
 71
3
 72
9
 73
5
 74
0
 42
0.0000001
 43
0.0000001
 44
0.0000000001
 40
0.0
 40
0.0
 40
0.0
 40
0.0
 40
0.2477236325
 40
1.0
 40
1.0
 40
1.0
 40
1.0
 10
32.8349449292
 20
233.2313957613
 30
0.0
 10
32.9337882266
 20
233.2578916466
 30
0.0
 10
33.3316409561
 20
233.3691162492
 30
0.0
 10
33.7247631485
 20
233.4971897286
 30
0.0
 10
34.0171986346
 20
233.6023248515
 30
0.0
  0
SPLINE
  5
579
100
AcDbEntity
  8
0
100
AcDbSpline
 62
7
  6
CONTINUOUS
 70
0
 71
3
 72
9
 73
5
 74
0
 42
0.0000001
 43
0.0000001
 44
0.0000000001
 40
0.0
 40
0.0
 40
0.0
 40
0.0
 40
0.2458391244
 40
1.0
 40
1.0
 40
1.0
 40
1.0
 10
34.0171986346
 20
233.6023248515
 30
0.0
 10
34.2150850452
 20
233.6734681057
 30
0.0
 10
35.0140629098
 20
233.9792814222
 30
0.0
 10
35.788233112
 20
234.3491658313
 30
0.0
 10
36.3542352034
 20
234.6586660613
 30
0.0
  0
SPLINE
  5
57A
100
AcDbEntity
  8
0
100
AcDbSpline
 62
7
  6
CONTINUOUS
 70
0
 71
3
 72
9
 73
5
 74
0
 42
0.0000001
 43
0.0000001
 44
0.0000000001
 40
0.0
 40
0.0
 40
0.0
 40
0.0
 40
0.5055763153
 40
1.0
 40
1.0
 40
1.0
 40
1.0
 10
123.0774411794
 20
202.185081452
 30
0.0
 10
123.1091737263
 20
202.0924255699
 30
0.0
 10
123.1602246707
 20
201.9049531411
 30
0.0
 10
123.1869093648
 20
201.7124134218
 30
0.0
 10
123.193217932
 20
201.6168427719
 30
0.0
  0
SPLINE
  5
57B
100
AcDbEntity
  8
0
100
AcDbSpline
 62
7
  6
CONTINUOUS
 70
0
 71
3
 72
9
 73
5
 74
0
 42
0.0000001
 43
0.0000001
 44
0.0000000001
 40
0.0
 40
0.0
 40
0.0
 40
0.0
 40
0.5163645386
 40
1.0
 40
1.0
 40
1.0
 40
1.0
 10
123.1962214551
 20
201.5574578081
 30
0.0
 10
123.1981438077
 20
201.5023787009
 30
0.0
 10
123.1971813111
 20
201.3954846922
 30
0.0
 10
123.1857059518
 20
201.2891320881
 30
0.0
 10
123.1770901881
 20
201.2382367906
 30
0.0
  0
SPLINE
  5
57C
100
AcDbEntity
  8
0
100
AcDbSpline
 62
7
  6
CONTINUOUS
 70
0
 71
3
 72
13
 73
9
 74
0
 42
0.0000001
 43
0.0000001
 44
0.0000000001
 40
0.0
 40
0.0
 40
0.0
 40
0.0
 40
0.2630843535
 40
0.3907733049
 40
0.5159512593
 40
0.7600412589
 40
0.8802970045
 40
1.0
 40
1.0
 40
1.0
 40
1.0
 10
85.2500938739
 20
148.3175030859
 30
0.0
 10
85.1024055599
 20
148.2779138297
 30
0.0
 10
84.8773907629
 20
148.23721576
 30
0.0
 10
84.5774019208
 20
148.2251098628
 30
0.0
 10
84.2886771668
 20
148.2412708784
 30
0.0
 10
84.0077756356
 20
148.2996180058
 30
0.0
 10
83.7444921294
 20
148.3998751518
 30
0.0
 10
83.6198841143
 20
148.4632350213
 30
0.0
 10
83.5596400933
 20
148.4980300603
 30
0.0
  0
SPLINE
  5
57D
100
AcDbEntity
  8
0
100
AcDbSpline
 62
7
  6
CONTINUOUS
 70
0
 71
3
 72
13
 73
9
 74
0
 42
0.0000001
 43
0.0000001
 44
0.0000000001
 40
0.0
 40
0.0
 40
0.0
 40
0.0
 40
0.2627251732
 40
0.3925454382
 40
0.5202796982
 40
0.7669795326
 40
0.8854504554
 40
1.0
 40
1.0
 40
1.0
 40
1.0
 10
93.0677432475
 20
151.700343376
 30
0.0
 10
92.9393984197
 20
151.4684240842
 30
0.0
 10
92.7160881204
 20
151.1379360285
 30
0.0
 10
92.3650922859
 20
150.7468409856
 30
0.0
 10
91.9910786543
 20
150.4011834595
 30
0.0
 10
91.5777940635
 20
150.1171302758
 30
0.0
 10
91.1388730468
 20
149.91135138
 30
0.0
 10
90.9154149476
 20
149.8361462428
 30
0.0
 10
90.8037866465
 20
149.8062232158
 30
0.0
  0
SPLINE
  5
57E
100
AcDbEntity
  8
0
100
AcDbSpline
 62
7
  6
CONTINUOUS
 70
0
 71
3
 72
15
 73
11
 74
0
 42
0.0000001
 43
0.0000001
 44
0.0000000001
 40
0.0
 40
0.0
 40
0.0
 40
0.0
 40
0.137707842
 40
0.271557265
 40
0.401163762
 40
0.5266626779
 40
0.6485360041
 40
0.7674649235
 40
0.8842846254
 40
1.0
 40
1.0
 40
1.0
 40
1.0
 10
83.2831610176
 20
150.8975990359
 30
0.0
 10
83.2831610175
 20
150.814979071
 30
0.0
 10
83.2915486624
 20
150.6519111177
 30
0.0
 10
83.3299782498
 20
150.4138200788
 30
0.0
 10
83.3939567859
 20
150.1888053974
 30
0.0
 10
83.48260595
 20
149.9800533322
 30
0.0
 10
83.5948227461
 20
149.7903034006
 30
0.0
 10
83.7292221404
 20
149.6221019281
 30
0.0
 10
83.8839362826
 20
149.4777330571
 30
0.0
 10
83.9996560159
 20
149.3986768007
 30
0.0
 10
84.0597743564
 20
149.3639543399
 30
0.0
  0
SPLINE
  5
57F
100
AcDbEntity
  8
0
100
AcDbSpline
 62
7
  6
CONTINUOUS
 70
0
 71
3
 72
13
 73
9
 74
0
 42
0.0000001
 43
0.0000001
 44
0.0000000001
 40
0.0
 40
0.0
 40
0.0
 40
0.0
 40
0.2627251732
 40
0.3925454382
 40
0.5202796982
 40
0.7669795326
 40
0.8854504554
 40
1.0
 40
1.0
 40
1.0
 40
1.0
 10
105.960244357
 20
155.1563008258
 30
0.0
 10
105.8318995292
 20
154.9243815341
 30
0.0
 10
105.6085892299
 20
154.5938934783
 30
0.0
 10
105.2575933954
 20
154.2027984354
 30
0.0
 10
104.8835797639
 20
153.8571409093
 30
0.0
 10
104.470295173
 20
153.5730877256
 30
0.0
 10
104.0313741563
 20
153.3673088298
 30
0.0
 10
103.8079160572
 20
153.2921036926
 30
0.0
 10
103.6962877561
 20
153.2621806656
 30
0.0
  0
SPLINE
  5
580
100
AcDbEntity
  8
0
100
AcDbSpline
 62
7
  6
CONTINUOUS
 70
0
 71
3
 72
13
 73
9
 74
0
 42
0.0000001
 43
0.0000001
 44
0.0000000001
 40
0.0
 40
0.0
 40
0.0
 40
0.0
 40
0.2630843535
 40
0.3907733049
 40
0.5159512593
 40
0.7600412589
 40
0.8802970045
 40
1.0
 40
1.0
 40
1.0
 40
1.0
 10
98.1425949835
 20
151.7734605358
 30
0.0
 10
97.9949066695
 20
151.7338712796
 30
0.0
 10
97.7698918725
 20
151.6931732098
 30
0.0
 10
97.4699030303
 20
151.6810673127
 30
0.0
 10
97.1811782764
 20
151.6972283282
 30
0.0
 10
96.9002767452
 20
151.7555754557
 30
0.0
 10
96.6369932389
 20
151.8558326016
 30
0.0
 10
96.5123852239
 20
151.9191924711
 30
0.0
 10
96.4521412028
 20
151.9539875101
 30
0.0
  0
SPLINE
  5
581
100
AcDbEntity
  8
0
100
AcDbSpline
 62
7
  6
CONTINUOUS
 70
0
 71
3
 72
15
 73
11
 74
0
 42
0.0000001
 43
0.0000001
 44
0.0000000001
 40
0.0
 40
0.0
 40
0.0
 40
0.0
 40
0.137707842
 40
0.271557265
 40
0.401163762
 40
0.5266626779
 40
0.6485360041
 40
0.7674649235
 40
0.8842846254
 40
1.0
 40
1.0
 40
1.0
 40
1.0
 10
96.1756621271
 20
154.3535564857
 30
0.0
 10
96.1756621271
 20
154.2709365208
 30
0.0
 10
96.184049772
 20
154.1078685675
 30
0.0
 10
96.2224793594
 20
153.8697775287
 30
0.0
 10
96.2864578954
 20
153.6447628472
 30
0.0
 10
96.3751070596
 20
153.4360107821
 30
0.0
 10
96.4873238557
 20
153.2462608504
 30
0.0
 10
96.62172325
 20
153.0780593779
 30
0.0
 10
96.7764373921
 20
152.933690507
 30
0.0
 10
96.8921571254
 20
152.8546342506
 30
0.0
 10
96.952275466
 20
152.8199117897
 30
0.0
  0
SPLINE
  5
582
100
AcDbEntity
  8
0
100
AcDbSpline
 62
7
  6
CONTINUOUS
 70
0
 71
3
 72
13
 73
9
 74
0
 42
0.0000001
 43
0.0000001
 44
0.0000000001
 40
0.0
 40
0.0
 40
0.0
 40
0.0
 40
0.2630843535
 40
0.3907733049
 40
0.5159512593
 40
0.7600412589
 40
0.8802970045
 40
1.0
 40
1.0
 40
1.0
 40
1.0
 10
111.035096093
 20
155.2294179856
 30
0.0
 10
110.887407779
 20
155.1898287294
 30
0.0
 10
110.662392982
 20
155.1491306597
 30
0.0
 10
110.3624041399
 20
155.1370247625
 30
0.0
 10
110.0736793859
 20
155.153185778
 30
0.0
 10
109.7927778547
 20
155.2115329055
 30
0.0
 10
109.5294943485
 20
155.3117900514
 30
0.0
 10
109.4048863334
 20
155.3751499209
 30
0.0
 10
109.3446423123
 20
155.4099449599
 30
0.0
  0
SPLINE
  5
583
100
AcDbEntity
  8
0
100
AcDbSpline
 62
7
  6
CONTINUOUS
 70
0
 71
3
 72
13
 73
9
 74
0
 42
0.0000001
 43
0.0000001
 44
0.0000000001
 40
0.0
 40
0.0
 40
0.0
 40
0.0
 40
0.2627251732
 40
0.3925454382
 40
0.5202796982
 40
0.7669795326
 40
0.8854504554
 40
1.0
 40
1.0
 40
1.0
 40
1.0
 10
118.8527454665
 20
158.6122582756
 30
0.0
 10
118.7244006388
 20
158.3803389839
 30
0.0
 10
118.5010903394
 20
158.0498509281
 30
0.0
 10
118.150094505
 20
157.6587558852
 30
0.0
 10
117.7760808734
 20
157.3130983591
 30
0.0
 10
117.3627962825
 20
157.0290451754
 30
0.0
 10
116.9238752659
 20
156.8232662796
 30
0.0
 10
116.7004171667
 20
156.7480611425
 30
0.0
 10
116.5887888656
 20
156.7181381154
 30
0.0
  0
SPLINE
  5
584
100
AcDbEntity
  8
0
100
AcDbSpline
 62
7
  6
CONTINUOUS
 70
0
 71
3
 72
15
 73
11
 74
0
 42
0.0000001
 43
0.0000001
 44
0.0000000001
 40
0.0
 40
0.0
 40
0.0
 40
0.0
 40
0.137707842
 40
0.271557265
 40
0.401163762
 40
0.5266626779
 40
0.6485360041
 40
0.7674649235
 40
0.8842846254
 40
1.0
 40
1.0
 40
1.0
 40
1.0
 10
109.0681632367
 20
157.8095139355
 30
0.0
 10
109.0681632366
 20
157.7268939705
 30
0.0
 10
109.0765508815
 20
157.5638260173
 30
0.0
 10
109.1149804689
 20
157.3257349784
 30
0.0
 10
109.178959005
 20
157.100720297
 30
0.0
 10
109.2676081691
 20
156.8919682318
 30
0.0
 10
109.3798249652
 20
156.7022183002
 30
0.0
 10
109.5142243595
 20
156.5340168277
 30
0.0
 10
109.6689385016
 20
156.3896479568
 30
0.0
 10
109.784658235
 20
156.3105917004
 30
0.0
 10
109.8447765755
 20
156.2758692395
 30
0.0
  0
SPLINE
  5
585
100
AcDbEntity
  8
0
100
AcDbSpline
 62
7
  6
CONTINUOUS
 70
0
 71
3
 72
11
 73
7
 74
0
 42
0.0000001
 43
0.0000001
 44
0.0000000001
 40
0.0
 40
0.0
 40
0.0
 40
0.0
 40
0.2752056832
 40
0.530285206
 40
0.7696289933
 40
1.0
 40
1.0
 40
1.0
 40
1.0
 10
69.4310252473
 20
186.5488634224
 30
0.0
 10
69.4567291257
 20
186.534017429
 30
0.0
 10
69.508407206
 20
186.5088655798
 30
0.0
 10
69.5885868472
 20
186.4856569146
 30
0.0
 10
69.6670673426
 20
186.4791390885
 30
0.0
 10
69.7177286452
 20
186.4865478147
 30
0.0
 10
69.7417266807
 20
186.4929889699
 30
0.0
  0
SPLINE
  5
586
100
AcDbEntity
  8
0
100
AcDbSpline
 62
7
  6
CONTINUOUS
 70
0
 71
3
 72
24
 73
20
 74
0
 42
0.0000001
 43
0.0000001
 44
0.0000000001
 40
0.0
 40
0.0
 40
0.0
 40
0.0
 40
0.0198705068
 40
0.0401035274
 40
0.0828902358
 40
0.1305320003
 40
0.1840812406
 40
0.2437346881
 40
0.3090463909
 40
0.3791424621
 40
0.4528130252
 40
0.5286786557
 40
0.6052123898
 40
0.6808781824
 40
0.7541594727
 40
0.8236849065
 40
0.8883560707
 40
0.9473096356
 40
1.0
 40
1.0
 40
1.0
 40
1.0
 10
69.1203225845
 20
188.8111327634
 30
0.0
 10
69.1036447278
 20
188.8066563694
 30
0.0
 10
69.0706584557
 20
188.7948678041
 30
0.0
 10
69.0072590639
 20
188.7601264745
 30
0.0
 10
68.9347751154
 20
188.6948387579
 30
0.0
 10
68.8647194247
 20
188.5900258751
 30
0.0
 10
68.8108082292
 20
188.4602921998
 30
0.0
 10
68.7739612682
 20
188.309087738
 30
0.0
 10
68.7549854966
 20
188.1402501569
 30
0.0
 10
68.754332916
 20
187.9582446039
 30
0.0
 10
68.7719830549
 20
187.7679225493
 30
0.0
 10
68.8075374139
 20
187.5744525105
 30
0.0
 10
68.8599381427
 20
187.3830565398
 30
0.0
 10
68.9278907745
 20
187.1990012852
 30
0.0
 10
69.0093475412
 20
187.0271974846
 30
0.0
 10
69.1023215534
 20
186.87234762
 30
0.0
 10
69.2042466941
 20
186.7384531017
 30
0.0
 10
69.3125481207
 20
186.629419396
 30
0.0
 10
69.3913738593
 20
186.5717646604
 30
0.0
 10
69.4310252473
 20
186.5488634224
 30
0.0
  0
SPLINE
  5
587
100
AcDbEntity
  8
0
100
AcDbSpline
 62
7
  6
CONTINUOUS
 70
0
 71
3
 72
11
 73
7
 74
0
 42
0.0000001
 43
0.0000001
 44
0.0000000001
 40
0.0
 40
0.0
 40
0.0
 40
0.0
 40
0.2497058217
 40
0.4996172793
 40
0.749860584
 40
1.0
 40
1.0
 40
1.0
 40
1.0
 10
21.8982757884
 20
237.1902255671
 30
0.0
 10
22.0764651778
 20
237.0833602698
 30
0.0
 10
22.4328168349
 20
236.8692519868
 30
0.0
 10
22.9680516528
 20
236.5485648614
 30
0.0
 10
23.5041523086
 20
236.228623469
 30
0.0
 10
23.8616760145
 20
236.0152319375
 30
0.0
 10
24.0401822768
 20
235.9081935189
 30
0.0
  0
SPLINE
  5
588
100
AcDbEntity
  8
0
100
AcDbSpline
 62
7
  6
CONTINUOUS
 70
0
 71
3
 72
26
 73
22
 74
0
 42
0.0000001
 43
0.0000001
 44
0.0000000001
 40
0.0
 40
0.0
 40
0.0
 40
0.0
 40
0.0594152055
 40
0.1216430489
 40
0.1863616466
 40
0.253250375
 40
0.3217897567
 40
0.3912507935
 40
0.4260978684
 40
0.4608884435
 40
0.5299030989
 40
0.5975560839
 40
0.6631113499
 40
0.7260112657
 40
0.7859649485
 40
0.8429012722
 40
0.870331984
 40
0.897133795
 40
0.9491559683
 40
0.9746672414
 40
1.0
 40
1.0
 40
1.0
 40
1.0
 10
60.5852438312
 20
218.6149450418
 30
0.0
 10
60.7274332576
 20
218.6569388671
 30
0.0
 10
61.0114564533
 20
218.7683261411
 30
0.0
 10
61.4153725351
 20
219.0017447843
 30
0.0
 10
61.7980843407
 20
219.2999379031
 30
0.0
 10
62.1496499112
 20
219.6565279323
 30
0.0
 10
62.4628872858
 20
220.0620227555
 30
0.0
 10
62.686818226
 20
220.4318111488
 30
0.0
 10
62.840790234
 20
220.7430766664
 30
0.0
 10
62.9759793705
 20
221.061737955
 30
0.0
 10
63.109006021
 20
221.469440102
 30
0.0
 10
63.2100281343
 20
221.9649703154
 30
0.0
 10
63.2494442124
 20
222.4540724461
 30
0.0
 10
63.2240900896
 20
222.9250631462
 30
0.0
 10
63.1359112098
 20
223.3665948833
 30
0.0
 10
63.0100263713
 20
223.7059878945
 30
0.0
 10
62.8794070375
 20
223.9511425992
 30
0.0
 10
62.7332272856
 20
224.1726850386
 30
0.0
 10
62.5585117023
 20
224.3685823404
 30
0.0
 10
62.3592091313
 20
224.5309310135
 30
0.0
 10
62.252635294
 20
224.600318916
 30
0.0
 10
62.1978894023
 20
224.6319237948
 30
0.0
  0
SPLINE
  5
589
100
AcDbEntity
  8
0
100
AcDbSpline
 62
7
  6
CONTINUOUS
 70
0
 71
3
 72
26
 73
22
 74
0
 42
0.0000001
 43
0.0000001
 44
0.0000000001
 40
0.0
 40
0.0
 40
0.0
 40
0.0
 40
0.0574977293
 40
0.118409149
 40
0.182447801
 40
0.2492893408
 40
0.3183623227
 40
0.3888508264
 40
0.4243595751
 40
0.4598896842
 40
0.5305321743
 40
0.5998489208
 40
0.666898862
 40
0.7309087084
 40
0.7914023127
 40
0.848160891
 40
0.8752012111
 40
0.9014047166
 40
0.9516333355
 40
0.9759795476
 40
1.0
 40
1.0
 40
1.0
 40
1.0
 10
68.4547871839
 20
221.1701930937
 30
0.0
 10
68.587850535
 20
221.217613307
 30
0.0
 10
68.853447436
 20
221.3400065073
 30
0.0
 10
69.2288851142
 20
221.5874180766
 30
0.0
 10
69.5847558006
 20
221.8983374949
 30
0.0
 10
69.9120064864
 20
222.2662978001
 30
0.0
 10
70.2040700975
 20
222.6820468082
 30
0.0
 10
70.4130528808
 20
223.0589607439
 30
0.0
 10
70.5571900549
 20
223.3755408644
 30
0.0
 10
70.6841889085
 20
223.6997853337
 30
0.0
 10
70.8092491532
 20
224.1133029355
 30
0.0
 10
70.904504709
 20
224.6138539777
 30
0.0
 10
70.9421401017
 20
225.1058573526
 30
0.0
 10
70.9190591541
 20
225.5772522886
 30
0.0
 10
70.8371460867
 20
226.0164493643
 30
0.0
 10
70.7195317149
 20
226.3527169944
 30
0.0
 10
70.5970773667
 20
226.5940553498
 30
0.0
 10
70.4611594771
 20
226.8091868579
 30
0.0
 10
70.2983038957
 20
226.998549151
 30
0.0
 10
70.1117595579
 20
227.1536931983
 30
0.0
 10
70.0121708285
 20
227.2190918242
 30
0.0
 10
69.9610644637
 20
227.2485999737
 30
0.0
  0
SPLINE
  5
58A
100
AcDbEntity
  8
0
100
AcDbSpline
 62
7
  6
CONTINUOUS
 70
0
 71
3
 72
26
 73
22
 74
0
 42
0.0000001
 43
0.0000001
 44
0.0000000001
 40
0.0
 40
0.0
 40
0.0
 40
0.0
 40
0.0624631436
 40
0.1266494461
 40
0.1922169896
 40
0.2588812608
 40
0.3262321195
 40
0.3937578062
 40
0.4609295277
 40
0.5272294103
 40
0.59217876
 40
0.6240475315
 40
0.6554509062
 40
0.7167320655
 40
0.7760297489
 40
0.8050068933
 40
0.8335733389
 40
0.8617821021
 40
0.8897004307
 40
0.9449260647
 40
1.0
 40
1.0
 40
1.0
 40
1.0
 10
43.2648178202
 20
214.4178002136
 30
0.0
 10
43.4230036737
 20
214.4486455497
 30
0.0
 10
43.7392675228
 20
214.5364390356
 30
0.0
 10
44.1944167928
 20
214.7373596395
 30
0.0
 10
44.6264693557
 20
215.0053110443
 30
0.0
 10
45.0251415921
 20
215.3335784798
 30
0.0
 10
45.3814809301
 20
215.7142819604
 30
0.0
 10
45.6868786891
 20
216.138533154
 30
0.0
 10
45.934387888
 20
216.5959117793
 30
0.0
 10
46.1179809558
 20
217.0753715994
 30
0.0
 10
46.2147702896
 20
217.4864622801
 30
0.0
 10
46.2559484703
 20
217.8149787214
 30
0.0
 10
46.2727796579
 20
218.1361485157
 30
0.0
 10
46.2494275508
 20
218.5292171071
 30
0.0
 10
46.1652482322
 20
218.9077635356
 30
0.0
 10
46.062234802
 20
219.1914407512
 30
0.0
 10
45.9686920379
 20
219.3922758859
 30
0.0
 10
45.8587537616
 20
219.5815002036
 30
0.0
 10
45.6918032766
 20
219.8157508368
 30
0.0
 10
45.4446797517
 20
220.0759870457
 30
0.0
 10
45.2110521639
 20
220.242004189
 30
0.0
 10
45.0880047462
 20
220.3130793304
 30
0.0
  0
SPLINE
  5
58B
100
AcDbEntity
  8
0
100
AcDbSpline
 62
7
  6
CONTINUOUS
 70
0
 71
3
 72
24
 73
20
 74
0
 42
0.0000001
 43
0.0000001
 44
0.0000000001
 40
0.0
 40
0.0
 40
0.0
 40
0.0
 40
0.0610779675
 40
0.1244014698
 40
0.1896445753
 40
0.2564887893
 40
0.3244535593
 40
0.3929341487
 40
0.4612897957
 40
0.5288749129
 40
0.5950720427
 40
0.6593666858
 40
0.7213810062
 40
0.7809443423
 40
0.8381218835
 40
0.8659386776
 40
0.8933060694
 40
0.9469784917
 40
1.0
 40
1.0
 40
1.0
 40
1.0
 10
52.18858838
 20
216.3641549112
 30
0.0
 10
52.3391185927
 20
216.4006470361
 30
0.0
 10
52.6400052576
 20
216.5003692054
 30
0.0
 10
53.070441647
 20
216.718372021
 30
0.0
 10
53.4781945205
 20
217.0027206561
 30
0.0
 10
53.853612547
 20
217.345998843
 30
0.0
 10
54.1884199985
 20
217.7397475821
 30
0.0
 10
54.4747229911
 20
218.1745976854
 30
0.0
 10
54.7062522288
 20
218.639832121
 30
0.0
 10
54.8776609899
 20
219.1243141156
 30
0.0
 10
54.9850653601
 20
219.6164080844
 30
0.0
 10
55.0260808153
 20
220.1043627802
 30
0.0
 10
54.9993421454
 20
220.5766468839
 30
0.0
 10
54.9054677578
 20
221.0220049753
 30
0.0
 10
54.771032054
 20
221.3652062625
 30
0.0
 10
54.6320666641
 20
221.6143844596
 30
0.0
 10
54.4755485892
 20
221.8421987079
 30
0.0
 10
54.2436635746
 20
222.093900617
 30
0.0
 10
54.0223835751
 20
222.2533011172
 30
0.0
 10
53.9059520991
 20
222.3205551062
 30
0.0
  0
SPLINE
  5
58C
100
AcDbEntity
  8
0
100
AcDbSpline
 62
7
  6
CONTINUOUS
 70
0
 71
3
 72
11
 73
7
 74
0
 42
0.0000001
 43
0.0000001
 44
0.0000000001
 40
0.0
 40
0.0
 40
0.0
 40
0.0
 40
0.2626415523
 40
0.5167619802
 40
0.7623524364
 40
1.0
 40
1.0
 40
1.0
 40
1.0
 10
56.2563965181
 20
244.5440576435
 30
0.0
 10
55.6931331024
 20
244.2320050203
 30
0.0
 10
54.5490730672
 20
243.679762231
 30
0.0
 10
52.7752107419
 20
243.0756255592
 30
0.0
 10
50.9975355586
 20
242.7193665978
 30
0.0
 10
49.8099214959
 20
242.6499402489
 30
0.0
 10
49.227357107
 20
242.6598568269
 30
0.0
  0
SPLINE
  5
58D
100
AcDbEntity
  8
0
100
AcDbSpline
 62
7
  6
CONTINUOUS
 70
0
 71
3
 72
9
 73
5
 74
0
 42
0.0000001
 43
0.0000001
 44
0.0000000001
 40
0.0
 40
0.0
 40
0.0
 40
0.0
 40
0.500025309
 40
1.0
 40
1.0
 40
1.0
 40
1.0
 10
61.2717923176
 20
235.4410709948
 30
0.0
 10
60.2134529201
 20
236.0751014025
 30
0.0
 10
58.0973228863
 20
237.3438350649
 30
0.0
 10
55.9812471771
 20
238.6126591453
 30
0.0
 10
54.9231849613
 20
239.2469091271
 30
0.0
  0
LINE
  5
58E
100
AcDbEntity
  8
0
100
AcDbLine
 62
7
  6
CONTINUOUS
 10
54.5034870126
 20
239.4984868358
 11
51.3315648188
 21
241.3992963384
  0
SPLINE
  5
58F
100
AcDbEntity
  8
0
100
AcDbSpline
 62
7
  6
CONTINUOUS
 70
0
 71
3
 72
9
 73
5
 74
0
 42
0.0000001
 43
0.0000001
 44
0.0000000001
 40
0.0
 40
0.0
 40
0.0
 40
0.0
 40
0.2500266588
 40
1.0
 40
1.0
 40
1.0
 40
1.0
 10
56.2556229388
 20
244.5438498633
 30
0.0
 10
56.6993606994
 20
244.2879367193
 30
0.0
 10
58.4739715436
 20
243.2641315678
 30
0.0
 10
60.2483109878
 20
242.2398561085
 30
0.0
 10
61.5792079175
 20
241.4720054814
 30
0.0
  0
SPLINE
  5
590
100
AcDbEntity
  8
0
100
AcDbSpline
 62
7
  6
CONTINUOUS
 70
0
 71
3
 72
9
 73
5
 74
0
 42
0.0000001
 43
0.0000001
 44
0.0000000001
 40
0.0
 40
0.0
 40
0.0
 40
0.0
 40
0.5000184147
 40
1.0
 40
1.0
 40
1.0
 40
1.0
 10
61.5792079175
 20
241.4720054814
 30
0.0
 10
62.7525912817
 20
240.7950310801
 30
0.0
 10
65.0994546622
 20
239.4414495515
 30
0.0
 10
67.4463214849
 20
238.0878737867
 30
0.0
 10
68.619465746
 20
237.4106846879
 30
0.0
  0
SPLINE
  5
591
100
AcDbEntity
  8
0
100
AcDbSpline
 62
7
  6
CONTINUOUS
 70
0
 71
3
 72
9
 73
5
 74
0
 42
0.0000001
 43
0.0000001
 44
0.0000000001
 40
0.0
 40
0.0
 40
0.0
 40
0.0
 40
0.2500594456
 40
1.0
 40
1.0
 40
1.0
 40
1.0
 10
50.8725060371
 20
241.6883066438
 30
0.0
 10
51.0285598716
 20
241.730029917
 30
0.0
 10
51.6526133026
 20
241.8969338806
 30
0.0
 10
52.2766126475
 20
242.0640400716
 30
0.0
 10
52.744544524
 20
242.1894736583
 30
0.0
  0
SPLINE
  5
592
100
AcDbEntity
  8
0
100
AcDbSpline
 62
7
  6
CONTINUOUS
 70
0
 71
3
 72
9
 73
5
 74
0
 42
0.0000001
 43
0.0000001
 44
0.0000000001
 40
0.0
 40
0.0
 40
0.0
 40
0.0
 40
0.2501118909
 40
1.0
 40
1.0
 40
1.0
 40
1.0
 10
52.744544524
 20
242.1894736583
 30
0.0
 10
53.0371198048
 20
242.2679012429
 30
0.0
 10
54.2068496564
 20
242.5816492382
 30
0.0
 10
55.3763884546
 20
242.8961095298
 30
0.0
 10
56.2533034641
 20
243.1323210487
 30
0.0
  0
SPLINE
  5
593
100
AcDbEntity
  8
0
100
AcDbSpline
 62
7
  6
CONTINUOUS
 70
0
 71
3
 72
9
 73
5
 74
0
 42
0.0000001
 43
0.0000001
 44
0.0000000001
 40
0.0
 40
0.0
 40
0.0
 40
0.0
 40
0.5090956654
 40
1.0
 40
1.0
 40
1.0
 40
1.0
 10
41.4865060682
 20
215.4448916604
 30
0.0
 10
41.3559548498
 20
215.4098953705
 30
0.0
 10
41.093987674
 20
215.3600499344
 30
0.0
 10
40.8271468313
 20
215.3529525067
 30
0.0
 10
40.6970723193
 20
215.3611228357
 30
0.0
  0
SPLINE
  5
594
100
AcDbEntity
  8
0
100
AcDbSpline
 62
7
  6
CONTINUOUS
 70
0
 71
3
 72
9
 73
5
 74
0
 42
0.0000001
 43
0.0000001
 44
0.0000000001
 40
0.0
 40
0.0
 40
0.0
 40
0.0
 40
0.2538212488
 40
1.0
 40
1.0
 40
1.0
 40
1.0
 10
43.9658332004
 20
219.1892698162
 30
0.0
 10
43.9658332004
 20
219.2287490978
 30
0.0
 10
43.962791355
 20
219.3842683427
 30
0.0
 10
43.9474876669
 20
219.5395917434
 30
0.0
 10
43.9287180285
 20
219.6541243677
 30
0.0
  0
SPLINE
  5
595
100
AcDbEntity
  8
0
100
AcDbSpline
 62
7
  6
CONTINUOUS
 70
0
 71
3
 72
9
 73
5
 74
0
 42
0.0000001
 43
0.0000001
 44
0.0000000001
 40
0.0
 40
0.0
 40
0.0
 40
0.0
 40
0.2517863076
 40
1.0
 40
1.0
 40
1.0
 40
1.0
 10
43.9287180285
 20
219.6541243677
 30
0.0
 10
43.9262519596
 20
219.6691723584
 30
0.0
 10
43.9159516958
 20
219.7288530404
 30
0.0
 10
43.9036128839
 20
219.7881837006
 30
0.0
 10
43.8932005122
 20
219.8322846069
 30
0.0
  0
SPLINE
  5
596
100
AcDbEntity
  8
0
100
AcDbSpline
 62
7
  6
CONTINUOUS
 70
0
 71
3
 72
9
 73
5
 74
0
 42
0.0000001
 43
0.0000001
 44
0.0000000001
 40
0.0
 40
0.0
 40
0.0
 40
0.0
 40
0.2518761482
 40
1.0
 40
1.0
 40
1.0
 40
1.0
 10
43.8932005122
 20
219.8322846069
 30
0.0
 10
43.8898035504
 20
219.8466722123
 30
0.0
 10
43.8758177325
 20
219.903674716
 30
0.0
 10
43.8598124625
 20
219.9601835757
 30
0.0
 10
43.8466788411
 20
220.0020824574
 30
0.0
  0
SPLINE
  5
597
100
AcDbEntity
  8
0
100
AcDbSpline
 62
7
  6
CONTINUOUS
 70
0
 71
3
 72
9
 73
5
 74
0
 42
0.0000001
 43
0.0000001
 44
0.0000000001
 40
0.0
 40
0.0
 40
0.0
 40
0.0
 40
0.507804756
 40
1.0
 40
1.0
 40
1.0
 40
1.0
 10
43.8466788411
 20
220.0020824574
 30
0.0
 10
43.8173320273
 20
220.0957046685
 30
0.0
 10
43.748061204
 20
220.2767087686
 30
0.0
 10
43.6552980925
 20
220.4469895819
 30
0.0
 10
43.6039312948
 20
220.5270213822
 30
0.0
  0
SPLINE
  5
598
100
AcDbEntity
  8
0
100
AcDbSpline
 62
7
  6
CONTINUOUS
 70
0
 71
3
 72
9
 73
5
 74
0
 42
0.0000001
 43
0.0000001
 44
0.0000000001
 40
0.0
 40
0.0
 40
0.0
 40
0.0
 40
0.2562253735
 40
1.0
 40
1.0
 40
1.0
 40
1.0
 10
55.7916639147
 20
240.440335081
 30
0.0
 10
55.7808391655
 20
240.4465871613
 30
0.0
 10
55.7382512733
 20
240.4703893909
 30
0.0
 10
55.6942731118
 20
240.4917310634
 30
0.0
 10
55.6608796189
 20
240.5059298002
 30
0.0
  0
SPLINE
  5
599
100
AcDbEntity
  8
0
100
AcDbSpline
 62
7
  6
CONTINUOUS
 70
0
 71
3
 72
9
 73
5
 74
0
 42
0.0000001
 43
0.0000001
 44
0.0000000001
 40
0.0
 40
0.0
 40
0.0
 40
0.0
 40
0.2529135563
 40
1.0
 40
1.0
 40
1.0
 40
1.0
 10
49.8831604059
 20
217.6956946555
 30
0.0
 10
49.8551535796
 20
217.6881870002
 30
0.0
 10
49.7439530959
 20
217.660267644
 30
0.0
 10
49.6309440083
 20
217.6394900969
 30
0.0
 10
49.5460238803
 20
217.6283261909
 30
0.0
  0
SPLINE
  5
59A
100
AcDbEntity
  8
0
100
AcDbSpline
 62
7
  6
CONTINUOUS
 70
0
 71
3
 72
11
 73
7
 74
0
 42
0.0000001
 43
0.0000001
 44
0.0000000001
 40
0.0
 40
0.0
 40
0.0
 40
0.0
 40
0.2629315216
 40
0.5172003056
 40
0.7627208109
 40
1.0
 40
1.0
 40
1.0
 40
1.0
 10
54.0590394128
 20
245.8112239052
 30
0.0
 10
53.4986209499
 20
245.5040888009
 30
0.0
 10
52.3617211921
 20
244.9601490815
 30
0.0
 10
50.6018278109
 20
244.3630340354
 30
0.0
 10
48.840809613
 20
244.0079698733
 30
0.0
 10
47.6649062107
 20
243.9352699604
 30
0.0
 10
47.0882394948
 20
243.9426347383
 30
0.0
  0
SPLINE
  5
59B
100
AcDbEntity
  8
0
100
AcDbSpline
 62
7
  6
CONTINUOUS
 70
0
 71
3
 72
9
 73
5
 74
0
 42
0.0000001
 43
0.0000001
 44
0.0000000001
 40
0.0
 40
0.0
 40
0.0
 40
0.0
 40
0.5083073668
 40
1.0
 40
1.0
 40
1.0
 40
1.0
 10
47.8597411585
 20
242.2932550425
 30
0.0
 10
47.2964088345
 20
241.981164244
 30
0.0
 10
46.15258627
 20
241.4288559286
 30
0.0
 10
44.9495605591
 20
241.0193598957
 30
0.0
 10
44.3478479133
 20
240.8580651025
 30
0.0
  0
SPLINE
  5
59C
100
AcDbEntity
  8
0
100
AcDbSpline
 62
7
  6
CONTINUOUS
 70
0
 71
3
 72
9
 73
5
 74
0
 42
0.0000001
 43
0.0000001
 44
0.0000000001
 40
0.0
 40
0.0
 40
0.0
 40
0.0
 40
0.5081662825
 40
1.0
 40
1.0
 40
1.0
 40
1.0
 10
44.3478479133
 20
240.8580651025
 30
0.0
 10
43.7663152229
 20
240.7021797381
 30
0.0
 10
42.6007937075
 20
240.4683896521
 30
0.0
 10
41.4133304707
 20
240.3991365593
 30
0.0
 10
40.8307017683
 20
240.4090542315
 30
0.0
  0
SPLINE
  5
59D
100
AcDbEntity
  8
0
100
AcDbSpline
 62
7
  6
CONTINUOUS
 70
0
 71
3
 72
9
 73
5
 74
0
 42
0.0000001
 43
0.0000001
 44
0.0000000001
 40
0.0
 40
0.0
 40
0.0
 40
0.0
 40
0.2545039136
 40
1.0
 40
1.0
 40
1.0
 40
1.0
 10
52.3624877692
 20
221.4400728732
 30
0.0
 10
52.3624877692
 20
221.4855840196
 30
0.0
 10
52.3584572917
 20
221.664373767
 30
0.0
 10
52.3381562133
 20
221.8428793055
 30
0.0
 10
52.3131557352
 20
221.9738259325
 30
0.0
  0
SPLINE
  5
59E
100
AcDbEntity
  8
0
100
AcDbSpline
 62
7
  6
CONTINUOUS
 70
0
 71
3
 72
9
 73
5
 74
0
 42
0.0000001
 43
0.0000001
 44
0.0000000001
 40
0.0
 40
0.0
 40
0.0
 40
0.0
 40
0.2511695517
 40
1.0
 40
1.0
 40
1.0
 40
1.0
 10
52.3131557352
 20
221.9738259325
 30
0.0
 10
52.3113185286
 20
221.9834487887
 30
0.0
 10
52.3037905891
 20
222.0217199021
 30
0.0
 10
52.2954050748
 20
222.059822663
 30
0.0
 10
52.2886342059
 20
222.0882345492
 30
0.0
  0
SPLINE
  5
59F
100
AcDbEntity
  8
0
100
AcDbSpline
 62
7
  6
CONTINUOUS
 70
0
 71
3
 72
9
 73
5
 74
0
 42
0.0000001
 43
0.0000001
 44
0.0000000001
 40
0.0
 40
0.0
 40
0.0
 40
0.0
 40
0.252887625
 40
1.0
 40
1.0
 40
1.0
 40
1.0
 10
52.2397134151
 20
222.2643325994
 30
0.0
 10
52.2328237537
 20
222.2859287799
 30
0.0
 10
52.2043572793
 20
222.3709310557
 30
0.0
 10
52.1709629722
 20
222.4542926558
 30
0.0
 10
52.1432289465
 20
222.5152503096
 30
0.0
  0
SPLINE
  5
5A0
100
AcDbEntity
  8
0
100
AcDbSpline
 62
7
  6
CONTINUOUS
 70
0
 71
3
 72
9
 73
5
 74
0
 42
0.0000001
 43
0.0000001
 44
0.0000000001
 40
0.0
 40
0.0
 40
0.0
 40
0.0
 40
0.500025309
 40
1.0
 40
1.0
 40
1.0
 40
1.0
 10
52.8751377488
 20
233.1902679377
 30
0.0
 10
51.8167983513
 20
233.8242983455
 30
0.0
 10
49.7006683175
 20
235.0930320078
 30
0.0
 10
47.5845926083
 20
236.3618560883
 30
0.0
 10
46.5265303925
 20
236.99610607
 30
0.0
  0
LINE
  5
5A1
100
AcDbEntity
  8
0
100
AcDbLine
 62
7
  6
CONTINUOUS
 10
46.1068324438
 20
237.2476837787
 11
42.9349102501
 21
239.1484932814
  0
SPLINE
  5
5A2
100
AcDbEntity
  8
0
100
AcDbSpline
 62
7
  6
CONTINUOUS
 70
0
 71
3
 72
9
 73
5
 74
0
 42
0.0000001
 43
0.0000001
 44
0.0000000001
 40
0.0
 40
0.0
 40
0.0
 40
0.0
 40
0.2500266588
 40
1.0
 40
1.0
 40
1.0
 40
1.0
 10
47.8589683701
 20
242.2930468063
 30
0.0
 10
48.3027061306
 20
242.0371336623
 30
0.0
 10
50.0773169748
 20
241.0133285107
 30
0.0
 10
51.851656419
 20
239.9890530514
 30
0.0
 10
53.1825533487
 20
239.2212024243
 30
0.0
  0
SPLINE
  5
5A3
100
AcDbEntity
  8
0
100
AcDbSpline
 62
7
  6
CONTINUOUS
 70
0
 71
3
 72
9
 73
5
 74
0
 42
0.0000001
 43
0.0000001
 44
0.0000000001
 40
0.0
 40
0.0
 40
0.0
 40
0.0
 40
0.5000184147
 40
1.0
 40
1.0
 40
1.0
 40
1.0
 10
53.1825533487
 20
239.2212024243
 30
0.0
 10
54.3559367129
 20
238.5442280231
 30
0.0
 10
56.7028000934
 20
237.1906464945
 30
0.0
 10
59.0496669161
 20
235.8370707297
 30
0.0
 10
60.2228111772
 20
235.1598816308
 30
0.0
  0
SPLINE
  5
5A4
100
AcDbEntity
  8
0
100
AcDbSpline
 62
7
  6
CONTINUOUS
 70
0
 71
3
 72
9
 73
5
 74
0
 42
0.0000001
 43
0.0000001
 44
0.0000000001
 40
0.0
 40
0.0
 40
0.0
 40
0.0
 40
0.2501713182
 40
1.0
 40
1.0
 40
1.0
 40
1.0
 10
42.4758511756
 20
239.4375035091
 30
0.0
 10
42.9246704332
 20
239.557501896
 30
0.0
 10
44.7186062916
 20
240.0375846495
 30
0.0
 10
46.5120945166
 20
240.5193400968
 30
0.0
 10
47.8566488953
 20
240.8815179916
 30
0.0
  0
SPLINE
  5
5A5
100
AcDbEntity
  8
0
100
AcDbSpline
 62
7
  6
CONTINUOUS
 70
0
 71
3
 72
9
 73
5
 74
0
 42
0.0000001
 43
0.0000001
 44
0.0000000001
 40
0.0
 40
0.0
 40
0.0
 40
0.0
 40
0.2562253735
 40
1.0
 40
1.0
 40
1.0
 40
1.0
 10
47.395009346
 20
238.1895320239
 30
0.0
 10
47.3841845967
 20
238.1957841042
 30
0.0
 10
47.3415967045
 20
238.2195863338
 30
0.0
 10
47.2976185431
 20
238.2409280063
 30
0.0
 10
47.2642250501
 20
238.2551267432
 30
0.0
  0
SPLINE
  5
5A6
100
AcDbEntity
  8
0
100
AcDbSpline
 62
7
  6
CONTINUOUS
 70
0
 71
3
 72
9
 73
5
 74
0
 42
0.0000001
 43
0.0000001
 44
0.0000000001
 40
0.0
 40
0.0
 40
0.0
 40
0.0
 40
0.2518771739
 40
1.0
 40
1.0
 40
1.0
 40
1.0
 10
58.2798152615
 20
219.9464977895
 30
0.0
 10
58.2614703971
 20
219.9415801639
 30
0.0
 10
58.1884364359
 20
219.9228166863
 30
0.0
 10
58.114612722
 20
219.9071167713
 30
0.0
 10
58.0590815904
 20
219.8971896417
 30
0.0
  0
SPLINE
  5
5A7
100
AcDbEntity
  8
0
100
AcDbSpline
 62
7
  6
CONTINUOUS
 70
0
 71
3
 72
9
 73
5
 74
0
 42
0.0000001
 43
0.0000001
 44
0.0000000001
 40
0.0
 40
0.0
 40
0.0
 40
0.0
 40
0.2545947303
 40
1.0
 40
1.0
 40
1.0
 40
1.0
 10
60.759142338
 20
223.6908759303
 30
0.0
 10
60.759142338
 20
223.7371723417
 30
0.0
 10
60.7549732202
 20
223.9189806514
 30
0.0
 10
60.7339704914
 20
224.1004920649
 30
0.0
 10
60.7080919444
 20
224.2335459245
 30
0.0
  0
SPLINE
  5
5A8
100
AcDbEntity
  8
0
100
AcDbSpline
 62
7
  6
CONTINUOUS
 70
0
 71
3
 72
9
 73
5
 74
0
 42
0.0000001
 43
0.0000001
 44
0.0000000001
 40
0.0
 40
0.0
 40
0.0
 40
0.0
 40
0.2528163778
 40
1.0
 40
1.0
 40
1.0
 40
1.0
 10
60.6355621062
 20
224.517656879
 30
0.0
 10
60.6288170335
 20
224.5387185449
 30
0.0
 10
60.6009728425
 20
224.6216481798
 30
0.0
 10
60.5684360063
 20
224.7030109458
 30
0.0
 10
60.5414732477
 20
224.7625510631
 30
0.0
  0
SPLINE
  5
5A9
100
AcDbEntity
  8
0
100
AcDbSpline
 62
7
  6
CONTINUOUS
 70
0
 71
3
 72
11
 73
7
 74
0
 42
0.0000001
 43
0.0000001
 44
0.0000000001
 40
0.0
 40
0.0
 40
0.0
 40
0.0
 40
0.2629315216
 40
0.5172003056
 40
0.7627208109
 40
1.0
 40
1.0
 40
1.0
 40
1.0
 10
45.662384844
 20
243.5604208482
 30
0.0
 10
45.1019663812
 20
243.2532857438
 30
0.0
 10
43.9650666234
 20
242.7093460245
 30
0.0
 10
42.2051732421
 20
242.1122309783
 30
0.0
 10
40.4441550442
 20
241.7571668162
 30
0.0
 10
39.2682516419
 20
241.6844669033
 30
0.0
 10
38.691584926
 20
241.6918316812
 30
0.0
  0
SPLINE
  5
5AA
100
AcDbEntity
  8
0
100
AcDbSpline
 62
7
  6
CONTINUOUS
 70
0
 71
3
 72
9
 73
5
 74
0
 42
0.0000001
 43
0.0000001
 44
0.0000000001
 40
0.0
 40
0.0
 40
0.0
 40
0.0
 40
0.5083073668
 40
1.0
 40
1.0
 40
1.0
 40
1.0
 10
39.4630865897
 20
240.0424519854
 30
0.0
 10
38.8997542658
 20
239.730361187
 30
0.0
 10
37.7559317012
 20
239.1780528715
 30
0.0
 10
36.5529059903
 20
238.7685568387
 30
0.0
 10
35.9511933445
 20
238.6072620454
 30
0.0
  0
SPLINE
  5
5AB
100
AcDbEntity
  8
0
100
AcDbSpline
 62
7
  6
CONTINUOUS
 70
0
 71
3
 72
9
 73
5
 74
0
 42
0.0000001
 43
0.0000001
 44
0.0000000001
 40
0.0
 40
0.0
 40
0.0
 40
0.0
 40
0.5081662825
 40
1.0
 40
1.0
 40
1.0
 40
1.0
 10
35.9511933445
 20
238.6072620454
 30
0.0
 10
35.3696606541
 20
238.451376681
 30
0.0
 10
34.2041391387
 20
238.217586595
 30
0.0
 10
33.016675902
 20
238.1483335022
 30
0.0
 10
32.4340471996
 20
238.1582511745
 30
0.0
  0
SPLINE
  5
5AC
100
AcDbEntity
  8
0
100
AcDbSpline
 62
7
  6
CONTINUOUS
 70
0
 71
3
 72
9
 73
5
 74
0
 42
0.0000001
 43
0.0000001
 44
0.0000000001
 40
0.0
 40
0.0
 40
0.0
 40
0.0
 40
0.500025309
 40
1.0
 40
1.0
 40
1.0
 40
1.0
 10
44.47848318
 20
230.9394648807
 30
0.0
 10
43.4201437825
 20
231.5734952884
 30
0.0
 10
41.3040137487
 20
232.8422289508
 30
0.0
 10
39.1879380395
 20
234.1110530312
 30
0.0
 10
38.1298758238
 20
234.745303013
 30
0.0
  0
LINE
  5
5AD
100
AcDbEntity
  8
0
100
AcDbLine
 62
7
  6
CONTINUOUS
 10
37.710177875
 20
234.9968807216
 11
34.5382556813
 21
236.8976902243
  0
SPLINE
  5
5AE
100
AcDbEntity
  8
0
100
AcDbSpline
 62
7
  6
CONTINUOUS
 70
0
 71
3
 72
9
 73
5
 74
0
 42
0.0000001
 43
0.0000001
 44
0.0000000001
 40
0.0
 40
0.0
 40
0.0
 40
0.0
 40
0.2543451658
 40
1.0
 40
1.0
 40
1.0
 40
1.0
 10
66.676469728
 20
222.1973008191
 30
0.0
 10
66.6355695101
 20
222.186336882
 30
0.0
 10
66.4737931147
 20
222.1469736393
 30
0.0
 10
66.3082326001
 20
222.1228492859
 30
0.0
 10
66.184374218
 20
222.114504602
 30
0.0
  0
SPLINE
  5
5AF
100
AcDbEntity
  8
0
100
AcDbSpline
 62
7
  6
CONTINUOUS
 70
0
 71
3
 72
9
 73
5
 74
0
 42
0.0000001
 43
0.0000001
 44
0.0000000001
 40
0.0
 40
0.0
 40
0.0
 40
0.0
 40
0.2500266588
 40
1.0
 40
1.0
 40
1.0
 40
1.0
 10
39.4623138013
 20
240.0422437492
 30
0.0
 10
39.9060515618
 20
239.7863306052
 30
0.0
 10
41.680662406
 20
238.7625254537
 30
0.0
 10
43.4550018503
 20
237.7382499944
 30
0.0
 10
44.7858987799
 20
236.9703993672
 30
0.0
  0
SPLINE
  5
5B0
100
AcDbEntity
  8
0
100
AcDbSpline
 62
7
  6
CONTINUOUS
 70
0
 71
3
 72
9
 73
5
 74
0
 42
0.0000001
 43
0.0000001
 44
0.0000000001
 40
0.0
 40
0.0
 40
0.0
 40
0.0
 40
0.5000184147
 40
1.0
 40
1.0
 40
1.0
 40
1.0
 10
44.7858987799
 20
236.9703993672
 30
0.0
 10
45.9592821442
 20
236.293424966
 30
0.0
 10
48.3061455247
 20
234.9398434374
 30
0.0
 10
50.6530123474
 20
233.5862676726
 30
0.0
 10
51.8261566084
 20
232.9090785738
 30
0.0
  0
SPLINE
  5
5B1
100
AcDbEntity
  8
0
100
AcDbSpline
 62
7
  6
CONTINUOUS
 70
0
 71
3
 72
9
 73
5
 74
0
 42
0.0000001
 43
0.0000001
 44
0.0000000001
 40
0.0
 40
0.0
 40
0.0
 40
0.0
 40
0.2546899008
 40
1.0
 40
1.0
 40
1.0
 40
1.0
 10
69.1557969067
 20
225.9416789873
 30
0.0
 10
69.1557969068
 20
225.9887941903
 30
0.0
 10
69.1514808058
 20
226.1737471994
 30
0.0
 10
69.1297339756
 20
226.358389814
 30
0.0
 10
69.1029233993
 20
226.4936332265
 30
0.0
  0
SPLINE
  5
5B2
100
AcDbEntity
  8
0
100
AcDbSpline
 62
7
  6
CONTINUOUS
 70
0
 71
3
 72
9
 73
5
 74
0
 42
0.0000001
 43
0.0000001
 44
0.0000000001
 40
0.0
 40
0.0
 40
0.0
 40
0.0
 40
0.2519750662
 40
1.0
 40
1.0
 40
1.0
 40
1.0
 10
69.0811196781
 20
226.5932862118
 30
0.0
 10
69.0775046928
 20
226.6083616233
 30
0.0
 10
69.0626081087
 20
226.6680571166
 30
0.0
 10
69.045483816
 20
226.727198822
 30
0.0
 10
69.0313976469
 20
226.7710123973
 30
0.0
  0
SPLINE
  5
5B3
100
AcDbEntity
  8
0
100
AcDbSpline
 62
7
  6
CONTINUOUS
 70
0
 71
3
 72
9
 73
5
 74
0
 42
0.0000001
 43
0.0000001
 44
0.0000000001
 40
0.0
 40
0.0
 40
0.0
 40
0.0
 40
0.507338501
 40
1.0
 40
1.0
 40
1.0
 40
1.0
 10
69.0313976469
 20
226.7710123973
 30
0.0
 10
69.0031994194
 20
226.8587200743
 30
0.0
 10
68.9374631859
 20
227.0285287788
 30
0.0
 10
68.8509903909
 20
227.1888651536
 30
0.0
 10
68.8033342669
 20
227.2645796257
 30
0.0
  0
SPLINE
  5
5B4
100
AcDbEntity
  8
0
100
AcDbSpline
 62
7
  6
CONTINUOUS
 70
0
 71
3
 72
9
 73
5
 74
0
 42
0.0000001
 43
0.0000001
 44
0.0000000001
 40
0.0
 40
0.0
 40
0.0
 40
0.0
 40
0.2501713182
 40
1.0
 40
1.0
 40
1.0
 40
1.0
 10
34.0791966069
 20
237.186700452
 30
0.0
 10
34.5280158645
 20
237.306698839
 30
0.0
 10
36.3219517228
 20
237.7867815924
 30
0.0
 10
38.1154399479
 20
238.2685370398
 30
0.0
 10
39.4599943265
 20
238.6307149345
 30
0.0
  0
SPLINE
  5
5B5
100
AcDbEntity
  8
0
100
AcDbSpline
 62
7
  6
CONTINUOUS
 70
0
 71
3
 72
11
 73
7
 74
0
 42
0.0000001
 43
0.0000001
 44
0.0000000001
 40
0.0
 40
0.0
 40
0.0
 40
0.0
 40
0.2381020243
 40
0.483447505
 40
0.7372409638
 40
1.0
 40
1.0
 40
1.0
 40
1.0
 10
36.2751323903
 20
153.0186771952
 30
0.0
 10
36.3650561291
 20
153.0047315425
 30
0.0
 10
36.5501427344
 20
152.9908182771
 30
0.0
 10
36.8320783237
 20
153.0114058306
 30
0.0
 10
37.117578613
 20
153.0728307793
 30
0.0
 10
37.3042264768
 20
153.1389492279
 30
0.0
 10
37.3967206307
 20
153.1780573726
 30
0.0
  0
SPLINE
  5
5B6
100
AcDbEntity
  8
0
100
AcDbSpline
 62
7
  6
CONTINUOUS
 70
0
 71
3
 72
9
 73
5
 74
0
 42
0.0000001
 43
0.0000001
 44
0.0000000001
 40
0.0
 40
0.0
 40
0.0
 40
0.0
 40
0.2559019131
 40
1.0
 40
1.0
 40
1.0
 40
1.0
 10
37.6059311506
 20
153.0421599683
 30
0.0
 10
37.5632863558
 20
153.0205218058
 30
0.0
 10
37.3946275891
 20
152.9400360561
 30
0.0
 10
37.2178858006
 20
152.8761508812
 30
0.0
 10
37.0835776953
 20
152.8401492555
 30
0.0
  0
SPLINE
  5
5B7
100
AcDbEntity
  8
0
100
AcDbSpline
 62
7
  6
CONTINUOUS
 70
0
 71
3
 72
9
 73
5
 74
0
 42
0.0000001
 43
0.0000001
 44
0.0000000001
 40
0.0
 40
0.0
 40
0.0
 40
0.0
 40
0.2562253735
 40
1.0
 40
1.0
 40
1.0
 40
1.0
 10
38.9983547772
 20
235.9387289668
 30
0.0
 10
38.9875300279
 20
235.9449810472
 30
0.0
 10
38.9449421357
 20
235.9687832767
 30
0.0
 10
38.9009639743
 20
235.9901249493
 30
0.0
 10
38.8675704814
 20
236.0043236861
 30
0.0
  0
SPLINE
  5
5B8
100
AcDbEntity
  8
0
100
AcDbSpline
 62
7
  6
CONTINUOUS
 70
0
 71
3
 72
12
 73
8
 74
0
 42
0.0000001
 43
0.0000001
 44
0.0000000001
 40
0.0
 40
0.0
 40
0.0
 40
0.0
 40
0.1204186197
 40
0.2416558888
 40
0.4876062238
 40
0.7402362834
 40
1.0
 40
1.0
 40
1.0
 40
1.0
 10
37.125573471
 20
152.1095204019
 30
0.0
 10
37.184444075
 20
152.0754966296
 30
0.0
 10
37.3060195128
 20
152.0129537742
 30
0.0
 10
37.5621966091
 20
151.9111514709
 30
0.0
 10
37.9046874633
 20
151.8288723014
 30
0.0
 10
38.3343285396
 20
151.8058020819
 30
0.0
 10
38.623265908
 20
151.8393364716
 30
0.0
 10
38.7671607704
 20
151.8677723852
 30
0.0
  0
SPLINE
  5
5B9
100
AcDbEntity
  8
0
100
AcDbSpline
 62
7
  6
CONTINUOUS
 70
0
 71
3
 72
11
 73
7
 74
0
 42
0.0000001
 43
0.0000001
 44
0.0000000001
 40
0.0
 40
0.0
 40
0.0
 40
0.0
 40
0.2396790448
 40
0.4846740089
 40
0.7377424146
 40
1.0
 40
1.0
 40
1.0
 40
1.0
 10
109.9792249208
 20
156.2077255325
 30
0.0
 10
110.0579703488
 20
156.1730762379
 30
0.0
 10
110.2241769904
 20
156.117889082
 30
0.0
 10
110.4876998151
 20
156.0807483589
 30
0.0
 10
110.761686705
 20
156.0893966627
 30
0.0
 10
110.9441702791
 20
156.1243790762
 30
0.0
 10
111.0350960938
 20
156.148752605
 30
0.0
  0
SPLINE
  5
5BA
100
AcDbEntity
  8
0
100
AcDbSpline
 62
7
  6
CONTINUOUS
 70
0
 71
3
 72
11
 73
7
 74
0
 42
0.0000001
 43
0.0000001
 44
0.0000000001
 40
0.0
 40
0.0
 40
0.0
 40
0.0
 40
0.2629315216
 40
0.5172003056
 40
0.7627208109
 40
1.0
 40
1.0
 40
1.0
 40
1.0
 10
37.2657302752
 20
241.3096177911
 30
0.0
 10
36.7053118124
 20
241.0024826868
 30
0.0
 10
35.5684120546
 20
240.4585429674
 30
0.0
 10
33.8085186733
 20
239.8614279213
 30
0.0
 10
32.0475004755
 20
239.5063637592
 30
0.0
 10
30.8715970731
 20
239.4336638462
 30
0.0
 10
30.2949303572
 20
239.4410286242
 30
0.0
  0
SPLINE
  5
5BB
100
AcDbEntity
  8
0
100
AcDbSpline
 62
7
  6
CONTINUOUS
 70
0
 71
3
 72
9
 73
5
 74
0
 42
0.0000001
 43
0.0000001
 44
0.0000000001
 40
0.0
 40
0.0
 40
0.0
 40
0.0
 40
0.5083072648
 40
1.0
 40
1.0
 40
1.0
 40
1.0
 10
31.0664317629
 20
237.7916490771
 30
0.0
 10
30.50309957
 20
237.4795583515
 30
0.0
 10
29.359277531
 20
236.9272489819
 30
0.0
 10
28.1562515308
 20
236.5177538078
 30
0.0
 10
27.5545387793
 20
236.3564589862
 30
0.0
  0
SPLINE
  5
5BC
100
AcDbEntity
  8
0
100
AcDbSpline
 62
7
  6
CONTINUOUS
 70
0
 71
3
 72
9
 73
5
 74
0
 42
0.0000001
 43
0.0000001
 44
0.0000000001
 40
0.0
 40
0.0
 40
0.0
 40
0.0
 40
0.5081601836
 40
1.0
 40
1.0
 40
1.0
 40
1.0
 10
27.5545387793
 20
236.3564589862
 30
0.0
 10
26.9734648113
 20
236.2006965867
 30
0.0
 10
25.8088666241
 20
235.9670313553
 30
0.0
 10
24.6223458813
 20
235.8976326019
 30
0.0
 10
24.0401602137
 20
235.907403923
 30
0.0
  0
SPLINE
  5
5BD
100
AcDbEntity
  8
0
100
AcDbSpline
 62
7
  6
CONTINUOUS
 70
0
 71
3
 72
9
 73
5
 74
0
 42
0.0000001
 43
0.0000001
 44
0.0000000001
 40
0.0
 40
0.0
 40
0.0
 40
0.0
 40
0.5000204135
 40
1.0
 40
1.0
 40
1.0
 40
1.0
 10
36.0818286112
 20
228.6886618236
 30
0.0
 10
35.0234906992
 20
229.3226913414
 30
0.0
 10
32.9074994923
 20
230.5916968557
 30
0.0
 10
30.791420844
 20
231.8605562409
 30
0.0
 10
29.7333721596
 20
232.4948724087
 30
0.0
  0
LINE
  5
5BE
100
AcDbEntity
  8
0
100
AcDbLine
 62
7
  6
CONTINUOUS
 10
29.3135511053
 20
232.7465592265
 11
26.1423067205
 21
234.6477767518
  0
SPLINE
  5
5BF
100
AcDbEntity
  8
0
100
AcDbSpline
 62
7
  6
CONTINUOUS
 70
0
 71
3
 72
9
 73
5
 74
0
 42
0.0000001
 43
0.0000001
 44
0.0000000001
 40
0.0
 40
0.0
 40
0.0
 40
0.0
 40
0.2500266588
 40
1.0
 40
1.0
 40
1.0
 40
1.0
 10
31.0656592325
 20
237.7914406921
 30
0.0
 10
31.509396993
 20
237.5355275482
 30
0.0
 10
33.2840078372
 20
236.5117223966
 30
0.0
 10
35.0583472815
 20
235.4874469373
 30
0.0
 10
36.3892442112
 20
234.7195963102
 30
0.0
  0
SPLINE
  5
5C0
100
AcDbEntity
  8
0
100
AcDbSpline
 62
7
  6
CONTINUOUS
 70
0
 71
3
 72
9
 73
5
 74
0
 42
0.0000001
 43
0.0000001
 44
0.0000000001
 40
0.0
 40
0.0
 40
0.0
 40
0.0
 40
0.5000184147
 40
1.0
 40
1.0
 40
1.0
 40
1.0
 10
36.3892442112
 20
234.7195963102
 30
0.0
 10
37.5626275754
 20
234.042621909
 30
0.0
 10
39.9094909559
 20
232.6890403803
 30
0.0
 10
42.2563577786
 20
231.3354646155
 30
0.0
 10
43.4295020397
 20
230.6582755167
 30
0.0
  0
SPLINE
  5
5C1
100
AcDbEntity
  8
0
100
AcDbSpline
 62
7
  6
CONTINUOUS
 70
0
 71
3
 72
9
 73
5
 74
0
 42
0.0000001
 43
0.0000001
 44
0.0000000001
 40
0.0
 40
0.0
 40
0.0
 40
0.0
 40
0.250171322
 40
1.0
 40
1.0
 40
1.0
 40
1.0
 10
25.6823302697
 20
234.935840761
 30
0.0
 10
26.1311672004
 20
235.0558438474
 30
0.0
 10
27.9251736686
 20
235.5359454025
 30
0.0
 10
29.7187324816
 20
236.0177197339
 30
0.0
 10
31.0633397578
 20
236.3799118775
 30
0.0
  0
SPLINE
  5
5C2
100
AcDbEntity
  8
0
100
AcDbSpline
 62
7
  6
CONTINUOUS
 70
0
 71
3
 72
11
 73
7
 74
0
 42
0.0000001
 43
0.0000001
 44
0.0000000001
 40
0.0
 40
0.0
 40
0.0
 40
0.0
 40
0.2450268637
 40
0.4921390619
 40
0.7432588536
 40
1.0
 40
1.0
 40
1.0
 40
1.0
 10
109.3446423123
 20
155.4099449599
 30
0.0
 10
109.2640921251
 20
155.4564681975
 30
0.0
 10
109.1087490051
 20
155.5616166754
 30
0.0
 10
108.8993337125
 20
155.7520678785
 30
0.0
 10
108.7153531452
 20
155.9729472754
 30
0.0
 10
108.6123474388
 20
156.1366777701
 30
0.0
 10
108.5657207512
 20
156.222268755
 30
0.0
  0
SPLINE
  5
5C3
100
AcDbEntity
  8
0
100
AcDbSpline
 62
7
  6
CONTINUOUS
 70
0
 71
3
 72
9
 73
5
 74
0
 42
0.0000001
 43
0.0000001
 44
0.0000000001
 40
0.0
 40
0.0
 40
0.0
 40
0.0
 40
0.2461759706
 40
1.0
 40
1.0
 40
1.0
 40
1.0
 10
108.5657207512
 20
156.222268755
 30
0.0
 10
108.5483258407
 20
156.2541999858
 30
0.0
 10
108.4806921726
 20
156.385543108
 30
0.0
 10
108.425154896
 20
156.5230502769
 30
0.0
 10
108.3900245009
 20
156.6287080316
 30
0.0
  0
SPLINE
  5
5C4
100
AcDbEntity
  8
0
100
AcDbSpline
 62
7
  6
CONTINUOUS
 70
0
 71
3
 72
9
 73
5
 74
0
 42
0.0000001
 43
0.0000001
 44
0.0000000001
 40
0.0
 40
0.0
 40
0.0
 40
0.0
 40
0.2562253735
 40
1.0
 40
1.0
 40
1.0
 40
1.0
 10
30.6017002084
 20
233.6879259098
 30
0.0
 10
30.5908754592
 20
233.6941779901
 30
0.0
 10
30.548287567
 20
233.7179802197
 30
0.0
 10
30.5043094055
 20
233.7393218922
 30
0.0
 10
30.4709159126
 20
233.7535206291
 30
0.0
  0
SPLINE
  5
5C5
100
AcDbEntity
  8
0
100
AcDbSpline
 62
7
  6
CONTINUOUS
 70
0
 71
3
 72
11
 73
7
 74
0
 42
0.0000001
 43
0.0000001
 44
0.0000000001
 40
0.0
 40
0.0
 40
0.0
 40
0.0
 40
0.2629315216
 40
0.5172003056
 40
0.7627208109
 40
1.0
 40
1.0
 40
1.0
 40
1.0
 10
28.8690757065
 20
239.0588147341
 30
0.0
 10
28.3086572436
 20
238.7516796297
 30
0.0
 10
27.1717574858
 20
238.2077399103
 30
0.0
 10
25.4118641046
 20
237.6106248642
 30
0.0
 10
23.6508459067
 20
237.2555607021
 30
0.0
 10
22.4749425043
 20
237.1828607892
 30
0.0
 10
21.8982757884
 20
237.1902255671
 30
0.0
  0
SPLINE
  5
5C6
100
AcDbEntity
  8
0
100
AcDbSpline
 62
7
  6
CONTINUOUS
 70
0
 71
3
 72
11
 73
7
 74
0
 42
0.0000001
 43
0.0000001
 44
0.0000000001
 40
0.0
 40
0.0
 40
0.0
 40
0.0
 40
0.2396790448
 40
0.4846740089
 40
0.7377424146
 40
1.0
 40
1.0
 40
1.0
 40
1.0
 10
97.0867238113
 20
152.7517680827
 30
0.0
 10
97.1654692392
 20
152.7171187881
 30
0.0
 10
97.3316758809
 20
152.6619316322
 30
0.0
 10
97.5951987056
 20
152.6247909091
 30
0.0
 10
97.8691855955
 20
152.6334392128
 30
0.0
 10
98.0516691696
 20
152.6684216264
 30
0.0
 10
98.1425949842
 20
152.6927951552
 30
0.0
  0
SPLINE
  5
5C7
100
AcDbEntity
  8
0
100
AcDbSpline
 62
7
  6
CONTINUOUS
 70
0
 71
3
 72
11
 73
7
 74
0
 42
0.0000001
 43
0.0000001
 44
0.0000000001
 40
0.0
 40
0.0
 40
0.0
 40
0.0
 40
0.2450268637
 40
0.4921390619
 40
0.7432588536
 40
1.0
 40
1.0
 40
1.0
 40
1.0
 10
96.4521412028
 20
151.9539875101
 30
0.0
 10
96.3715910156
 20
152.0005107477
 30
0.0
 10
96.2162478956
 20
152.1056592256
 30
0.0
 10
96.006832603
 20
152.2961104286
 30
0.0
 10
95.8228520357
 20
152.5169898256
 30
0.0
 10
95.7198463293
 20
152.6807203203
 30
0.0
 10
95.6732196416
 20
152.7663113052
 30
0.0
  0
SPLINE
  5
5C8
100
AcDbEntity
  8
0
100
AcDbSpline
 62
7
  6
CONTINUOUS
 70
0
 71
3
 72
9
 73
5
 74
0
 42
0.0000001
 43
0.0000001
 44
0.0000000001
 40
0.0
 40
0.0
 40
0.0
 40
0.0
 40
0.2461759706
 40
1.0
 40
1.0
 40
1.0
 40
1.0
 10
95.6732196416
 20
152.7663113052
 30
0.0
 10
95.6558247311
 20
152.798242536
 30
0.0
 10
95.588191063
 20
152.9295856582
 30
0.0
 10
95.5326537865
 20
153.067092827
 30
0.0
 10
95.4975233914
 20
153.1727505818
 30
0.0
  0
SPLINE
  5
5C9
100
AcDbEntity
  8
0
100
AcDbSpline
 62
7
  6
CONTINUOUS
 70
0
 71
3
 72
11
 73
7
 74
0
 42
0.0000001
 43
0.0000001
 44
0.0000000001
 40
0.0
 40
0.0
 40
0.0
 40
0.0
 40
0.2396790448
 40
0.4846740089
 40
0.7377424146
 40
1.0
 40
1.0
 40
1.0
 40
1.0
 10
84.1942227017
 20
149.2958106328
 30
0.0
 10
84.2729681297
 20
149.2611613383
 30
0.0
 10
84.4391747713
 20
149.2059741824
 30
0.0
 10
84.702697596
 20
149.1688334593
 30
0.0
 10
84.9766844859
 20
149.177481763
 30
0.0
 10
85.15916806
 20
149.2124641766
 30
0.0
 10
85.2500938747
 20
149.2368377053
 30
0.0
  0
SPLINE
  5
5CA
100
AcDbEntity
  8
0
100
AcDbSpline
 62
7
  6
CONTINUOUS
 70
0
 71
3
 72
11
 73
7
 74
0
 42
0.0000001
 43
0.0000001
 44
0.0000000001
 40
0.0
 40
0.0
 40
0.0
 40
0.0
 40
0.2450268637
 40
0.4921390619
 40
0.7432588536
 40
1.0
 40
1.0
 40
1.0
 40
1.0
 10
83.5596400933
 20
148.4980300603
 30
0.0
 10
83.479089906
 20
148.5445532979
 30
0.0
 10
83.3237467861
 20
148.6497017757
 30
0.0
 10
83.1143314934
 20
148.8401529788
 30
0.0
 10
82.9303509261
 20
149.0610323758
 30
0.0
 10
82.8273452198
 20
149.2247628705
 30
0.0
 10
82.7807185321
 20
149.3103538554
 30
0.0
  0
SPLINE
  5
5CB
100
AcDbEntity
  8
0
100
AcDbSpline
 62
7
  6
CONTINUOUS
 70
0
 71
3
 72
9
 73
5
 74
0
 42
0.0000001
 43
0.0000001
 44
0.0000000001
 40
0.0
 40
0.0
 40
0.0
 40
0.0
 40
0.2461759706
 40
1.0
 40
1.0
 40
1.0
 40
1.0
 10
82.7807185321
 20
149.3103538554
 30
0.0
 10
82.7633236216
 20
149.3422850862
 30
0.0
 10
82.6956899535
 20
149.4736282084
 30
0.0
 10
82.640152677
 20
149.6111353772
 30
0.0
 10
82.6050222818
 20
149.7167931319
 30
0.0
  0
SPLINE
  5
5CC
100
AcDbEntity
  8
0
100
AcDbSpline
 62
7
  6
CONTINUOUS
 70
0
 71
3
 72
9
 73
5
 74
0
 42
0.0000001
 43
0.0000001
 44
0.0000000001
 40
0.0
 40
0.0
 40
0.0
 40
0.0
 40
0.2459259874
 40
1.0
 40
1.0
 40
1.0
 40
1.0
 10
38.7671607706
 20
151.8677704218
 30
0.0
 10
38.8174651727
 20
151.8777107147
 30
0.0
 10
39.0208613111
 20
151.9238371571
 30
0.0
 10
39.219123042
 20
151.9920897169
 30
0.0
 10
39.3635568751
 20
152.0542176402
 30
0.0
  0
SPLINE
  5
5CD
100
AcDbEntity
  8
0
100
AcDbSpline
 62
7
  6
CONTINUOUS
 70
0
 71
3
 72
11
 73
7
 74
0
 42
0.0000001
 43
0.0000001
 44
0.0000000001
 40
0.0
 40
0.0
 40
0.0
 40
0.0
 40
0.2794204281
 40
0.5403621951
 40
0.7809299436
 40
1.0
 40
1.0
 40
1.0
 40
1.0
 10
31.3318475098
 20
232.9327996137
 30
0.0
 10
31.2787963073
 20
233.0160015407
 30
0.0
 10
31.1692876358
 20
233.1726598547
 30
0.0
 10
30.9894529499
 20
233.3824328539
 30
0.0
 10
30.8022373063
 20
233.5556602407
 30
0.0
 10
30.6686926847
 20
233.6492328802
 30
0.0
 10
30.6017002084
 20
233.6879259098
 30
0.0
  0
SPLINE
  5
5CE
100
AcDbEntity
  8
0
100
AcDbSpline
 62
7
  6
CONTINUOUS
 70
0
 71
3
 72
11
 73
7
 74
0
 42
0.0000001
 43
0.0000001
 44
0.0000000001
 40
0.0
 40
0.0
 40
0.0
 40
0.0
 40
0.2794204281
 40
0.5403621951
 40
0.7809299436
 40
1.0
 40
1.0
 40
1.0
 40
1.0
 10
39.7285020786
 20
235.1836026708
 30
0.0
 10
39.6754508761
 20
235.2668045977
 30
0.0
 10
39.5659422046
 20
235.4234629118
 30
0.0
 10
39.3861075186
 20
235.633235911
 30
0.0
 10
39.1988918751
 20
235.8064632978
 30
0.0
 10
39.0653472535
 20
235.9000359372
 30
0.0
 10
38.9983547772
 20
235.9387289668
 30
0.0
  0
SPLINE
  5
5CF
100
AcDbEntity
  8
0
100
AcDbSpline
 62
7
  6
CONTINUOUS
 70
0
 71
3
 72
11
 73
7
 74
0
 42
0.0000001
 43
0.0000001
 44
0.0000000001
 40
0.0
 40
0.0
 40
0.0
 40
0.0
 40
0.2794204281
 40
0.5403621951
 40
0.7809299436
 40
1.0
 40
1.0
 40
1.0
 40
1.0
 10
48.1251566474
 20
237.4344057278
 30
0.0
 10
48.0721054449
 20
237.5176076548
 30
0.0
 10
47.9625967734
 20
237.6742659688
 30
0.0
 10
47.7827620874
 20
237.8840389681
 30
0.0
 10
47.5955464439
 20
238.0572663549
 30
0.0
 10
47.4620018223
 20
238.1508389943
 30
0.0
 10
47.395009346
 20
238.1895320239
 30
0.0
  0
SPLINE
  5
5D0
100
AcDbEntity
  8
0
100
AcDbSpline
 62
7
  6
CONTINUOUS
 70
0
 71
3
 72
9
 73
5
 74
0
 42
0.0000001
 43
0.0000001
 44
0.0000000001
 40
0.0
 40
0.0
 40
0.0
 40
0.0
 40
0.2521639869
 40
1.0
 40
1.0
 40
1.0
 40
1.0
 10
67.8862658018
 20
164.4344293742
 30
0.0
 10
67.8844223588
 20
164.411018773
 30
0.0
 10
67.8779987882
 20
164.318112803
 30
0.0
 10
67.8751536069
 20
164.2249551718
 30
0.0
 10
67.8751536069
 20
164.15531206
 30
0.0
  0
SPLINE
  5
5D1
100
AcDbEntity
  8
0
100
AcDbSpline
 62
7
  6
CONTINUOUS
 70
0
 71
3
 72
15
 73
11
 74
0
 42
0.0000001
 43
0.0000001
 44
0.0000000001
 40
0.0
 40
0.0
 40
0.0
 40
0.0
 40
0.136222465
 40
0.2692648596
 40
0.398798745
 40
0.5247602114
 40
0.6474122022
 40
0.7671464791
 40
0.8844755928
 40
1.0
 40
1.0
 40
1.0
 40
1.0
 10
67.8751535968
 20
148.1956631691
 30
0.0
 10
67.8751535967
 20
148.0955345168
 30
0.0
 10
67.8838486291
 20
147.8974898376
 30
0.0
 10
67.9235848702
 20
147.6066443245
 30
0.0
 10
67.9896463513
 20
147.3282996231
 30
0.0
 10
68.0816360758
 20
147.0654598551
 30
0.0
 10
68.1984403315
 20
146.820581911
 30
0.0
 10
68.339191057
 20
146.5960245786
 30
0.0
 10
68.5024449147
 20
146.3939613031
 30
0.0
 10
68.6260282399
 20
146.2747721739
 30
0.0
 10
68.6908180166
 20
146.2198831232
 30
0.0
  0
SPLINE
  5
5D2
100
AcDbEntity
  8
0
100
AcDbSpline
 62
7
  6
CONTINUOUS
 70
0
 71
3
 72
9
 73
5
 74
0
 42
0.0000001
 43
0.0000001
 44
0.0000000001
 40
0.0
 40
0.0
 40
0.0
 40
0.0
 40
0.2508652363
 40
1.0
 40
1.0
 40
1.0
 40
1.0
 10
68.6908180166
 20
146.2198831232
 30
0.0
 10
68.7132499775
 20
146.2008790596
 30
0.0
 10
68.8043431487
 20
146.1271242593
 30
0.0
 10
68.9020506299
 20
146.0615392598
 30
0.0
 10
68.9780750638
 20
146.0176299402
 30
0.0
  0
SPLINE
  5
5D3
100
AcDbEntity
  8
0
100
AcDbSpline
 62
7
  6
CONTINUOUS
 70
0
 71
3
 72
11
 73
7
 74
0
 42
0.0000001
 43
0.0000001
 44
0.0000000001
 40
0.0
 40
0.0
 40
0.0
 40
0.0
 40
0.2791360466
 40
0.5399343209
 40
0.7805798211
 40
1.0
 40
1.0
 40
1.0
 40
1.0
 10
56.5116254614
 20
239.7010873788
 30
0.0
 10
56.4591237591
 20
239.7824398984
 30
0.0
 10
56.3508695448
 20
239.9356375127
 30
0.0
 10
56.1734415088
 20
240.1408255097
 30
0.0
 10
55.98897213
 20
240.3104678914
 30
0.0
 10
55.8575702584
 20
240.402269372
 30
0.0
 10
55.7916639147
 20
240.440335081
 30
0.0
  0
SPLINE
  5
5D4
100
AcDbEntity
  8
0
100
AcDbSpline
 62
7
  6
CONTINUOUS
 70
0
 71
3
 72
10
 73
6
 74
0
 42
0.0000001
 43
0.0000001
 44
0.0000000001
 40
0.0
 40
0.0
 40
0.0
 40
0.0
 40
0.4824122794
 40
0.7376196105
 40
1.0
 40
1.0
 40
1.0
 40
1.0
 10
90.8037866435
 20
150.7255578337
 30
0.0
 10
91.0047403401
 20
150.7794253816
 30
0.0
 10
91.3003178186
 20
150.9113549324
 30
0.0
 10
91.6536911374
 20
151.1594446575
 30
0.0
 10
91.8199138096
 20
151.3095227681
 30
0.0
 10
91.8993537384
 20
151.3901053738
 30
0.0
  0
SPLINE
  5
5D5
100
AcDbEntity
  8
0
100
AcDbSpline
 62
7
  6
CONTINUOUS
 70
0
 71
3
 72
9
 73
5
 74
0
 42
0.0000001
 43
0.0000001
 44
0.0000000001
 40
0.0
 40
0.0
 40
0.0
 40
0.0
 40
0.5079083466
 40
1.0
 40
1.0
 40
1.0
 40
1.0
 10
37.0835776953
 20
152.8401492555
 30
0.0
 10
36.9802312187
 20
152.8124454997
 30
0.0
 10
36.772909844
 20
152.7712079013
 30
0.0
 10
36.5617163869
 20
152.7594991259
 30
0.0
 10
36.4580769411
 20
152.7617260211
 30
0.0
  0
SPLINE
  5
5D6
100
AcDbEntity
  8
0
100
AcDbSpline
 62
7
  6
CONTINUOUS
 70
0
 71
3
 72
10
 73
6
 74
0
 42
0.0000001
 43
0.0000001
 44
0.0000000001
 40
0.0
 40
0.0
 40
0.0
 40
0.0
 40
0.2421094406
 40
0.4905373524
 40
1.0
 40
1.0
 40
1.0
 40
1.0
 10
69.5642175342
 20
163.1797547416
 30
0.0
 10
69.5642175343
 20
163.3003145199
 30
0.0
 10
69.5771293554
 20
163.5447609329
 30
0.0
 10
69.6515600732
 20
164.0376336746
 30
0.0
 10
69.7609360939
 20
164.4017563919
 30
0.0
 10
69.8547404776
 20
164.6374665306
 30
0.0
  0
SPLINE
  5
5D7
100
AcDbEntity
  8
0
100
AcDbSpline
 62
7
  6
CONTINUOUS
 70
0
 71
3
 72
18
 73
14
 74
0
 42
0.0000001
 43
0.0000001
 44
0.0000000001
 40
0.0
 40
0.0
 40
0.0
 40
0.0
 40
0.0539389203
 40
0.1093021464
 40
0.1662012491
 40
0.224679889
 40
0.3461523751
 40
0.4730636324
 40
0.6039324861
 40
0.6703034941
 40
0.7369034186
 40
0.8695728805
 40
1.0
 40
1.0
 40
1.0
 40
1.0
 10
66.052903635
 20
222.4406382791
 30
0.0
 10
66.1332088786
 20
222.438939469
 30
0.0
 10
66.2962871747
 20
222.4451757124
 30
0.0
 10
66.5414252273
 20
222.4824942258
 30
0.0
 10
66.7877903537
 20
222.5472239535
 30
0.0
 10
67.118698532
 20
222.670715891
 30
0.0
 10
67.5217954131
 20
222.891817354
 30
0.0
 10
67.9652054559
 20
223.2454514609
 30
0.0
 10
68.2916674524
 20
223.6039067305
 30
0.0
 10
68.5216009531
 20
223.9228753143
 30
0.0
 10
68.7283976819
 20
224.2604900319
 30
0.0
 10
68.9369845426
 20
224.7070585369
 30
0.0
 10
69.047377194
 20
225.0849355249
 30
0.0
 10
69.0863714415
 20
225.2752065788
 30
0.0
  0
SPLINE
  5
5D8
100
AcDbEntity
  8
0
100
AcDbSpline
 62
7
  6
CONTINUOUS
 70
0
 71
3
 72
9
 73
5
 74
0
 42
0.0000001
 43
0.0000001
 44
0.0000000001
 40
0.0
 40
0.0
 40
0.0
 40
0.0
 40
0.2519165711
 40
1.0
 40
1.0
 40
1.0
 40
1.0
 10
69.0863714415
 20
225.2752065788
 30
0.0
 10
69.0915574703
 20
225.3005116231
 30
0.0
 10
69.1110483281
 20
225.4011825856
 30
0.0
 10
69.126140048
 20
225.5027094375
 30
0.0
 10
69.1348250249
 20
225.5789230746
 30
0.0
  0
SPLINE
  5
5D9
100
AcDbEntity
  8
0
100
AcDbSpline
 62
7
  6
CONTINUOUS
 70
0
 71
3
 72
9
 73
5
 74
0
 42
0.0000001
 43
0.0000001
 44
0.0000000001
 40
0.0
 40
0.0
 40
0.0
 40
0.0
 40
0.2530750324
 40
1.0
 40
1.0
 40
1.0
 40
1.0
 10
69.1348250249
 20
225.5789230746
 30
0.0
 10
69.1382966349
 20
225.6093876381
 30
0.0
 10
69.1503700281
 20
225.7299448575
 30
0.0
 10
69.1557969067
 20
225.8511840395
 30
0.0
 10
69.1557969067
 20
225.9416789873
 30
0.0
  0
SPLINE
  5
5DA
100
AcDbEntity
  8
0
100
AcDbSpline
 62
7
  6
CONTINUOUS
 70
0
 71
3
 72
22
 73
18
 74
0
 42
0.0000001
 43
0.0000001
 44
0.0000000001
 40
0.0
 40
0.0
 40
0.0
 40
0.0
 40
0.0545289178
 40
0.1110006838
 40
0.1695598378
 40
0.2301908533
 40
0.2927573349
 40
0.3569986538
 40
0.4225739328
 40
0.4890648145
 40
0.5560155193
 40
0.6229479843
 40
0.6893848475
 40
0.7548625198
 40
0.8189661057
 40
0.8813952329
 40
1.0
 40
1.0
 40
1.0
 40
1.0
 10
69.0777020291
 20
227.4537031304
 30
0.0
 10
69.1386837024
 20
227.3518357664
 30
0.0
 10
69.246562071
 20
227.1343636502
 30
0.0
 10
69.3616596776
 20
226.7823921316
 30
0.0
 10
69.4306611002
 20
226.4050874156
 30
0.0
 10
69.4529195435
 20
226.0090156663
 30
0.0
 10
69.427805451
 20
225.6007975488
 30
0.0
 10
69.3562043684
 20
225.187266642
 30
0.0
 10
69.2390024748
 20
224.7754372339
 30
0.0
 10
69.0785706339
 20
224.3721264977
 30
0.0
 10
68.8772842087
 20
223.9842554423
 30
0.0
 10
68.638844928
 20
223.618191061
 30
0.0
 10
68.3669435816
 20
223.2803209143
 30
0.0
 10
68.0665528373
 20
222.976118992
 30
0.0
 10
67.7422032592
 20
222.7108649543
 30
0.0
 10
67.2937899282
 20
222.4203143518
 30
0.0
 10
66.9259012819
 20
222.2641618752
 30
0.0
 10
66.676469728
 20
222.1973008191
 30
0.0
  0
SPLINE
  5
5DB
100
AcDbEntity
  8
0
100
AcDbSpline
 62
7
  6
CONTINUOUS
 70
0
 71
3
 72
14
 73
10
 74
0
 42
0.0000001
 43
0.0000001
 44
0.0000000001
 40
0.0
 40
0.0
 40
0.0
 40
0.0
 40
0.120133757
 40
0.2401267904
 40
0.3608648384
 40
0.4831744022
 40
0.6077781225
 40
0.7352604335
 40
1.0
 40
1.0
 40
1.0
 40
1.0
 10
66.9270950119
 20
221.2638807992
 30
0.0
 10
66.9818171262
 20
221.2321528016
 30
0.0
 10
67.0949944102
 20
221.175016607
 30
0.0
 10
67.2740169619
 20
221.1100608741
 30
0.0
 10
67.4606014376
 20
221.0665225967
 30
0.0
 10
67.6533119198
 20
221.0443363642
 30
0.0
 10
67.8508506234
 20
221.0435337687
 30
0.0
 10
68.121939277
 20
221.0711594965
 30
0.0
 10
68.3234815082
 20
221.1233975615
 30
0.0
 10
68.4547871839
 20
221.1701930937
 30
0.0
  0
SPLINE
  5
5DC
100
AcDbEntity
  8
0
100
AcDbSpline
 62
7
  6
CONTINUOUS
 70
0
 71
3
 72
15
 73
11
 74
0
 42
0.0000001
 43
0.0000001
 44
0.0000000001
 40
0.0
 40
0.0
 40
0.0
 40
0.0
 40
0.1114321683
 40
0.2286147959
 40
0.3512436715
 40
0.478369841
 40
0.608571686
 40
0.7401284869
 40
0.871163977
 40
1.0
 40
1.0
 40
1.0
 40
1.0
 10
57.9603436543
 20
220.2056432378
 30
0.0
 10
58.1140188055
 20
220.2246400713
 30
0.0
 10
58.4258547297
 20
220.2967620596
 30
0.0
 10
58.8753270758
 20
220.4929021002
 30
0.0
 10
59.3043378676
 20
220.7725318466
 30
0.0
 10
59.6987794202
 20
221.1264058824
 30
0.0
 10
60.0461684903
 20
221.5426800273
 30
0.0
 10
60.3352397575
 20
222.0077618717
 30
0.0
 10
60.5565365847
 20
222.506455047
 30
0.0
 10
60.6554006569
 20
222.8553504876
 30
0.0
 10
60.6910216602
 20
223.0308000491
 30
0.0
  0
SPLINE
  5
5DD
100
AcDbEntity
  8
0
100
AcDbSpline
 62
7
  6
CONTINUOUS
 70
0
 71
3
 72
9
 73
5
 74
0
 42
0.0000001
 43
0.0000001
 44
0.0000000001
 40
0.0
 40
0.0
 40
0.0
 40
0.0
 40
0.2518074407
 40
1.0
 40
1.0
 40
1.0
 40
1.0
 10
60.6910216602
 20
223.0308000491
 30
0.0
 10
60.6958751456
 20
223.0547056611
 30
0.0
 10
60.7141712982
 20
223.1498373547
 30
0.0
 10
60.7285384961
 20
223.245727984
 30
0.0
 10
60.7369684508
 20
223.3177157045
 30
0.0
  0
SPLINE
  5
5DE
100
AcDbEntity
  8
0
100
AcDbSpline
 62
7
  6
CONTINUOUS
 70
0
 71
3
 72
9
 73
5
 74
0
 42
0.0000001
 43
0.0000001
 44
0.0000000001
 40
0.0
 40
0.0
 40
0.0
 40
0.0
 40
0.2531500986
 40
1.0
 40
1.0
 40
1.0
 40
1.0
 10
60.7369684508
 20
223.3177157045
 30
0.0
 10
60.7406384298
 20
223.3490555437
 30
0.0
 10
60.7533994879
 20
223.4730498256
 30
0.0
 10
60.7591423379
 20
223.597784542
 30
0.0
 10
60.759142338
 20
223.6908759303
 30
0.0
  0
SPLINE
  5
5DF
100
AcDbEntity
  8
0
100
AcDbSpline
 62
7
  6
CONTINUOUS
 70
0
 71
3
 72
9
 73
5
 74
0
 42
0.0000001
 43
0.0000001
 44
0.0000000001
 40
0.0
 40
0.0
 40
0.0
 40
0.0
 40
0.2473696142
 40
1.0
 40
1.0
 40
1.0
 40
1.0
 10
60.8628452968
 20
224.8270294005
 30
0.0
 10
60.8714991753
 20
224.8043982931
 30
0.0
 10
60.9051802391
 20
224.7124173512
 30
0.0
 10
60.9336697249
 20
224.618544703
 30
0.0
 10
60.9522380645
 20
224.547203224
 30
0.0
  0
SPLINE
  5
5E0
100
AcDbEntity
  8
0
100
AcDbSpline
 62
7
  6
CONTINUOUS
 70
0
 71
3
 72
17
 73
13
 74
0
 42
0.0000001
 43
0.0000001
 44
0.0000000001
 40
0.0
 40
0.0
 40
0.0
 40
0.0
 40
0.1165914898
 40
0.1775955877
 40
0.2401504216
 40
0.3687916175
 40
0.5002372273
 40
0.6316505812
 40
0.7601743162
 40
0.8834400638
 40
0.9426766745
 40
1.0
 40
1.0
 40
1.0
 40
1.0
 10
60.9522380645
 20
224.547203224
 30
0.0
 10
61.0091889321
 20
224.3283921064
 30
0.0
 10
61.0553525085
 20
223.9833363412
 30
0.0
 10
61.0452529613
 20
223.5172861841
 30
0.0
 10
60.9863870871
 20
223.0309960026
 30
0.0
 10
60.8224299717
 20
222.4232404589
 30
0.0
 10
60.4975720341
 20
221.7329375116
 30
0.0
 10
60.0588995728
 20
221.1087739202
 30
0.0
 10
59.5287698137
 20
220.5824377338
 30
0.0
 10
59.0248765896
 20
220.2428497604
 30
0.0
 10
58.6021331484
 20
220.0471787292
 30
0.0
 10
58.3871893767
 20
219.9752798461
 30
0.0
 10
58.2798152615
 20
219.9464977895
 30
0.0
  0
SPLINE
  5
5E1
100
AcDbEntity
  8
0
100
AcDbSpline
 62
7
  6
CONTINUOUS
 70
0
 71
3
 72
12
 73
8
 74
0
 42
0.0000001
 43
0.0000001
 44
0.0000000001
 40
0.0
 40
0.0
 40
0.0
 40
0.0
 40
0.1203168875
 40
0.2408994001
 40
0.4850687399
 40
0.7372590965
 40
1.0
 40
1.0
 40
1.0
 40
1.0
 10
58.9517302351
 20
218.7697466028
 30
0.0
 10
59.0102067576
 20
218.7358513573
 30
0.0
 10
59.1310930609
 20
218.6742819177
 30
0.0
 10
59.3864907648
 20
218.577993854
 30
0.0
 10
59.7293683459
 20
218.510248363
 30
0.0
 10
60.1583669283
 20
218.5150483973
 30
0.0
 10
60.4436899384
 20
218.5731372244
 30
0.0
 10
60.5852438312
 20
218.6149450418
 30
0.0
  0
SPLINE
  5
5E2
100
AcDbEntity
  8
0
100
AcDbSpline
 62
7
  6
CONTINUOUS
 70
0
 71
3
 72
10
 73
6
 74
0
 42
0.0000001
 43
0.0000001
 44
0.0000000001
 40
0.0
 40
0.0
 40
0.0
 40
0.0
 40
0.4824122794
 40
0.7376196105
 40
1.0
 40
1.0
 40
1.0
 40
1.0
 10
103.696287753
 20
154.1815152835
 30
0.0
 10
103.8972414496
 20
154.2353828314
 30
0.0
 10
104.1928189281
 20
154.3673123823
 30
0.0
 10
104.5461922469
 20
154.6154021074
 30
0.0
 10
104.7124149191
 20
154.7654802179
 30
0.0
 10
104.791854848
 20
154.8460628236
 30
0.0
  0
SPLINE
  5
5E3
100
AcDbEntity
  8
0
100
AcDbSpline
 62
7
  6
CONTINUOUS
 70
0
 71
3
 72
17
 73
13
 74
0
 42
0.0000001
 43
0.0000001
 44
0.0000000001
 40
0.0
 40
0.0
 40
0.0
 40
0.0
 40
0.1103188105
 40
0.2266022765
 40
0.2870355528
 40
0.3488400943
 40
0.475906664
 40
0.6064465293
 40
0.672500606
 40
0.7387084466
 40
0.8704786661
 40
1.0
 40
1.0
 40
1.0
 40
1.0
 10
49.4205238099
 20
217.9419232142
 30
0.0
 10
49.5790456768
 20
217.9508898648
 30
0.0
 10
49.903272447
 20
218.0062615784
 30
0.0
 10
50.2912584271
 20
218.1549747091
 30
0.0
 10
50.5931960407
 20
218.3190591897
 30
0.0
 10
50.8932313058
 20
218.5165397747
 30
0.0
 10
51.2448008528
 20
218.8158833133
 30
0.0
 10
51.5511862836
 20
219.1691347697
 30
0.0
 10
51.7665428644
 20
219.4804201735
 30
0.0
 10
51.9598740594
 20
219.8079125467
 30
0.0
 10
52.154902178
 20
220.2388927164
 30
0.0
 10
52.2585196044
 20
220.6021367182
 30
0.0
 10
52.2953536364
 20
220.7848736889
 30
0.0
  0
SPLINE
  5
5E4
100
AcDbEntity
  8
0
100
AcDbSpline
 62
7
  6
CONTINUOUS
 70
0
 71
3
 72
9
 73
5
 74
0
 42
0.0000001
 43
0.0000001
 44
0.0000000001
 40
0.0
 40
0.0
 40
0.0
 40
0.0
 40
0.2517099943
 40
1.0
 40
1.0
 40
1.0
 40
1.0
 10
52.2953536364
 20
220.7848736889
 30
0.0
 10
52.2999228781
 20
220.807542111
 30
0.0
 10
52.3171952819
 20
220.8977746967
 30
0.0
 10
52.3309327628
 20
220.988686589
 30
0.0
 10
52.3391311091
 20
221.0569406324
 30
0.0
  0
SPLINE
  5
5E5
100
AcDbEntity
  8
0
100
AcDbSpline
 62
7
  6
CONTINUOUS
 70
0
 71
3
 72
9
 73
5
 74
0
 42
0.0000001
 43
0.0000001
 44
0.0000000001
 40
0.0
 40
0.0
 40
0.0
 40
0.0
 40
0.2532213652
 40
1.0
 40
1.0
 40
1.0
 40
1.0
 10
52.3391311091
 20
221.0569406324
 30
0.0
 10
52.3429962413
 20
221.0891191829
 30
0.0
 10
52.3564336489
 20
221.2164061373
 30
0.0
 10
52.3624877691
 20
221.3444925365
 30
0.0
 10
52.3624877692
 20
221.4400728732
 30
0.0
  0
SPLINE
  5
5E6
100
AcDbEntity
  8
0
100
AcDbSpline
 62
7
  6
CONTINUOUS
 70
0
 71
3
 72
9
 73
5
 74
0
 42
0.0000001
 43
0.0000001
 44
0.0000000001
 40
0.0
 40
0.0
 40
0.0
 40
0.0
 40
0.2474780036
 40
1.0
 40
1.0
 40
1.0
 40
1.0
 10
52.4706025535
 20
222.5646042033
 30
0.0
 10
52.4787887564
 20
222.5428803541
 30
0.0
 10
52.5106740036
 20
222.4546534247
 30
0.0
 10
52.5378028472
 20
222.3647152958
 30
0.0
 10
52.5555835963
 20
222.2963997804
 30
0.0
  0
SPLINE
  5
5E7
100
AcDbEntity
  8
0
100
AcDbSpline
 62
7
  6
CONTINUOUS
 70
0
 71
3
 72
17
 73
13
 74
0
 42
0.0000001
 43
0.0000001
 44
0.0000000001
 40
0.0
 40
0.0
 40
0.0
 40
0.0
 40
0.1165914938
 40
0.1775955935
 40
0.2401504288
 40
0.3687916268
 40
0.5002372369
 40
0.6316505901
 40
0.7601743218
 40
0.8834400674
 40
0.9426766782
 40
1.0
 40
1.0
 40
1.0
 40
1.0
 10
52.5555835963
 20
222.2963997804
 30
0.0
 10
52.6125344334
 20
222.0775886508
 30
0.0
 10
52.6586979651
 20
221.7325328748
 30
0.0
 10
52.6485983625
 20
221.2664827126
 30
0.0
 10
52.5897324342
 20
220.7801925358
 30
0.0
 10
52.425775259
 20
220.1724370118
 30
0.0
 10
52.1009172596
 20
219.4821341046
 30
0.0
 10
51.6622447573
 20
218.8579705668
 30
0.0
 10
51.1321149619
 20
218.3316344486
 30
0.0
 10
50.6282217211
 20
217.9920465436
 30
0.0
 10
50.2054782993
 20
217.7963755161
 30
0.0
 10
49.9905345232
 20
217.7244766699
 30
0.0
 10
49.8831604059
 20
217.6956946555
 30
0.0
  0
SPLINE
  5
5E8
100
AcDbEntity
  8
0
100
AcDbSpline
 62
7
  6
CONTINUOUS
 70
0
 71
3
 72
13
 73
9
 74
0
 42
0.0000001
 43
0.0000001
 44
0.0000000001
 40
0.0
 40
0.0
 40
0.0
 40
0.0
 40
0.1204478176
 40
0.2414620084
 40
0.4866172394
 40
0.6118474053
 40
0.7391540961
 40
1.0
 40
1.0
 40
1.0
 40
1.0
 10
50.450277948
 20
216.5793688143
 30
0.0
 10
50.5126315236
 20
216.5433517822
 30
0.0
 10
50.6414362271
 20
216.4774858315
 30
0.0
 10
50.912946551
 20
216.3719655902
 30
0.0
 10
51.2019585002
 20
216.3077609889
 30
0.0
 10
51.4990129429
 20
216.2855438256
 30
0.0
 10
51.8062278295
 20
216.2913989353
 30
0.0
 10
52.0370349297
 20
216.3274130333
 30
0.0
 10
52.1885883799
 20
216.3641549255
 30
0.0
  0
SPLINE
  5
5E9
100
AcDbEntity
  8
0
100
AcDbSpline
 62
7
  6
CONTINUOUS
 70
0
 71
3
 72
10
 73
6
 74
0
 42
0.0000001
 43
0.0000001
 44
0.0000000001
 40
0.0
 40
0.0
 40
0.0
 40
0.0
 40
0.4824122794
 40
0.7376196105
 40
1.0
 40
1.0
 40
1.0
 40
1.0
 10
77.911285534
 20
147.2696003838
 30
0.0
 10
78.1122392305
 20
147.3234679318
 30
0.0
 10
78.407816709
 20
147.4553974826
 30
0.0
 10
78.7611900279
 20
147.7034872077
 30
0.0
 10
78.9274127001
 20
147.8535653182
 30
0.0
 10
79.0068526289
 20
147.9341479239
 30
0.0
  0
SPLINE
  5
5EA
100
AcDbEntity
  8
0
100
AcDbSpline
 62
7
  6
CONTINUOUS
 70
0
 71
3
 72
19
 73
15
 74
0
 42
0.0000001
 43
0.0000001
 44
0.0000000001
 40
0.0
 40
0.0
 40
0.0
 40
0.0
 40
0.0528852821
 40
0.1070290246
 40
0.162693678
 40
0.220054254
 40
0.2791821673
 40
0.3400778644
 40
0.4665810312
 40
0.531956986
 40
0.5983594135
 40
0.7329017185
 40
0.8676392702
 40
1.0
 40
1.0
 40
1.0
 40
1.0
 10
40.488739357
 20
215.7324144583
 30
0.0
 10
40.5725359644
 20
215.7139126949
 30
0.0
 10
40.7449685322
 20
215.6884023617
 30
0.0
 10
41.0096400923
 20
215.6846906726
 30
0.0
 10
41.2798691525
 20
215.7153340443
 30
0.0
 10
41.5522992182
 20
215.779812918
 30
0.0
 10
41.8238145177
 20
215.8771252406
 30
0.0
 10
42.1844823576
 20
216.0515125962
 30
0.0
 10
42.5252491531
 20
216.2850704125
 30
0.0
 10
42.836277753
 20
216.5665438859
 30
0.0
 10
43.1306370326
 20
216.8836116204
 30
0.0
 10
43.4486778182
 20
217.3292826082
 30
0.0
 10
43.7362213347
 20
217.9171925461
 30
0.0
 10
43.8594042365
 20
218.3354597175
 30
0.0
 10
43.9011116233
 20
218.546147711
 30
0.0
  0
SPLINE
  5
5EB
100
AcDbEntity
  8
0
100
AcDbSpline
 62
7
  6
CONTINUOUS
 70
0
 71
3
 72
9
 73
5
 74
0
 42
0.0000001
 43
0.0000001
 44
0.0000000001
 40
0.0
 40
0.0
 40
0.0
 40
0.0
 40
0.2511193335
 40
1.0
 40
1.0
 40
1.0
 40
1.0
 10
43.9011116233
 20
218.546147711
 30
0.0
 10
43.9041394944
 20
218.5614432294
 30
0.0
 10
43.9157949298
 20
218.6224314308
 30
0.0
 10
43.9258376067
 20
218.6837283495
 30
0.0
 10
43.9324239325
 20
218.7297585268
 30
0.0
  0
SPLINE
  5
5EC
100
AcDbEntity
  8
0
100
AcDbSpline
 62
7
  6
CONTINUOUS
 70
0
 71
3
 72
9
 73
5
 74
0
 42
0.0000001
 43
0.0000001
 44
0.0000000001
 40
0.0
 40
0.0
 40
0.0
 40
0.0
 40
0.2537452119
 40
1.0
 40
1.0
 40
1.0
 40
1.0
 10
43.9324239325
 20
218.7297585268
 30
0.0
 10
43.937946232
 20
218.7683524911
 30
0.0
 10
43.9571208674
 20
218.9208040044
 30
0.0
 10
43.9658332003
 20
219.0746104274
 30
0.0
 10
43.9658332004
 20
219.1892698162
 30
0.0
  0
SPLINE
  5
5ED
100
AcDbEntity
  8
0
100
AcDbSpline
 62
7
  6
CONTINUOUS
 70
0
 71
3
 72
13
 73
9
 74
0
 42
0.0000001
 43
0.0000001
 44
0.0000000001
 40
0.0
 40
0.0
 40
0.0
 40
0.0
 40
0.1206943986
 40
0.2421512401
 40
0.4882536725
 40
0.6136802902
 40
0.7408400903
 40
1.0
 40
1.0
 40
1.0
 40
1.0
 10
41.4201412597
 20
214.6944444994
 30
0.0
 10
41.4864879706
 20
214.656121101
 30
0.0
 10
41.6234198252
 20
214.5856124443
 30
0.0
 10
41.9116072887
 20
214.470562707
 30
0.0
 10
42.2178103375
 20
214.3963052889
 30
0.0
 10
42.5330222657
 20
214.3636110154
 30
0.0
 10
42.8581750477
 20
214.3586029543
 30
0.0
 10
43.103338667
 20
214.3863104958
 30
0.0
 10
43.2648178201
 20
214.4177997832
 30
0.0
  0
SPLINE
  5
5EE
100
AcDbEntity
  8
0
100
AcDbSpline
 62
7
  6
CONTINUOUS
 70
0
 71
3
 72
23
 73
19
 74
0
 42
0.0000001
 43
0.0000001
 44
0.0000000001
 40
0.0
 40
0.0
 40
0.0
 40
0.0
 40
0.0548395015
 40
0.1116320404
 40
0.1704854024
 40
0.231355882
 40
0.294089656
 40
0.3584168114
 40
0.4239963168
 40
0.4904146199
 40
0.55722833
 40
0.6239730663
 40
0.6901886728
 40
0.7554278482
 40
0.8192958202
 40
0.8815072681
 40
0.9418278208
 40
1.0
 40
1.0
 40
1.0
 40
1.0
 10
43.9306634683
 20
220.6263985128
 30
0.0
 10
43.9873330862
 20
220.5230621854
 30
0.0
 10
44.0867527051
 20
220.3036220577
 30
0.0
 10
44.1901392112
 20
219.9510223726
 30
0.0
 10
44.2486311966
 20
219.5751760396
 30
0.0
 10
44.2616421271
 20
219.1823736465
 30
0.0
 10
44.2287987883
 20
218.7789988435
 30
0.0
 10
44.1509884169
 20
218.3715956816
 30
0.0
 10
44.0292435781
 20
217.9668665743
 30
0.0
 10
43.8658704752
 20
217.5713180598
 30
0.0
 10
43.6632694436
 20
217.1915265708
 30
0.0
 10
43.4250057746
 20
216.8335495442
 30
0.0
 10
43.154707419
 20
216.5034449473
 30
0.0
 10
42.8570990578
 20
216.2063756162
 30
0.0
 10
42.5367133616
 20
215.9474414278
 30
0.0
 10
42.1988077634
 20
215.7306682877
 30
0.0
 10
41.8489383822
 20
215.5601227295
 30
0.0
 10
41.6072604603
 20
215.477260304
 30
0.0
 10
41.4865060682
 20
215.4448916604
 30
0.0
  0
SPLINE
  5
5EF
100
AcDbEntity
  8
0
100
AcDbSpline
 62
7
  6
CONTINUOUS
 70
0
 71
3
 72
11
 73
7
 74
0
 42
0.0000001
 43
0.0000001
 44
0.0000000001
 40
0.0
 40
0.0
 40
0.0
 40
0.0
 40
0.2396790448
 40
0.4846740089
 40
0.7377424146
 40
1.0
 40
1.0
 40
1.0
 40
1.0
 10
71.3017215922
 20
145.839853183
 30
0.0
 10
71.3804670202
 20
145.8052038885
 30
0.0
 10
71.5466736618
 20
145.7500167325
 30
0.0
 10
71.8101964865
 20
145.7128760095
 30
0.0
 10
72.0841833764
 20
145.7215243132
 30
0.0
 10
72.2666669505
 20
145.7565067268
 30
0.0
 10
72.3575927652
 20
145.7808802555
 30
0.0
  0
SPLINE
  5
5F0
100
AcDbEntity
  8
0
100
AcDbSpline
 62
7
  6
CONTINUOUS
 70
0
 71
3
 72
11
 73
7
 74
0
 42
0.0000001
 43
0.0000001
 44
0.0000000001
 40
0.0
 40
0.0
 40
0.0
 40
0.0
 40
0.2450268637
 40
0.4921390619
 40
0.7432588536
 40
1.0
 40
1.0
 40
1.0
 40
1.0
 10
70.6671389837
 20
145.0420726105
 30
0.0
 10
70.5865887965
 20
145.0885958481
 30
0.0
 10
70.4312456765
 20
145.1937443259
 30
0.0
 10
70.2218303839
 20
145.384195529
 30
0.0
 10
70.0378498166
 20
145.605074926
 30
0.0
 10
69.9348441102
 20
145.7688054207
 30
0.0
 10
69.8882174226
 20
145.8543964056
 30
0.0
  0
SPLINE
  5
5F1
100
AcDbEntity
  8
0
100
AcDbSpline
 62
7
  6
CONTINUOUS
 70
0
 71
3
 72
11
 73
7
 74
0
 42
0.0000001
 43
0.0000001
 44
0.0000000001
 40
0.0
 40
0.0
 40
0.0
 40
0.0
 40
0.2376656998
 40
0.4834619681
 40
0.7378195312
 40
1.0
 40
1.0
 40
1.0
 40
1.0
 10
69.8882174226
 20
145.8543964056
 30
0.0
 10
69.8345049955
 20
145.9529944353
 30
0.0
 10
69.7395754407
 20
146.1616685057
 30
0.0
 10
69.6383189579
 20
146.4961609901
 30
0.0
 10
69.577474073
 20
146.8519828606
 30
0.0
 10
69.564217524
 20
147.0962453731
 30
0.0
 10
69.564217524
 20
147.2201058507
 30
0.0
  0
SPLINE
  5
5F2
100
AcDbEntity
  8
0
100
AcDbSpline
 62
7
  6
CONTINUOUS
 70
0
 71
3
 72
10
 73
6
 74
0
 42
0.0000001
 43
0.0000001
 44
0.0000000001
 40
0.0
 40
0.0
 40
0.0
 40
0.0
 40
0.4824122794
 40
0.7376196105
 40
1.0
 40
1.0
 40
1.0
 40
1.0
 10
116.5887888626
 20
157.6374727333
 30
0.0
 10
116.7897425591
 20
157.6913402813
 30
0.0
 10
117.0853200376
 20
157.8232698321
 30
0.0
 10
117.4386933565
 20
158.0713595572
 30
0.0
 10
117.6049160287
 20
158.2214376677
 30
0.0
 10
117.6843559575
 20
158.3020202734
 30
0.0
  0
ELLIPSE
  5
5F3
100
AcDbEntity
  8
0
100
AcDbEllipse
 62
7
  6
CONTINUOUS
 10
76.6948932537
 20
248.895436181
 30
0.0
 11
1.0186236561
 21
1.7211640966
 31
0.0
 40
0.756314467
 41
0.0
 42
6.2831853072
  0
ELLIPSE
  5
5F4
100
AcDbEntity
  8
0
100
AcDbEllipse
 62
7
  6
CONTINUOUS
 10
71.7181172376
 20
248.2755547442
 30
0.0
 11
1.0186236561
 21
1.7211640966
 31
0.0
 40
0.756314467
 41
-2.8103732801
 42
-0.3268447951
  0
ELLIPSE
  5
5F5
100
AcDbEntity
  8
0
100
AcDbEllipse
 62
7
  6
CONTINUOUS
 10
75.8503291316
 20
249.383233414
 30
0.0
 11
1.0186236561
 21
1.7211640966
 31
0.0
 40
0.756314467
 41
3.4728120271
 42
5.9563405121
  0
ELLIPSE
  5
5F6
100
AcDbEntity
  8
0
100
AcDbEllipse
 62
7
  6
CONTINUOUS
 10
72.5626813596
 20
247.7877575112
 30
0.0
 11
1.0186236561
 21
1.7211640966
 31
0.0
 40
0.756314467
 41
0.0
 42
6.2831853072
  0
ELLIPSE
  5
5F7
100
AcDbEntity
  8
0
100
AcDbEllipse
 62
7
  6
CONTINUOUS
 10
-50.3175247621
 20
216.0717143077
 30
0.0
 11
198.5053553201
 21
1.0574490784
 31
0.0
 40
0.3868317865
 41
-1.1519351856
 42
-1.0738840723
  0
ELLIPSE
  5
5F8
100
AcDbEntity
  8
0
100
AcDbEllipse
 62
7
  6
CONTINUOUS
 10
122.7982155235
 20
197.250881766
 30
0.0
 11
-0.1844439022
 21
0.675269142
 31
0.0
 40
0.5242269296
 41
-2.5037598629
 42
-2.0511310866
  0
ELLIPSE
  5
5F9
100
AcDbEntity
  8
0
100
AcDbEllipse
 62
7
  6
CONTINUOUS
 10
-5.9542946136
 20
267.3342778493
 30
0.0
 11
110.8425249166
 21
-0.4364062815
 31
0.0
 40
0.3983337023
 41
-0.9711904167
 42
-0.7523232443
  0
ELLIPSE
  5
5FA
100
AcDbEntity
  8
0
100
AcDbEllipse
 62
7
  6
CONTINUOUS
 10
-5.9489057608
 20
267.3311206132
 30
0.0
 11
110.8358905135
 21
-0.4344994742
 31
0.0
 40
0.3983281388
 41
-1.1901048728
 42
-0.971215242
  0
ELLIPSE
  5
5FB
100
AcDbEntity
  8
0
100
AcDbEllipse
 62
7
  6
CONTINUOUS
 10
-5.9542946235
 20
251.7569997364
 30
0.0
 11
110.8424046361
 21
-0.5961092313
 31
0.0
 40
0.4000973973
 41
-0.970606778
 42
-0.751739836
  0
ELLIPSE
  5
5FC
100
AcDbEntity
  8
0
100
AcDbEllipse
 62
7
  6
CONTINUOUS
 10
-5.9489057707
 20
251.753822073
 30
0.0
 11
110.8357706983
 21
-0.594180491
 31
0.0
 40
0.4000918259
 41
-1.1895215471
 42
-0.9706316859
  0
ENDSEC
  0
SECTION
  2
OBJECTS
  0
DICTIONARY
  5
C
100
AcDbDictionary
280
0
281
1
  3
ACAD_GROUP
350
D
  3
ACAD_MLINESTYLE
350
17
  3
ACAD_LAYOUT
350
1A
  3
ACAD_PLOTSETTINGS
350
19
  3
ACAD_PLOTSTYLENAME
350
E
  0
DICTIONARY
  5
D
102
{ACAD_REACTORS
330
C
102
}
100
AcDbDictionary
280
0
281
1
  0
ACDBDICTIONARYWDFLT
  5
E
102
{ACAD_REACTORS
330
C
102
}
100
AcDbDictionary
281
1
  3
Normal
350
F
100
AcDbDictionaryWithDefault
340
F
  0
DICTIONARY
  5
17
102
{ACAD_REACTORS
330
C
102
}
100
AcDbDictionary
280
0
281
1
  3
Standard
350
18
  0
DICTIONARY
  5
19
102
{ACAD_REACTORS
330
C
102
}
100
AcDbDictionary
281
1
  0
DICTIONARY
  5
1A
102
{ACAD_REACTORS
330
C
102
}
100
AcDbDictionary
281
1
  3
Model
350
5FD
  3
Layout1
350
5FE
  0
ACDBPLACEHOLDER
  5
F
102
{ACAD_REACTORS
330
E
102
}
  0
MLINESTYLE
  5
18
102
{ACAD_REACTORS
330
17
102
}
100
AcDbMlineStyle
  2
STANDARD
 70
0
  3

 62
256
 51
90.0
 52
90.0
 71
2
 49
0.5
 62
256
  6
BYLAYER
 49
-0.5
 62
256
  6
BYLAYER
  0
LAYOUT
  5
5FD
102
{ACAD_REACTORS
330
1A
102
}
100
AcDbPlotSettings
  1

  2
none_device
  4
ANSI_C_(22.00_x_17.00_Inches)
  6

 40
0.0
 41
0.0
 42
0.0
 43
0.0
 44
558.8
 45
431.8
 46
0.0
 47
0.0
 48
0.0
 49
0.0
140
0.0
141
0.0
142
1.0
143
1.0
 70
1024
 72
1
 73
0
 74
0
  7

 75
0
147
1.0
148
0.0
149
0.0
100
AcDbLayout
  1
Model
 70
0
 71
0
 10
0.0
 20
0.0
 11
558.8
 21
431.8
 12
0.0
 22
0.0
 32
0.0
 14
0.0
 24
0.0
 34
0.0
 15
0.0
 25
0.0
 35
0.0
146
0.0
 13
0.0
 23
0.0
 33
0.0
 16
1.0
 26
0.0
 36
0.0
 17
0.0
 27
1.0
 37
0.0
 76
0
330
216
345
0
346
0
  0
LAYOUT
  5
5FE
102
{ACAD_REACTORS
330
1A
102
}
100
AcDbPlotSettings
  1

  2
none_device
  4
ANSI_C_(22.00_x_17.00_Inches)
  6

 40
0.0
 41
0.0
 42
0.0
 43
0.0
 44
558.8
 45
431.8
 46
0.0
 47
0.0
 48
0.0
 49
0.0
140
0.0
141
0.0
142
1.0
143
1.0
 70
0
 72
1
 73
0
 74
0
  7

 75
0
147
1.0
148
0.0
149
0.0
100
AcDbLayout
  1
Layout1
 70
0
 71
1
 10
0.0
 20
0.0
 11
558.8
 21
431.8
 12
0.0
 22
0.0
 32
0.0
 14
0.0
 24
0.0
 34
0.0
 15
0.0
 25
0.0
 35
0.0
146
0.0
 13
0.0
 23
0.0
 33
0.0
 16
1.0
 26
0.0
 36
0.0
 17
0.0
 27
1.0
 37
0.0
 76
0
330
217
345
0
346
0
  0
ENDSEC
  0
EOF
